  0
SECTION
  2
HEADER
  9
$ACADVER
  1
AC1009
  9
$INSBASE
 10
0.0
 20
0.0
 30
0.0
  9
$EXTMIN
 10
-251.06749625636709
 20
325.34022912876611
 30
-0.0015258207003583
  9
$EXTMAX
 10
975.61559196820735
 20
793.29369151036371
 30
0.0000000349246037
  9
$LIMMIN
 10
0.0
 20
0.0
  9
$LIMMAX
 10
420.0
 20
297.0
  9
$ORTHOMODE
 70
     0
  9
$REGENMODE
 70
     1
  9
$FILLMODE
 70
     1
  9
$QTEXTMODE
 70
     0
  9
$MIRRTEXT
 70
     1
  9
$DRAGMODE
 70
     2
  9
$LTSCALE
 40
1.0
  9
$OSMODE
 70
    47
  9
$ATTMODE
 70
     1
  9
$TEXTSIZE
 40
0.0
  9
$TRACEWID
 40
1.0
  9
$TEXTSTYLE
  7
STANDARD
  9
$CLAYER
  8
0
  9
$CELTYPE
  6
BYLAYER
  9
$CECOLOR
 62
   256
  9
$DIMSCALE
 40
1.0
  9
$DIMASZ
 40
2.5
  9
$DIMEXO
 40
0.625
  9
$DIMDLI
 40
3.75
  9
$DIMRND
 40
0.0
  9
$DIMDLE
 40
0.0
  9
$DIMEXE
 40
1.25
  9
$DIMTP
 40
0.0
  9
$DIMTM
 40
0.0
  9
$DIMTXT
 40
2.5
  9
$DIMCEN
 40
2.5
  9
$DIMTSZ
 40
0.0
  9
$DIMTOL
 70
     0
  9
$DIMLIM
 70
     0
  9
$DIMTIH
 70
     0
  9
$DIMTOH
 70
     0
  9
$DIMSE1
 70
     0
  9
$DIMSE2
 70
     0
  9
$DIMTAD
 70
     1
  9
$DIMZIN
 70
     8
  9
$DIMBLK
  1

  9
$DIMASO
 70
     1
  9
$DIMSHO
 70
     1
  9
$DIMPOST
  1

  9
$DIMAPOST
  1

  9
$DIMALT
 70
     0
  9
$DIMALTD
 70
     3
  9
$DIMALTF
 40
0.03937
  9
$DIMLFAC
 40
1.0
  9
$DIMTOFL
 70
     1
  9
$DIMTVP
 40
0.0
  9
$DIMTIX
 70
     0
  9
$DIMSOXD
 70
     0
  9
$DIMSAH
 70
     0
  9
$DIMBLK1
  1

  9
$DIMBLK2
  1

  9
$DIMSTYLE
  2
STANDARD
  9
$DIMCLRD
 70
     0
  9
$DIMCLRE
 70
     0
  9
$DIMCLRT
 70
     0
  9
$DIMTFAC
 40
1.0
  9
$DIMGAP
 40
0.625
  9
$LUNITS
 70
     2
  9
$LUPREC
 70
     4
  9
$SKETCHINC
 40
1.0
  9
$FILLETRAD
 40
2.5
  9
$AUNITS
 70
     0
  9
$AUPREC
 70
     0
  9
$MENU
  1
.
  9
$ELEVATION
 40
0.0
  9
$PELEVATION
 40
0.0
  9
$THICKNESS
 40
0.0
  9
$LIMCHECK
 70
     0
  9
$BLIPMODE
 70
     0
  9
$CHAMFERA
 40
2.5
  9
$CHAMFERB
 40
2.5
  9
$SKPOLY
 70
     0
  9
$TDCREATE
 40
2311942.6598650231
  9
$TDUPDATE
 40
2454455.3835001038
  9
$TDINDWG
 40
0.0010164236
  9
$TDUSRTIMER
 40
0.0010164236
  9
$USRTIMER
 70
     1
  9
$ANGBASE
 50
0.0
  9
$ANGDIR
 70
     0
  9
$PDMODE
 70
     0
  9
$PDSIZE
 40
0.0
  9
$PLINEWID
 40
0.0
  9
$COORDS
 70
     1
  9
$SPLFRAME
 70
     0
  9
$SPLINETYPE
 70
     6
  9
$SPLINESEGS
 70
     8
  9
$ATTDIA
 70
     0
  9
$ATTREQ
 70
     1
  9
$HANDLING
 70
 22529
  9
$HANDSEED
  5
944
  9
$SURFTAB1
 70
     6
  9
$SURFTAB2
 70
     6
  9
$SURFTYPE
 70
     6
  9
$SURFU
 70
     6
  9
$SURFV
 70
     6
  9
$UCSNAME
  2

  9
$UCSORG
 10
0.0
 20
0.0
 30
0.0
  9
$UCSXDIR
 10
1.0
 20
0.0
 30
0.0
  9
$UCSYDIR
 10
0.0
 20
1.0
 30
0.0
  9
$PUCSNAME
  2

  9
$PUCSORG
 10
0.0
 20
0.0
 30
0.0
  9
$PUCSXDIR
 10
1.0
 20
0.0
 30
0.0
  9
$PUCSYDIR
 10
0.0
 20
1.0
 30
0.0
  9
$USERI1
 70
     0
  9
$USERI2
 70
     0
  9
$USERI3
 70
     0
  9
$USERI4
 70
     0
  9
$USERI5
 70
     0
  9
$USERR1
 40
0.0
  9
$USERR2
 40
0.0
  9
$USERR3
 40
0.0
  9
$USERR4
 40
0.0
  9
$USERR5
 40
0.0
  9
$WORLDVIEW
 70
     1
  9
$SHADEDGE
 70
     3
  9
$SHADEDIF
 70
    70
  9
$TILEMODE
 70
     1
  9
$MAXACTVP
 70
    48
  9
$PLIMCHECK
 70
     0
  9
$PEXTMIN
 10
0.0
 20
0.0
 30
0.0
  9
$PEXTMAX
 10
212.9073029999999
 20
200.0
 30
2.0
  9
$PLIMMIN
 10
0.0
 20
0.0
  9
$PLIMMAX
 10
420.0
 20
297.0
  9
$UNITMODE
 70
     0
  9
$VISRETAIN
 70
     0
  9
$PLINEGEN
 70
     0
  9
$PSLTSCALE
 70
     1
  0
ENDSEC
  0
SECTION
  2
TABLES
  0
TABLE
  2
VPORT
 70
     2
  0
VPORT
  2
*ACTIVE
 70
     0
 10
0.0
 20
0.0
 11
1.0
 21
1.0
 12
362.27404785592012
 22
559.31696031956494
 13
0.0
 23
0.0
 14
1.0
 24
1.0
 15
0.0
 25
0.0
 16
0.0
 26
0.0
 36
1.0
 17
0.0
 27
0.0
 37
0.0
 40
795.06580346862836
 41
1.550724637681159
 42
50.0
 43
0.0
 44
0.0
 50
0.0
 51
0.0
 71
     0
 72
   100
 73
     1
 74
     1
 75
     0
 76
     0
 77
     0
 78
     0
  0
ENDTAB
  0
TABLE
  2
LTYPE
 70
     8
  0
LTYPE
  2
CONTINUOUS
 70
     0
  3
Solid line
 72
    65
 73
     0
 40
0.0
  0
LTYPE
  2
DASHED
 70
     0
  3
__ __ __ __ __ __ __ __ __ __ __ __ __ __ __ __
 72
    65
 73
     2
 40
15.0
 49
12.0
 49
-3.0
  0
LTYPE
  2
DASHDOT
 70
     0
  3
 __ . __ . __ . __ . __ . __ . __ . 
 72
    65
 73
     4
 40
18.5
 49
12.0
 49
-3.0
 49
0.5
 49
-3.0
  0
LTYPE
  2
DOT
 70
     0
  3
 . . . . . . . . . . . . . . . .
 72
    65
 73
     2
 40
3.5
 49
0.5
 49
-3.0
  0
LTYPE
  2
DASHSPACE
 70
     0
  3
__    __    __    __    __   
 72
    65
 73
     2
 40
30.0
 49
12.0
 49
-18.0
  0
LTYPE
  2
DASHDOT2
 70
     0
  3
__ . . __ . . __ . . __ 
 72
    65
 73
     6
 40
22.0
 49
12.0
 49
-3.0
 49
0.5
 49
-3.0
 49
0.5
 49
-3.0
  0
LTYPE
  2
PHANTOM
 70
     0
  3
____________    ____    ____   _
 72
    65
 73
     6
 40
20.0
 49
10.0
 49
-2.0
 49
2.0
 49
-2.0
 49
2.0
 49
-2.0
  0
LTYPE
  2
AXES
 70
     0
  3
________  __  ________  __  _____
 72
    65
 73
     4
 40
24.0
 49
15.0
 49
-3.0
 49
3.0
 49
-3.0
  0
ENDTAB
  0
TABLE
  2
LAYER
 70
     1
  0
LAYER
  2
0
 70
     0
 62
     7
  6
CONTINUOUS
  0
ENDTAB
  0
TABLE
  2
STYLE
 70
     2
  0
STYLE
  2
STANDARD
 70
     0
 40
0.0
 41
1.0
 50
0.0
 71
     0
 42
0.0
  3
isocp.shx
  4

  0
STYLE
  2
GDT
 70
     0
 40
0.0
 41
1.0
 50
0.0
 71
     0
 42
0.0
  3
amgdt.shx
  4

  0
ENDTAB
  0
TABLE
  2
VIEW
 70
     0
  0
ENDTAB
  0
TABLE
  2
UCS
 70
     0
  0
ENDTAB
  0
TABLE
  2
APPID
 70
     1
  0
APPID
  2
ACAD
 70
     0
  0
ENDTAB
  0
TABLE
  2
DIMSTYLE
 70
     1
  0
DIMSTYLE
  2
STANDARD
 70
     0
  3

  4

  5

  6

  7

 40
1.0
 41
2.5
 42
0.625
 43
3.75
 44
1.25
 45
0.0
 46
0.0
 47
0.0
 48
0.0
140
2.5
141
2.5
142
0.0
143
0.03937
144
1.0
145
0.0
146
1.0
147
0.625
 71
     0
 72
     0
 73
     0
 74
     0
 75
     0
 76
     0
 77
     1
 78
     8
170
     0
171
     3
172
     1
173
     0
174
     0
175
     0
176
     0
177
     0
178
     0
  0
ENDTAB
  0
ENDSEC
  0
SECTION
  2
BLOCKS
  0
BLOCK
  8
0
  2
$MODEL_SPACE
 70
     0
 10
0.0
 20
0.0
 30
0.0
  3
$MODEL_SPACE
  1

  0
ENDBLK
  5
E
  8
0
  0
BLOCK
 67
     1
  8
0
  2
$PAPER_SPACE
 70
     0
 10
0.0
 20
0.0
 30
0.0
  3
$PAPER_SPACE
  1

  0
ENDBLK
  5
10
 67
     1
  8
0
  0
BLOCK
  8
0
  2
BLOCK0
 70
     0
 10
0.0
 20
0.0
 30
0.0
  3
BLOCK0
  1

  0
LINE
  5
574
  8
0
 62
     3
 10
-68.999968999999993
 20
-58.5
 30
0.0
 11
89.500022999999985
 21
-58.5
 31
0.0
  0
LINE
  5
575
  8
0
 62
     3
 10
-70.249968999999993
 20
57.25
 30
0.0
 11
-70.249968999999993
 21
-57.25
 31
0.0
  0
LINE
  5
576
  8
0
 62
     3
 10
-68.999968999999993
 20
58.5
 30
0.0
 11
89.500022999999985
 21
58.5
 31
0.0
  0
LINE
  5
577
  8
0
 62
     3
 10
90.750022999999985
 20
57.25
 30
0.0
 11
90.750022999999985
 21
-57.25
 31
0.0
  0
LINE
  5
578
  8
0
 62
     3
 10
-42.74997299999999
 20
-53.0
 30
0.0
 11
63.250022999999999
 21
-53.0
 31
0.0
  0
LINE
  5
579
  8
0
 62
     3
 10
-42.74997299999999
 20
53.0
 30
0.0
 11
-42.74997299999999
 21
-53.0
 31
0.0
  0
LINE
  5
57A
  8
0
 62
     3
 10
-42.74997299999999
 20
53.0
 30
0.0
 11
63.250022999999999
 21
53.0
 31
0.0
  0
LINE
  5
57B
  8
0
 62
     3
 10
63.250022999999999
 20
53.0
 30
0.0
 11
63.250022999999999
 21
-53.0
 31
0.0
  0
LINE
  5
57C
  8
0
 62
     3
 10
-51.249972999999997
 20
-54.0
 30
0.0
 11
-50.24997299999999
 21
-54.0
 31
0.0
  0
LINE
  5
57D
  8
0
 62
     3
 10
-49.249972999999997
 20
53.0
 30
0.0
 11
-49.249972999999997
 21
-53.0
 31
0.0
  0
LINE
  5
57E
  8
0
 62
     3
 10
-51.249972999999997
 20
54.0
 30
0.0
 11
-50.24997299999999
 21
54.0
 31
0.0
  0
LINE
  5
57F
  8
0
 62
     3
 10
-50.24997299999999
 20
53.0
 30
0.0
 11
-50.24997299999999
 21
-53.0
 31
0.0
  0
LINE
  5
580
  8
0
 62
     3
 10
-70.249968999999993
 20
54.0
 30
0.0
 11
-51.249972999999997
 21
54.0
 31
0.0
  0
LINE
  5
581
  8
0
 62
     3
 10
-50.249977000000001
 20
54.0
 30
0.0
 11
90.750022999999985
 21
54.0
 31
0.0
  0
LINE
  5
582
  8
0
 62
     3
 10
-70.249968999999993
 20
53.0
 30
0.0
 11
-50.24997299999999
 21
53.0
 31
0.0
  0
LINE
  5
583
  8
0
 62
     3
 10
63.250022999999999
 20
53.0
 30
0.0
 11
69.750022999999985
 21
53.0
 31
0.0
  0
LINE
  5
584
  8
0
 62
     3
 10
-49.249972999999997
 20
53.0
 30
0.0
 11
-42.74997299999999
 21
53.0
 31
0.0
  0
LINE
  5
585
  8
0
 62
     3
 10
-70.249968999999993
 20
-54.0
 30
0.0
 11
-51.249972999999997
 21
-54.0
 31
0.0
  0
LINE
  5
586
  8
0
 62
     3
 10
-50.24997299999999
 20
-54.0
 30
0.0
 11
90.750022999999985
 21
-54.0
 31
0.0
  0
LINE
  5
587
  8
0
 62
     3
 10
-49.249972999999997
 20
-53.0
 30
0.0
 11
-42.74997299999999
 21
-53.0
 31
0.0
  0
LINE
  5
588
  8
0
 62
     3
 10
63.250022999999999
 20
-53.0
 30
0.0
 11
69.750022999999985
 21
-53.0
 31
0.0
  0
LINE
  5
589
  8
0
 62
     3
 10
-70.249968999999993
 20
-53.0
 30
0.0
 11
-50.24997299999999
 21
-53.0
 31
0.0
  0
LINE
  5
58A
  8
0
 62
     3
 10
70.750022999999999
 20
54.0
 30
0.0
 11
70.750022999999999
 21
-54.0
 31
0.0
  0
LINE
  5
58B
  8
0
 62
     3
 10
69.750022999999985
 20
53.0
 30
0.0
 11
69.750022999999985
 21
-53.0
 31
0.0
  0
ARC
  5
58C
  8
0
 62
     3
 10
-68.999968999999993
 20
57.25
 30
0.0
 40
1.25
 50
90.000005000000002
 51
180.00000099999991
  0
ARC
  5
58D
  8
0
 62
     3
 10
-68.999968999999993
 20
-57.25
 30
0.0
 40
1.25
 50
180.00000099999991
 51
270.0
  0
ARC
  5
58E
  8
0
 62
     3
 10
89.500022999999985
 20
-57.25
 30
0.0
 40
1.25
 50
270.0
 51
0.000003
  0
ARC
  5
58F
  8
0
 62
     3
 10
89.500022999999985
 20
57.25
 30
0.0
 40
1.25
 50
0.000003
 51
90.000005000000002
  0
LINE
  5
590
  8
0
  6
DASHSPACE
 62
     3
 10
80.000022999999999
 20
54.5
 30
0.0
 11
80.000022999999999
 21
54.0
 31
0.0
  0
LINE
  5
591
  8
0
  6
DASHSPACE
 62
     3
 10
81.500022999999999
 20
54.5
 30
0.0
 11
81.500022999999999
 21
54.0
 31
0.0
  0
LINE
  5
592
  8
0
 62
     3
 10
80.000022999999999
 20
-53.5
 30
0.0
 11
80.000022999999999
 21
-54.0
 31
0.0
  0
LINE
  5
593
  8
0
 62
     3
 10
81.500022999999999
 20
-53.5
 30
0.0
 11
81.500022999999999
 21
-54.0
 31
0.0
  0
ARC
  5
594
  8
0
  6
DASHSPACE
 62
     3
 10
80.750022999999985
 20
54.5
 30
0.0
 40
0.75
 50
0.000003
 51
180.00000099999991
  0
ARC
  5
595
  8
0
 62
     3
 10
80.750022999999985
 20
53.5
 30
0.0
 40
0.75
 50
180.00000099999991
 51
0.000003
  0
LINE
  5
596
  8
0
 62
     3
 10
81.500022999999999
 20
54.0
 30
0.0
 11
81.500022999999999
 21
53.5
 31
0.0
  0
LINE
  5
597
  8
0
 62
     3
 10
80.000022999999999
 20
54.0
 30
0.0
 11
80.000022999999999
 21
53.5
 31
0.0
  0
ARC
  5
598
  8
0
 62
     3
 10
80.750022999999985
 20
-53.5
 30
0.0
 40
0.75
 50
0.000003
 51
180.00000099999991
  0
ARC
  5
599
  8
0
  6
DASHSPACE
 62
     3
 10
80.750022999999985
 20
-54.5
 30
0.0
 40
0.75
 50
180.00000099999991
 51
0.000003
  0
LINE
  5
59A
  8
0
  6
DASHSPACE
 62
     3
 10
81.500022999999999
 20
-54.0
 30
0.0
 11
81.500022999999999
 21
-54.5
 31
0.0
  0
LINE
  5
59B
  8
0
  6
DASHSPACE
 62
     3
 10
80.000022999999999
 20
-54.0
 30
0.0
 11
80.000022999999999
 21
-54.5
 31
0.0
  0
POINT
  5
59C
  8
0
 62
     3
 10
10.25002299999999
 20
0.0
 30
0.0
  0
ENDBLK
  5
59D
  8
0
  0
BLOCK
  8
0
  2
BLOCK1
 70
     0
 10
0.0
 20
0.0
 30
0.0
  3
BLOCK1
  1

  0
TEXT
  5
59F
  8
0
 62
     7
 10
-128.76890599999999
 20
8.2500079999999993
 30
0.0
 40
3.0
  1
105
 50
270.0
 41
1.4327507732320051
 72
     5
 11
-128.76890599999999
 21
0.5500270000000002
 31
0.0
  0
ENDBLK
  5
5A0
  8
0
  0
BLOCK
  8
0
  2
BLOCK2
 70
     0
 10
0.0
 20
0.0
 30
0.0
  3
BLOCK2
  1

  0
TEXT
  5
5A2
  8
0
 62
     7
 10
4.250030999999999
 20
97.360534999999999
 30
0.0
 40
3.0
  1
170
 41
1.466003047747545
 72
     5
 11
11.950010000000001
 21
97.360534999999999
 31
0.0
  0
ENDBLK
  5
5A3
  8
0
  0
BLOCK
  8
0
  2
BLOCK3
 70
     0
 10
0.0
 20
0.0
 30
0.0
  3
BLOCK3
  1

  0
TEXT
  5
5A5
  8
0
 62
     7
 10
-112.360992
 20
-12.000021
 30
0.0
 40
3.0
  1
35
 50
270.0
 41
1.277659682512482
 72
     5
 11
-112.360992
 21
-16.950012000000001
 31
0.0
  0
ENDBLK
  5
5A6
  8
0
  0
BLOCK
  8
0
  2
BLOCK4
 70
     0
 10
0.0
 20
0.0
 30
0.0
  3
BLOCK4
  1

  0
TEXT
  5
5A8
  8
0
 62
     7
 10
-112.36097700000001
 20
23.000004000000001
 30
0.0
 40
3.0
  1
35
 50
270.0
 41
1.277659424398945
 72
     5
 11
-112.36097700000001
 21
18.050014000000001
 31
0.0
  0
ENDBLK
  5
5A9
  8
0
  0
BLOCK
  8
0
  2
BLOCK5
 70
     0
 10
0.0
 20
0.0
 30
0.0
  3
BLOCK5
  1

  0
TEXT
  5
5AB
  8
0
 62
     7
 10
16.0
 20
110.0
 30
0.0
 40
3.0
  1
X
 50
270.0
 41
0.9777764444444425
 72
     5
 11
16.0
 21
107.800003
 31
0.0
  0
ENDBLK
  5
5AC
  8
0
  0
BLOCK
  8
0
  2
BLOCK6
 70
     0
 10
0.0
 20
0.0
 30
0.0
  3
BLOCK6
  1

  0
TEXT
  5
5AE
  8
0
 62
     7
 10
14.0
 20
-114.0
 30
0.0
 40
3.0
  1
X
 50
270.00002604357161
 41
0.9777764444445436
 72
     5
 11
14.000000999999999
 21
-116.1999969999999
 31
0.0
  0
ENDBLK
  5
5AF
  8
0
  0
BLOCK
  8
0
  2
BLOCK7
 70
     0
 10
0.0
 20
0.0
 30
0.0
  3
BLOCK7
  1

  0
TEXT
  5
5B1
  8
0
 62
     7
 10
147.23434399999991
 20
0.755772
 30
0.0
 40
3.0
  1
Y
 50
270.0
 41
0.9777777777777778
 72
     5
 11
147.23434399999991
 21
-1.4442280000000001
 31
0.0
  0
ENDBLK
  5
5B2
  8
0
  0
BLOCK
  8
0
  2
BLOCK8
 70
     0
 10
0.0
 20
0.0
 30
0.0
  3
BLOCK8
  1

  0
TEXT
  5
5B4
  8
0
 62
     7
 10
40.125022999999999
 20
77.837226999999999
 30
0.0
 40
3.0
  1
87,25
 50
359.9999652751772
 41
1.4466875246702331
 72
     5
 11
53.324981999999991
 21
77.83721899999999
 31
0.0
  0
ENDBLK
  5
5B5
  8
0
  0
BLOCK
  8
0
  2
BLOCK9
 70
     0
 10
0.0
 20
0.0
 30
0.0
  3
BLOCK9
  1

  0
TEXT
  5
5B7
  8
0
 62
     2
 10
147.09715299999991
 20
40.015377000000001
 30
0.0
 40
3.0
  1
20
 50
270.0
 41
1.319166095897597
 72
     5
 11
147.09715299999991
 21
35.065387999999992
 31
0.0
  0
ENDBLK
  5
5B8
  8
0
  0
BLOCK
  8
0
  2
BLOCK10
 70
     0
 10
0.0
 20
0.0
 30
0.0
  3
BLOCK10
  1

  0
TEXT
  5
5BA
  8
0
 62
     2
 10
128.07742300000001
 20
74.360969999999995
 30
0.0
 40
3.0
  1
 8,5
 50
257.77098747624109
 41
1.7063221948339351
 72
     5
 11
125.86391399999989
 21
64.148124999999993
 31
0.0
  0
ENDBLK
  5
5BB
  8
0
  0
BLOCK
  8
0
  2
BLOCK11
 70
     0
 10
0.0
 20
0.0
 30
0.0
  3
BLOCK11
  1

  0
TEXT
  5
5BD
  8
0
 62
     2
 10
128.24688699999999
 20
75.142821999999995
 30
0.0
 40
3.0
  1
%%c
 50
257.77098895952452
 41
0.9777771921304339
 72
     5
 11
127.780884
 21
72.992743999999973
 31
0.0
  0
ENDBLK
  5
5BE
  8
0
  0
BLOCK
  8
0
  2
BLOCK12
 70
     0
 10
0.0
 20
0.0
 30
0.0
  3
BLOCK12
  1

  0
TEXT
  5
5C0
  8
0
 62
     2
 10
4.2500150000000003
 20
-105.48174999999991
 30
0.0
 40
3.0
  1
175
 41
1.432750587160017
 72
     5
 11
11.949994999999991
 21
-105.48174999999991
 31
0.0
  0
ENDBLK
  5
5C1
  8
0
  0
BLOCK
  8
0
  2
BLOCK13
 70
     0
 10
0.0
 20
0.0
 30
0.0
  3
BLOCK13
  1

  0
TEXT
  5
5C3
  8
0
 62
     7
 10
41.375022999999999
 20
-69.811462000000006
 30
0.0
 40
3.0
  1
89,75
 50
359.99996527517732
 41
1.4450273130738429
 72
     5
 11
54.574981999999991
 21
-69.811469999999986
 31
0.0
  0
ENDBLK
  5
5C4
  8
0
  0
BLOCK
  8
0
  2
BLOCK14
 70
     0
 10
0.0
 20
0.0
 30
0.0
  3
BLOCK14
  1

  0
TEXT
  5
5C6
  8
0
 62
     2
 10
141.75001499999991
 20
-105.4817429999999
 30
0.0
 40
3.0
  1
100
 41
1.4660036189191219
 72
     5
 11
149.44999699999991
 21
-105.4817429999999
 31
0.0
  0
ENDBLK
  5
5C7
  8
0
  0
BLOCK
  8
0
  2
BLOCK15
 70
     0
 10
0.0
 20
0.0
 30
0.0
  3
BLOCK15
  1

  0
TEXT
  5
5C9
  8
0
 62
     7
 10
2.0000309999999999
 20
-87.587745999999996
 30
0.0
 40
3.0
  1
161
 41
1.655909462365591
 72
     5
 11
9.7000100000000007
 21
-87.587745999999996
 31
0.0
  0
ENDBLK
  5
5CA
  8
0
  0
BLOCK
  8
0
  2
BLOCK16
 70
     0
 10
0.0
 20
0.0
 30
0.0
  3
BLOCK16
  1

  0
TEXT
  5
5CC
  8
0
 62
     7
 10
209.90730300000001
 20
4.4500000000000002
 30
0.0
 40
3.0
  1
117
 50
270.0
 41
1.6774193548387091
 72
     5
 11
209.90730300000001
 21
-3.3500000000000001
 31
0.0
  0
LINE
  5
5CD
  8
0
 62
     7
 10
90.500022999999999
 20
-58.5
 30
0.0
 11
210.9073029999999
 21
-58.5
 31
0.0
  0
LINE
  5
5CE
  8
0
 62
     7
 10
90.500022999999999
 20
58.5
 30
0.0
 11
210.9073029999999
 21
58.5
 31
0.0
  0
POLYLINE
  5
5CF
  8
0
 62
     7
 66
     1
 10
0.0
 20
0.0
 30
0.0
  0
VERTEX
  5
93C
  8
0
 62
     7
 10
208.3896639999999
 20
-56.568150000000003
 30
0.0
  0
VERTEX
  5
93D
  8
0
 62
     7
 10
208.90730300000001
 20
-58.5
 30
0.0
  0
VERTEX
  5
93E
  8
0
 62
     7
 10
209.4249419999999
 20
-56.568150000000003
 30
0.0
  0
SEQEND
  5
93F
  8
0
 62
     7
  0
POLYLINE
  5
5D4
  8
0
 62
     7
 66
     1
 10
0.0
 20
0.0
 30
0.0
  0
VERTEX
  5
940
  8
0
 62
     7
 10
209.4249419999999
 20
56.568150000000003
 30
0.0
  0
VERTEX
  5
941
  8
0
 62
     7
 10
208.90730300000001
 20
58.5
 30
0.0
  0
VERTEX
  5
942
  8
0
 62
     7
 10
208.3896639999999
 20
56.568150000000003
 30
0.0
  0
SEQEND
  5
943
  8
0
 62
     7
  0
LINE
  5
5D9
  8
0
 62
     7
 10
208.90730300000001
 20
-58.5
 30
0.0
 11
208.90730300000001
 21
58.5
 31
0.0
  0
ENDBLK
  5
5DA
  8
0
  0
BLOCK
  8
0
  2
BLOCK17
 70
     0
 10
0.0
 20
0.0
 30
0.0
  3
BLOCK17
  1

  0
TEXT
  5
5DC
  8
0
 62
     7
 10
127.725159
 20
73.336189000000005
 30
0.0
 40
3.0
  1
10
 50
90.0
 41
1.570247858124141
 72
     5
 11
127.725159
 21
78.286179000000004
 31
0.0
  0
ENDBLK
  5
5DD
  8
0
  0
BLOCK
  8
0
  2
BLOCK18
 70
     0
 10
0.0
 20
0.0
 30
0.0
  3
BLOCK18
  1

  0
TEXT
  5
5DF
  8
0
 62
     7
 10
-45.651671999999998
 20
-75.999992000000006
 30
0.0
 40
3.0
  1
10
 50
90.0
 41
1.570247540901712
 72
     5
 11
-45.651671999999998
 21
-71.050003000000004
 31
0.0
  0
ENDBLK
  5
5E0
  8
0
  0
BLOCK
  8
0
  2
BLOCK19
 70
     0
 10
0.0
 20
0.0
 30
0.0
  3
BLOCK19
  1

  0
TEXT
  5
5E2
  8
0
 62
     7
 10
-16.5
 20
-169.87655599999999
 30
0.0
 40
3.0
  1
3
 41
1.239950714662865
 72
     5
 11
-14.300000000000001
 21
-169.87655599999999
 31
0.0
  0
ENDBLK
  5
5E3
  8
0
  0
BLOCK
  8
0
  2
BLOCK20
 70
     0
 10
0.0
 20
0.0
 30
0.0
  3
BLOCK20
  1

  0
TEXT
  5
5E5
  8
0
 62
     7
 10
-22.0
 20
-169.87655599999999
 30
0.0
 40
3.0
  1
\U+2265
 41
1.2422338279591401
 72
     5
 11
-19.799999
 21
-169.87655599999999
 31
0.0
  0
ENDBLK
  5
5E6
  8
0
  0
BLOCK
  8
0
  2
BLOCK21
 70
     0
 10
0.0
 20
0.0
 30
0.0
  3
BLOCK21
  1

  0
TEXT
  5
5E8
  8
0
 62
     7
 10
57.272537
 20
-169.87655599999999
 30
0.0
 40
3.0
  1
135
 41
1.432750959303992
 72
     5
 11
64.972518999999991
 21
-169.87655599999999
 31
0.0
  0
ENDBLK
  5
5E9
  8
0
  0
BLOCK
  8
0
  2
BLOCK22
 70
     0
 10
0.0
 20
0.0
 30
0.0
  3
BLOCK22
  1

  0
TEXT
  5
5EB
  8
0
 62
     7
 10
36.000655999999999
 20
-140.48272700000001
 30
0.0
 40
3.0
  1
103,5
 41
1.548515964967589
 72
     5
 11
49.200614999999999
 21
-140.48272700000001
 31
0.0
  0
ENDBLK
  5
5EC
  8
0
  0
BLOCK
  8
0
  2
BLOCK23
 70
     0
 10
0.0
 20
0.0
 30
0.0
  3
BLOCK23
  1

  0
TEXT
  5
5EE
  8
0
 62
     7
 10
35.0
 20
-123.468193
 30
0.0
 40
3.0
  1
101,5
 41
1.665764654678604
 72
     5
 11
48.199959
 21
-123.468193
 31
0.0
  0
ENDBLK
  5
5EF
  8
0
  0
BLOCK
  8
0
  2
BLOCK24
 70
     0
 10
0.0
 20
0.0
 30
0.0
  3
BLOCK24
  1

  0
TEXT
  5
5F1
  8
0
 62
     7
 10
149.47582999999989
 20
2.0000079999999998
 30
0.0
 40
3.0
  1
105
 50
90.0
 41
1.432750401088029
 72
     5
 11
149.47582999999989
 21
9.6999870000000001
 31
0.0
  0
ENDBLK
  5
5F2
  8
0
  0
BLOCK
  8
0
  2
BLOCK25
 70
     0
 10
0.0
 20
0.0
 30
0.0
  3
BLOCK25
  1

  0
TEXT
  5
5F4
  8
0
 62
     7
 10
125.0
 20
14.0
 30
0.0
 40
3.0
  1
X
 50
0.000026043571683
 41
0.9777764444445436
 72
     5
 11
127.1999969999999
 21
14.000000999999999
 31
0.0
  0
ENDBLK
  5
5F5
  8
0
  0
BLOCK
  8
0
  2
BLOCK26
 70
     0
 10
0.0
 20
0.0
 30
0.0
  3
BLOCK26
  1

  0
TEXT
  5
5F7
  8
0
 62
     7
 10
-75.800399999999996
 20
4.25
 30
0.0
 40
3.0
  1
143
 50
90.0
 41
1.357000644798668
 72
     5
 11
-75.800399999999996
 21
11.94998
 31
0.0
  0
ENDBLK
  5
5F8
  8
0
  0
BLOCK
  8
0
  2
BLOCK27
 70
     0
 10
0.0
 20
0.0
 30
0.0
  3
BLOCK27
  1

  0
TEXT
  5
5FA
  8
0
 62
     7
 10
43.250579999999999
 20
-156.980377
 30
0.0
 40
3.0
  1
107
 41
1.4666632380952369
 72
     5
 11
50.950561999999998
 21
-156.980377
 31
0.0
  0
ENDBLK
  5
5FB
  8
0
  0
BLOCK
  8
0
  2
BLOCK28
 70
     0
 10
0.0
 20
0.0
 30
0.0
  3
BLOCK28
  1

  0
TEXT
  5
5FD
  8
0
 62
     7
 10
113.00116
 20
-156.980377
 30
0.0
 40
3.0
  1
2
 41
1.202067778817504
 72
     5
 11
115.20115699999999
 21
-156.980377
 31
0.0
  0
ENDBLK
  5
5FE
  8
0
  0
BLOCK
  8
0
  2
BLOCK29
 70
     0
 10
0.0
 20
0.0
 30
0.0
  3
BLOCK29
  1

  0
TEXT
  5
600
  8
0
 62
     5
 10
-59.10063199999999
 20
33.375
 30
0.0
 40
3.0
  1
73,75
 50
89.999982637588658
 41
1.446687524670035
 72
     5
 11
-59.100628
 21
46.574958999999993
 31
0.0
  0
ENDBLK
  5
601
  8
0
  0
BLOCK
  8
0
  2
BLOCK30
 70
     0
 10
0.0
 20
0.0
 30
0.0
  3
BLOCK30
  1

  0
TEXT
  5
603
  8
0
 62
     5
 10
158.946991
 20
-21.551254
 30
0.0
 40
3.0
  1
=          =
 50
90.0
 41
2.0603107301587298
 72
     5
 11
158.946991
 21
10.89863999999999
 31
0.0
  0
ENDBLK
  5
604
  8
0
  0
BLOCK
  8
0
  2
BLOCK31
 70
     0
 10
0.0
 20
0.0
 30
0.0
  3
BLOCK31
  1

  0
TEXT
  5
606
  8
0
 62
     7
 10
-19.0
 20
-97.048500000000004
 30
0.0
 40
3.0
  1
20
 41
1.3191663623963901
 72
     5
 11
-14.05001
 21
-97.048500000000004
 31
0.0
  0
ENDBLK
  5
607
  8
0
  0
BLOCK
  8
0
  2
BLOCK32
 70
     0
 10
0.0
 20
0.0
 30
0.0
  3
BLOCK32
  1

  0
TEXT
  5
609
  8
0
 62
     7
 10
6.5
 20
-109.106331
 30
0.0
 40
3.0
  1
5
 41
1.239950714662865
 72
     5
 11
8.6999999999999993
 21
-109.106331
 31
0.0
  0
ENDBLK
  5
60A
  8
0
  0
BLOCK
  8
0
  2
BLOCK33
 70
     0
 10
0.0
 20
0.0
 30
0.0
  3
BLOCK33
  1

  0
TEXT
  5
60C
  8
0
 62
     7
 10
58.810668999999997
 20
-109.106331
 30
0.0
 40
3.0
  1
5
 41
1.2399512782768269
 72
     5
 11
61.010669999999998
 21
-109.106331
 31
0.0
  0
ENDBLK
  5
60D
  8
0
  0
BLOCK
  8
0
  2
BLOCK34
 70
     0
 10
0.0
 20
0.0
 30
0.0
  3
BLOCK34
  1

  0
TEXT
  5
60F
  8
0
 62
     7
 10
36.81066899999999
 20
-109.106331
 30
0.0
 40
3.0
  1
min.
 41
1.6991821138211389
 72
     5
 11
47.260638999999998
 21
-109.106331
 31
0.0
  0
ENDBLK
  5
610
  8
0
  0
BLOCK
  8
0
  2
BLOCK35
 70
     0
 10
0.0
 20
0.0
 30
0.0
  3
BLOCK35
  1

  0
TEXT
  5
612
  8
0
 62
     7
 10
-59.441147000000001
 20
89.771346999999977
 30
0.0
 40
3.0
  1
33,5
 50
89.999978068529842
 41
1.487695493474952
 72
     5
 11
-59.441142999999997
 21
100.2213129999999
 31
0.0
  0
ENDBLK
  5
613
  8
0
  0
BLOCK
  8
0
  2
BLOCK36
 70
     0
 10
0.0
 20
0.0
 30
0.0
  3
BLOCK36
  1

  0
TEXT
  5
615
  8
0
 62
     7
 10
-59.441147000000001
 20
136.0
 30
0.0
 40
3.0
  1
12,5
 50
89.999978068529842
 41
1.62664017048975
 72
     5
 11
-59.441142999999997
 21
146.4499659999999
 31
0.0
  0
ENDBLK
  5
616
  8
0
  0
BLOCK
  8
0
  2
BLOCK37
 70
     0
 10
0.0
 20
0.0
 30
0.0
  3
BLOCK37
  1

  0
TEXT
  5
618
  8
0
 62
     7
 10
5.0
 20
153.298676
 30
0.0
 40
3.0
  1
25
 41
1.277659424398945
 72
     5
 11
9.9499899999999997
 21
153.298676
 31
0.0
  0
ENDBLK
  5
619
  8
0
  0
BLOCK
  8
0
  2
BLOCK38
 70
     0
 10
0.0
 20
0.0
 30
0.0
  3
BLOCK38
  1

  0
TEXT
  5
61B
  8
0
 62
     7
 10
35.0
 20
153.298676
 30
0.0
 40
3.0
  1
6
 41
1.2230252878091481
 72
     5
 11
37.200001
 21
153.298676
 31
0.0
  0
ENDBLK
  5
61C
  8
0
  0
BLOCK
  8
0
  2
BLOCK39
 70
     0
 10
0.0
 20
0.0
 30
0.0
  3
BLOCK39
  1

  0
TEXT
  5
61E
  8
0
 62
     2
 10
-30.725449000000001
 20
-74.500007999999994
 30
0.0
 40
3.0
  1
8
 50
90.0
 41
1.3333315151515119
 72
     5
 11
-30.725449000000001
 21
-72.300010999999984
 31
0.0
  0
ENDBLK
  5
61F
  8
0
  0
BLOCK
  8
0
  2
BLOCK40
 70
     0
 10
0.0
 20
0.0
 30
0.0
  3
BLOCK40
  1

  0
TEXT
  5
621
  8
0
 62
     2
 10
-30.725449000000001
 20
-80.000007999999994
 30
0.0
 40
3.0
  1
M
 50
90.0
 41
0.9777764444444427
 72
     5
 11
-30.725449000000001
 21
-77.800010999999984
 31
0.0
  0
ENDBLK
  5
622
  8
0
  0
BLOCK
  8
0
  2
BLOCK41
 70
     0
 10
0.0
 20
0.0
 30
0.0
  3
BLOCK41
  1

  0
LINE
  5
624
  8
0
 62
     6
 10
9.0000020000000003
 20
69.488883999999999
 30
0.0
 11
11.054437999999999
 21
67.434448000000003
 31
0.0
  0
LINE
  5
625
  8
0
 62
     6
 10
9.1102070000000008
 20
71.5
 30
0.0
 11
13.000002
 21
67.610198999999994
 31
0.0
  0
LINE
  5
626
  8
0
 62
     6
 10
11.231524999999991
 20
71.5
 30
0.0
 11
13.000002
 21
69.731521999999998
 31
0.0
  0
ENDBLK
  5
627
  8
0
  0
BLOCK
  8
0
  2
BLOCK42
 70
     0
 10
0.0
 20
0.0
 30
0.0
  3
BLOCK42
  1

  0
LINE
  5
629
  8
0
 62
     6
 10
14.000002
 20
-47.941161999999998
 30
0.0
 11
15.058828
 21
-48.999988999999992
 31
0.0
  0
LINE
  5
62A
  8
0
 62
     6
 10
14.196956
 20
-46.016791999999988
 30
0.0
 11
17.180147000000002
 21
-48.999988999999992
 31
0.0
  0
LINE
  5
62B
  8
0
 62
     6
 10
16.318274999999989
 20
-46.016791999999988
 30
0.0
 11
18.000001999999991
 21
-47.698521
 31
0.0
  0
ENDBLK
  5
62C
  8
0
  0
BLOCK
  8
0
  2
BLOCK43
 70
     0
 10
0.0
 20
0.0
 30
0.0
  3
BLOCK43
  1

  0
LINE
  5
62E
  8
0
 62
     6
 10
19.346209999999989
 20
-54.900002000000001
 30
0.0
 11
21.0
 21
-53.246207999999989
 31
0.0
  0
LINE
  5
62F
  8
0
 62
     6
 10
18.000001999999991
 20
-54.124885999999989
 30
0.0
 11
21.0
 21
-51.124889000000003
 31
0.0
  0
LINE
  5
630
  8
0
 62
     6
 10
18.000001999999991
 20
-52.003566999999997
 30
0.0
 11
21.0
 21
-49.00356699999999
 31
0.0
  0
LINE
  5
631
  8
0
 62
     6
 10
18.000001999999991
 20
-49.882247999999997
 30
0.0
 11
21.0
 21
-46.88224799999999
 31
0.0
  0
LINE
  5
632
  8
0
 62
     6
 10
18.000001999999991
 20
-47.760924999999993
 30
0.0
 11
20.744134999999989
 21
-45.016791999999988
 31
0.0
  0
LINE
  5
633
  8
0
 62
     6
 10
18.000001999999991
 20
-45.639606000000001
 30
0.0
 11
18.622816
 21
-45.016791999999988
 31
0.0
  0
ENDBLK
  5
634
  8
0
  0
BLOCK
  8
0
  2
BLOCK44
 70
     0
 10
0.0
 20
0.0
 30
0.0
  3
BLOCK44
  1

  0
LINE
  5
636
  8
0
 62
     6
 10
21.095462999999992
 20
-67.999984999999995
 30
0.0
 11
23.0
 21
-66.095450999999997
 31
0.0
  0
LINE
  5
637
  8
0
 62
     6
 10
18.974143999999988
 20
-67.999984999999995
 30
0.0
 11
23.0
 21
-63.974128999999998
 31
0.0
  0
LINE
  5
638
  8
0
 62
     6
 10
18.000001999999991
 20
-66.852806000000001
 30
0.0
 11
21.752810999999991
 21
-63.099997999999992
 31
0.0
  0
LINE
  5
639
  8
0
 62
     6
 10
18.000001999999991
 20
-64.731491000000005
 30
0.0
 11
19.631491
 21
-63.099997999999992
 31
0.0
  0
ENDBLK
  5
63A
  8
0
  0
BLOCK
  8
0
  2
BLOCK45
 70
     0
 10
0.0
 20
0.0
 30
0.0
  3
BLOCK45
  1

  0
LINE
  5
63C
  8
0
 62
     6
 10
22.467531000000001
 20
-53.900002000000001
 30
0.0
 11
23.0
 21
-53.367531000000007
 31
0.0
  0
LINE
  5
63D
  8
0
 62
     6
 10
21.0
 20
-53.246207999999989
 30
0.0
 11
23.0
 21
-51.246208000000003
 31
0.0
  0
LINE
  5
63E
  8
0
 62
     6
 10
21.0
 20
-51.124889000000003
 30
0.0
 11
23.0
 21
-49.124889000000003
 31
0.0
  0
LINE
  5
63F
  8
0
 62
     6
 10
21.0
 20
-49.00356699999999
 30
0.0
 11
23.0
 21
-47.003571000000001
 31
0.0
  0
LINE
  5
640
  8
0
 62
     6
 10
21.0
 20
-46.88224799999999
 30
0.0
 11
21.882255999999991
 21
-45.999996000000003
 31
0.0
  0
ENDBLK
  5
641
  8
0
  0
BLOCK
  8
0
  2
BLOCK46
 70
     0
 10
0.0
 20
0.0
 30
0.0
  3
BLOCK46
  1

  0
LINE
  5
643
  8
0
 62
     6
 10
23.000001999999991
 20
72.45944200000001
 30
0.0
 11
23.959440000000001
 21
71.5
 31
0.0
  0
LINE
  5
644
  8
0
 62
     6
 10
23.580763000000001
 20
74.0
 30
0.0
 11
26.080759
 21
71.5
 31
0.0
  0
LINE
  5
645
  8
0
 62
     6
 10
25.702082000000001
 20
74.0
 30
0.0
 11
28.202079999999999
 21
71.5
 31
0.0
  0
LINE
  5
646
  8
0
 62
     6
 10
27.823399999999999
 20
74.0
 30
0.0
 11
30.323398999999998
 21
71.5
 31
0.0
  0
LINE
  5
647
  8
0
 62
     6
 10
29.944721000000001
 20
74.0
 30
0.0
 11
32.444716999999997
 21
71.5
 31
0.0
  0
LINE
  5
648
  8
0
 62
     6
 10
32.066040000000001
 20
74.0
 30
0.0
 11
34.56603599999999
 21
71.5
 31
0.0
  0
LINE
  5
649
  8
0
 62
     6
 10
34.187359000000001
 20
74.0
 30
0.0
 11
34.822902999999997
 21
73.364456000000004
 31
0.0
  0
ENDBLK
  5
64A
  8
0
  0
BLOCK
  8
0
  2
BLOCK47
 70
     0
 10
0.0
 20
0.0
 30
0.0
  3
BLOCK47
  1

  0
LINE
  5
64C
  8
0
 62
     2
 10
105.2698899999999
 20
-117.46875
 30
0.0
 11
107.0011669999999
 21
-115.7374649999999
 31
0.0
  0
LINE
  5
64D
  8
0
 62
     2
 10
105.0011669999999
 20
-115.6161419999999
 30
0.0
 11
107.0011669999999
 21
-113.616142
 31
0.0
  0
LINE
  5
64E
  8
0
 62
     2
 10
105.0011669999999
 20
-113.4948269999999
 30
0.0
 11
107.0011669999999
 21
-111.4948269999999
 31
0.0
  0
LINE
  5
64F
  8
0
 62
     2
 10
105.0011669999999
 20
-111.37350499999999
 30
0.0
 11
107.0011669999999
 21
-109.37350499999999
 31
0.0
  0
LINE
  5
650
  8
0
 62
     2
 10
105.0011669999999
 20
-109.25218199999991
 30
0.0
 11
107.0011669999999
 21
-107.252182
 31
0.0
  0
LINE
  5
651
  8
0
 62
     2
 10
105.0011669999999
 20
-107.13086699999999
 30
0.0
 11
107.0011669999999
 21
-105.13086699999999
 31
0.0
  0
LINE
  5
652
  8
0
 62
     2
 10
105.0011669999999
 20
-105.00954399999991
 30
0.0
 11
107.0011669999999
 21
-103.00954399999991
 31
0.0
  0
LINE
  5
653
  8
0
 62
     2
 10
105.0011669999999
 20
-102.888222
 30
0.0
 11
107.0011669999999
 21
-100.888222
 31
0.0
  0
LINE
  5
654
  8
0
 62
     2
 10
105.0011669999999
 20
-100.7669069999999
 30
0.0
 11
107.0011669999999
 21
-98.766906999999989
 31
0.0
  0
LINE
  5
655
  8
0
 62
     2
 10
105.0011669999999
 20
-98.645583999999985
 30
0.0
 11
107.0011669999999
 21
-96.645583999999999
 31
0.0
  0
LINE
  5
656
  8
0
 62
     2
 10
105.0011669999999
 20
-96.524260999999996
 30
0.0
 11
107.0011669999999
 21
-94.524260999999996
 31
0.0
  0
LINE
  5
657
  8
0
 62
     2
 10
105.0011669999999
 20
-94.402939000000003
 30
0.0
 11
107.0011669999999
 21
-92.402946
 31
0.0
  0
LINE
  5
658
  8
0
 62
     2
 10
105.0011669999999
 20
-92.281623999999994
 30
0.0
 11
107.0011669999999
 21
-90.281623999999994
 31
0.0
  0
LINE
  5
659
  8
0
 62
     2
 10
105.0011669999999
 20
-90.160301000000004
 30
0.0
 11
107.0011669999999
 21
-88.160301000000004
 31
0.0
  0
LINE
  5
65A
  8
0
 62
     2
 10
105.0011669999999
 20
-88.038978999999998
 30
0.0
 11
107.0011669999999
 21
-86.038978999999983
 31
0.0
  0
LINE
  5
65B
  8
0
 62
     2
 10
105.0011669999999
 20
-85.917664000000002
 30
0.0
 11
107.0011669999999
 21
-83.917663999999988
 31
0.0
  0
LINE
  5
65C
  8
0
 62
     2
 10
105.0011669999999
 20
-83.796340999999998
 30
0.0
 11
107.0011669999999
 21
-81.796340999999984
 31
0.0
  0
LINE
  5
65D
  8
0
 62
     2
 10
105.0011669999999
 20
-81.675018000000009
 30
0.0
 11
107.0011669999999
 21
-79.675017999999994
 31
0.0
  0
LINE
  5
65E
  8
0
 62
     2
 10
105.0011669999999
 20
-79.553702999999999
 30
0.0
 11
107.0011669999999
 21
-77.553702999999999
 31
0.0
  0
LINE
  5
65F
  8
0
 62
     2
 10
105.0011669999999
 20
-77.432381000000007
 30
0.0
 11
107.0011669999999
 21
-75.432381000000007
 31
0.0
  0
LINE
  5
660
  8
0
 62
     2
 10
105.0011669999999
 20
-75.311058000000003
 30
0.0
 11
107.0011669999999
 21
-73.311058000000003
 31
0.0
  0
LINE
  5
661
  8
0
 62
     2
 10
105.0011669999999
 20
-73.189743000000007
 30
0.0
 11
107.0011669999999
 21
-71.189743000000007
 31
0.0
  0
LINE
  5
662
  8
0
 62
     2
 10
105.0011669999999
 20
-71.068419999999989
 30
0.0
 11
107.0011669999999
 21
-69.068419999999989
 31
0.0
  0
LINE
  5
663
  8
0
 62
     2
 10
105.0011669999999
 20
-68.947097999999997
 30
0.0
 11
107.0011669999999
 21
-66.947097999999997
 31
0.0
  0
LINE
  5
664
  8
0
 62
     2
 10
105.0011669999999
 20
-66.825783000000001
 30
0.0
 11
107.0011669999999
 21
-64.825783000000001
 31
0.0
  0
LINE
  5
665
  8
0
 62
     2
 10
105.0011669999999
 20
-64.704459999999983
 30
0.0
 11
105.45562700000001
 21
-64.25
 31
0.0
  0
ENDBLK
  5
666
  8
0
  0
BLOCK
  8
0
  2
BLOCK48
 70
     0
 10
0.0
 20
0.0
 30
0.0
  3
BLOCK48
  1

  0
LINE
  5
668
  8
0
 62
     2
 10
106.0916669999999
 20
-57.25
 30
0.0
 11
107.0011669999999
 21
-56.340499999999999
 31
0.0
  0
LINE
  5
669
  8
0
 62
     2
 10
105.0011669999999
 20
-56.219177000000002
 30
0.0
 11
107.0011669999999
 21
-54.219180999999999
 31
0.0
  0
LINE
  5
66A
  8
0
 62
     2
 10
105.0011669999999
 20
-54.097857999999988
 30
0.0
 11
107.0011669999999
 21
-52.097858000000002
 31
0.0
  0
LINE
  5
66B
  8
0
 62
     2
 10
105.0011669999999
 20
-51.976539999999993
 30
0.0
 11
107.0011669999999
 21
-49.97654
 31
0.0
  0
LINE
  5
66C
  8
0
 62
     2
 10
105.0011669999999
 20
-49.855216999999989
 30
0.0
 11
107.0011669999999
 21
-47.855216999999989
 31
0.0
  0
LINE
  5
66D
  8
0
 62
     2
 10
105.0011669999999
 20
-47.733897999999989
 30
0.0
 11
106.9850689999999
 21
-45.75
 31
0.0
  0
ENDBLK
  5
66E
  8
0
  0
BLOCK
  8
0
  2
BLOCK49
 70
     0
 10
0.0
 20
0.0
 30
0.0
  3
BLOCK49
  1

  0
LINE
  5
670
  8
0
 62
     2
 10
106.5550919999999
 20
66.249992000000006
 30
0.0
 11
107.0011669999999
 21
66.696074999999993
 31
0.0
  0
LINE
  5
671
  8
0
 62
     2
 10
105.0011669999999
 20
66.817390000000003
 30
0.0
 11
107.0011669999999
 21
68.817390000000003
 31
0.0
  0
LINE
  5
672
  8
0
 62
     2
 10
105.0011669999999
 20
68.938713000000007
 30
0.0
 11
107.0011669999999
 21
70.938713000000007
 31
0.0
  0
LINE
  5
673
  8
0
 62
     2
 10
105.0011669999999
 20
71.060035999999997
 30
0.0
 11
107.0011669999999
 21
73.060035999999997
 31
0.0
  0
LINE
  5
674
  8
0
 62
     2
 10
105.0011669999999
 20
73.181351000000006
 30
0.0
 11
107.0011669999999
 21
75.181351000000006
 31
0.0
  0
LINE
  5
675
  8
0
 62
     2
 10
105.0011669999999
 20
75.302672999999999
 30
0.0
 11
107.0011669999999
 21
77.302672999999999
 31
0.0
  0
LINE
  5
676
  8
0
 62
     2
 10
105.0011669999999
 20
77.423996000000002
 30
0.0
 11
105.32717099999989
 21
77.749992000000006
 31
0.0
  0
ENDBLK
  5
677
  8
0
  0
BLOCK
  8
0
  2
BLOCK50
 70
     0
 10
0.0
 20
0.0
 30
0.0
  3
BLOCK50
  1

  0
LINE
  5
679
  8
0
 62
     2
 10
105.963211
 20
84.749992000000006
 30
0.0
 11
107.0011669999999
 21
85.787956000000008
 31
0.0
  0
LINE
  5
67A
  8
0
 62
     2
 10
105.0011669999999
 20
85.909271000000004
 30
0.0
 11
107.0011669999999
 21
87.90927099999999
 31
0.0
  0
LINE
  5
67B
  8
0
 62
     2
 10
105.0011669999999
 20
88.030593999999994
 30
0.0
 11
107.0011669999999
 21
90.030593999999994
 31
0.0
  0
LINE
  5
67C
  8
0
 62
     2
 10
105.0011669999999
 20
90.151916999999997
 30
0.0
 11
107.0011669999999
 21
92.151916999999997
 31
0.0
  0
LINE
  5
67D
  8
0
 62
     2
 10
105.0011669999999
 20
92.273231999999979
 30
0.0
 11
107.0011669999999
 21
94.273231999999993
 31
0.0
  0
LINE
  5
67E
  8
0
 62
     2
 10
105.0011669999999
 20
94.394553999999985
 30
0.0
 11
107.0011669999999
 21
96.394554000000014
 31
0.0
  0
LINE
  5
67F
  8
0
 62
     2
 10
105.0011669999999
 20
96.515877000000003
 30
0.0
 11
107.0011669999999
 21
98.515877000000003
 31
0.0
  0
LINE
  5
680
  8
0
 62
     2
 10
105.0011669999999
 20
98.637198999999995
 30
0.0
 11
107.0011669999999
 21
100.637192
 31
0.0
  0
LINE
  5
681
  8
0
 62
     2
 10
105.0011669999999
 20
100.75851399999991
 30
0.0
 11
107.0011669999999
 21
102.75851400000001
 31
0.0
  0
LINE
  5
682
  8
0
 62
     2
 10
105.0011669999999
 20
102.87983699999999
 30
0.0
 11
107.0011669999999
 21
104.87983699999999
 31
0.0
  0
LINE
  5
683
  8
0
 62
     2
 10
105.0011669999999
 20
105.00116
 30
0.0
 11
107.0011669999999
 21
107.00116
 31
0.0
  0
LINE
  5
684
  8
0
 62
     2
 10
105.0011669999999
 20
107.12247499999999
 30
0.0
 11
107.0011669999999
 21
109.12247499999999
 31
0.0
  0
LINE
  5
685
  8
0
 62
     2
 10
105.0011669999999
 20
109.2437969999999
 30
0.0
 11
107.0011669999999
 21
111.2437969999999
 31
0.0
  0
LINE
  5
686
  8
0
 62
     2
 10
105.0011669999999
 20
111.36511999999991
 30
0.0
 11
107.0011669999999
 21
113.36511999999991
 31
0.0
  0
LINE
  5
687
  8
0
 62
     2
 10
105.0011669999999
 20
113.486435
 30
0.0
 11
107.0011669999999
 21
115.486435
 31
0.0
  0
LINE
  5
688
  8
0
 62
     2
 10
105.0011669999999
 20
115.607758
 30
0.0
 11
107.0011669999999
 21
117.607758
 31
0.0
  0
LINE
  5
689
  8
0
 62
     2
 10
105.0011669999999
 20
117.72908
 30
0.0
 11
107.0011669999999
 21
119.72908
 31
0.0
  0
LINE
  5
68A
  8
0
 62
     2
 10
105.0011669999999
 20
119.85039499999991
 30
0.0
 11
107.0011669999999
 21
121.85039499999991
 31
0.0
  0
LINE
  5
68B
  8
0
 62
     2
 10
105.0011669999999
 20
121.9717179999999
 30
0.0
 11
107.0011669999999
 21
123.9717179999999
 31
0.0
  0
LINE
  5
68C
  8
0
 62
     2
 10
105.0011669999999
 20
124.0930399999999
 30
0.0
 11
107.0011669999999
 21
126.0930399999999
 31
0.0
  0
LINE
  5
68D
  8
0
 62
     2
 10
105.0011669999999
 20
126.214355
 30
0.0
 11
107.0011669999999
 21
128.21435500000001
 31
0.0
  0
LINE
  5
68E
  8
0
 62
     2
 10
105.0011669999999
 20
128.335678
 30
0.0
 11
107.0011669999999
 21
130.335678
 31
0.0
  0
LINE
  5
68F
  8
0
 62
     2
 10
105.0011669999999
 20
130.45700099999991
 30
0.0
 11
107.0011669999999
 21
132.45700099999991
 31
0.0
  0
LINE
  5
690
  8
0
 62
     2
 10
105.0011669999999
 20
132.57832300000001
 30
0.0
 11
107.0011669999999
 21
134.57832300000001
 31
0.0
  0
LINE
  5
691
  8
0
 62
     2
 10
105.0011669999999
 20
134.69964599999989
 30
0.0
 11
107.0011669999999
 21
136.69964599999989
 31
0.0
  0
LINE
  5
692
  8
0
 62
     2
 10
105.0011669999999
 20
136.820953
 30
0.0
 11
107.0011669999999
 21
138.820953
 31
0.0
  0
LINE
  5
693
  8
0
 62
     2
 10
105.0011669999999
 20
138.94227599999991
 30
0.0
 11
107.0011669999999
 21
140.94227599999991
 31
0.0
  0
LINE
  5
694
  8
0
 62
     2
 10
105.0011669999999
 20
141.06359900000001
 30
0.0
 11
107.0011669999999
 21
143.06359900000001
 31
0.0
  0
LINE
  5
695
  8
0
 62
     2
 10
105.0011669999999
 20
143.184921
 30
0.0
 11
107.0011669999999
 21
145.18492099999989
 31
0.0
  0
LINE
  5
696
  8
0
 62
     2
 10
105.0011669999999
 20
145.30624399999991
 30
0.0
 11
107.0011669999999
 21
147.30624399999991
 31
0.0
  0
LINE
  5
697
  8
0
 62
     2
 10
105.0011669999999
 20
147.4275669999999
 30
0.0
 11
107.0011669999999
 21
149.4275669999999
 31
0.0
  0
LINE
  5
698
  8
0
 62
     2
 10
105.0011669999999
 20
149.54887400000001
 30
0.0
 11
107.0011669999999
 21
151.54887400000001
 31
0.0
  0
LINE
  5
699
  8
0
 62
     2
 10
105.0011669999999
 20
151.67019699999989
 30
0.0
 11
107.0011669999999
 21
153.670197
 31
0.0
  0
LINE
  5
69A
  8
0
 62
     2
 10
105.0011669999999
 20
153.79151899999991
 30
0.0
 11
107.0011669999999
 21
155.79151899999991
 31
0.0
  0
LINE
  5
69B
  8
0
 62
     2
 10
105.0011669999999
 20
155.9128419999999
 30
0.0
 11
107.0011669999999
 21
157.9128419999999
 31
0.0
  0
LINE
  5
69C
  8
0
 62
     2
 10
105.0011669999999
 20
158.03416399999989
 30
0.0
 11
107.0011669999999
 21
160.03416399999989
 31
0.0
  0
LINE
  5
69D
  8
0
 62
     2
 10
105.0011669999999
 20
160.15548699999999
 30
0.0
 11
107.0011669999999
 21
162.15548699999999
 31
0.0
  0
LINE
  5
69E
  8
0
 62
     2
 10
105.0011669999999
 20
162.27679399999991
 30
0.0
 11
105.8391419999999
 21
163.114777
 31
0.0
  0
ENDBLK
  5
69F
  8
0
  0
BLOCK
  8
0
  2
BLOCK51
 70
     0
 10
0.0
 20
0.0
 30
0.0
  3
BLOCK51
  1

  0
LINE
  5
6A1
  8
0
 62
     6
 10
24.000001999999999
 20
-47.334564
 30
0.0
 11
25.665423999999991
 21
-48.999988999999992
 31
0.0
  0
LINE
  5
6A2
  8
0
 62
     6
 10
24.803553000000001
 20
-46.016791999999988
 30
0.0
 11
27.786743000000001
 21
-48.999988999999992
 31
0.0
  0
LINE
  5
6A3
  8
0
 62
     6
 10
26.924871
 20
-46.016791999999988
 30
0.0
 11
29.908062000000001
 21
-48.999988999999992
 31
0.0
  0
LINE
  5
6A4
  8
0
 62
     6
 10
29.046189999999999
 20
-46.016791999999988
 30
0.0
 11
32.029381000000001
 21
-48.999988999999992
 31
0.0
  0
LINE
  5
6A5
  8
0
 62
     6
 10
31.167508999999999
 20
-46.016791999999988
 30
0.0
 11
34.150700000000001
 21
-48.999988999999992
 31
0.0
  0
LINE
  5
6A6
  8
0
 62
     6
 10
33.28882999999999
 20
-46.016791999999988
 30
0.0
 11
36.272018000000003
 21
-48.999988999999992
 31
0.0
  0
LINE
  5
6A7
  8
0
 62
     6
 10
35.41014899999999
 20
-46.016791999999988
 30
0.0
 11
38.393340999999999
 21
-48.999988999999992
 31
0.0
  0
LINE
  5
6A8
  8
0
 62
     6
 10
37.531466999999999
 20
-46.016791999999988
 30
0.0
 11
40.514659999999999
 21
-48.999988999999992
 31
0.0
  0
LINE
  5
6A9
  8
0
 62
     6
 10
39.652785999999992
 20
-46.016791999999988
 30
0.0
 11
42.635978999999992
 21
-48.999988999999992
 31
0.0
  0
LINE
  5
6AA
  8
0
 62
     6
 10
41.774104999999992
 20
-46.016791999999988
 30
0.0
 11
44.757297999999992
 21
-48.999988999999992
 31
0.0
  0
LINE
  5
6AB
  8
0
 62
     6
 10
43.895423999999991
 20
-46.016791999999988
 30
0.0
 11
46.878616000000001
 21
-48.999988999999992
 31
0.0
  0
LINE
  5
6AC
  8
0
 62
     6
 10
46.016742999999991
 20
-46.016791999999988
 30
0.0
 11
46.961486999999998
 21
-46.961535999999988
 31
0.0
  0
ENDBLK
  5
6AD
  8
0
  0
BLOCK
  8
0
  2
BLOCK52
 70
     0
 10
0.0
 20
0.0
 30
0.0
  3
BLOCK52
  1

  0
LINE
  5
6AF
  8
0
 62
     6
 10
20.317757
 20
88.199996999999996
 30
0.0
 11
22.000001999999991
 21
89.882248000000004
 31
0.0
  0
LINE
  5
6B0
  8
0
 62
     6
 10
18.196435999999999
 20
88.199996999999996
 30
0.0
 11
22.000001999999991
 21
92.003563000000014
 31
0.0
  0
LINE
  5
6B1
  8
0
 62
     6
 10
18.000001999999991
 20
90.124886000000004
 30
0.0
 11
20.875115999999998
 21
93.0
 31
0.0
  0
LINE
  5
6B2
  8
0
 62
     6
 10
18.000001999999991
 20
92.246207999999996
 30
0.0
 11
18.753795999999991
 21
93.0
 31
0.0
  0
ENDBLK
  5
6B3
  8
0
  0
BLOCK
  8
0
  2
BLOCK53
 70
     0
 10
0.0
 20
0.0
 30
0.0
  3
BLOCK53
  1

  0
LINE
  5
6B5
  8
0
 62
     6
 10
16.522762
 20
67.434448000000003
 30
0.0
 11
22.986409999999989
 21
73.898094
 31
0.0
  0
LINE
  5
6B6
  8
0
 62
     6
 10
14.401443
 20
67.434448000000003
 30
0.0
 11
22.000001999999991
 21
75.033005000000003
 31
0.0
  0
LINE
  5
6B7
  8
0
 62
     6
 10
13.212966
 20
68.367287000000005
 30
0.0
 11
22.000001999999991
 21
77.154326999999995
 31
0.0
  0
LINE
  5
6B8
  8
0
 62
     6
 10
18.000001999999991
 20
75.275642000000005
 30
0.0
 11
22.000001999999991
 21
79.275642000000005
 31
0.0
  0
LINE
  5
6B9
  8
0
 62
     6
 10
18.000001999999991
 20
77.396964999999994
 30
0.0
 11
20.403036
 21
79.800003000000004
 31
0.0
  0
LINE
  5
6BA
  8
0
 62
     6
 10
18.000001999999991
 20
79.518287999999998
 30
0.0
 11
18.281717
 21
79.800003000000004
 31
0.0
  0
ENDBLK
  5
6BB
  8
0
  0
BLOCK
  8
0
  2
BLOCK54
 70
     0
 10
0.0
 20
0.0
 30
0.0
  3
BLOCK54
  1

  0
LINE
  5
6BD
  8
0
 62
     6
 10
23.000001999999991
 20
74.580765
 30
0.0
 11
23.580763000000001
 21
74.0
 31
0.0
  0
LINE
  5
6BE
  8
0
 62
     6
 10
23.000001999999991
 20
76.702080000000009
 30
0.0
 11
25.702082000000001
 21
74.0
 31
0.0
  0
LINE
  5
6BF
  8
0
 62
     6
 10
23.000001999999991
 20
78.823402000000002
 30
0.0
 11
27.823399999999999
 21
74.0
 31
0.0
  0
LINE
  5
6C0
  8
0
 62
     6
 10
24.194727
 20
79.75
 30
0.0
 11
29.000001999999999
 21
74.944716999999997
 31
0.0
  0
LINE
  5
6C1
  8
0
 62
     6
 10
26.316046
 20
79.75
 30
0.0
 11
29.000001999999999
 21
77.066040000000001
 31
0.0
  0
LINE
  5
6C2
  8
0
 62
     6
 10
28.437365
 20
79.75
 30
0.0
 11
29.000001999999999
 21
79.187363000000005
 31
0.0
  0
ENDBLK
  5
6C3
  8
0
  0
BLOCK
  8
0
  2
BLOCK55
 70
     0
 10
0.0
 20
0.0
 30
0.0
  3
BLOCK55
  1

  0
LINE
  5
6C5
  8
0
 62
     6
 10
23.000001999999991
 20
89.430008000000001
 30
0.0
 11
24.180011999999991
 21
88.250000000000014
 31
0.0
  0
LINE
  5
6C6
  8
0
 62
     6
 10
23.000001999999991
 20
91.551331000000005
 30
0.0
 11
26.301331999999999
 21
88.250000000000014
 31
0.0
  0
LINE
  5
6C7
  8
0
 62
     6
 10
23.000001999999991
 20
93.672652999999997
 30
0.0
 11
28.422650999999998
 21
88.250000000000014
 31
0.0
  0
LINE
  5
6C8
  8
0
 62
     6
 10
23.000001999999991
 20
95.793976000000001
 30
0.0
 11
29.000001999999999
 21
89.793968000000007
 31
0.0
  0
LINE
  5
6C9
  8
0
 62
     6
 10
23.000001999999991
 20
97.915297999999993
 30
0.0
 11
29.000001999999999
 21
91.915290999999996
 31
0.0
  0
LINE
  5
6CA
  8
0
 62
     6
 10
23.000001999999991
 20
100.0366209999999
 30
0.0
 11
29.000001999999999
 21
94.036613000000017
 31
0.0
  0
LINE
  5
6CB
  8
0
 62
     6
 10
23.000001999999991
 20
102.157944
 30
0.0
 11
29.000001999999999
 21
96.157935999999992
 31
0.0
  0
LINE
  5
6CC
  8
0
 62
     6
 10
23.000001999999991
 20
104.2792589999999
 30
0.0
 11
29.000001999999999
 21
98.279258999999996
 31
0.0
  0
LINE
  5
6CD
  8
0
 62
     6
 10
23.000001999999991
 20
106.400581
 30
0.0
 11
29.000001999999999
 21
100.40057399999991
 31
0.0
  0
LINE
  5
6CE
  8
0
 62
     6
 10
23.000001999999991
 20
108.52190400000001
 30
0.0
 11
29.000001999999999
 21
102.5218959999999
 31
0.0
  0
LINE
  5
6CF
  8
0
 62
     6
 10
23.000001999999991
 20
110.6432269999999
 30
0.0
 11
29.000001999999999
 21
104.6432189999999
 31
0.0
  0
LINE
  5
6D0
  8
0
 62
     6
 10
23.000001999999991
 20
112.764549
 30
0.0
 11
29.000001999999999
 21
106.76454199999991
 31
0.0
  0
LINE
  5
6D1
  8
0
 62
     6
 10
24.635870000000001
 20
113.25
 30
0.0
 11
29.000001999999999
 21
108.8858639999999
 31
0.0
  0
LINE
  5
6D2
  8
0
 62
     6
 10
26.757189
 20
113.25
 30
0.0
 11
29.000001999999999
 21
111.007187
 31
0.0
  0
LINE
  5
6D3
  8
0
 62
     6
 10
28.878508
 20
113.25
 30
0.0
 11
29.000001999999999
 21
113.12851000000001
 31
0.0
  0
ENDBLK
  5
6D4
  8
0
  0
BLOCK
  8
0
  2
BLOCK56
 70
     0
 10
0.0
 20
0.0
 30
0.0
  3
BLOCK56
  1

  0
LINE
  5
6D6
  8
0
 62
     6
 10
23.000001999999991
 20
123.3711549999999
 30
0.0
 11
24.621154999999991
 21
121.75
 31
0.0
  0
LINE
  5
6D7
  8
0
 62
     6
 10
23.000001999999991
 20
125.49247699999999
 30
0.0
 11
26.742476
 21
121.75
 31
0.0
  0
LINE
  5
6D8
  8
0
 62
     6
 10
23.000001999999991
 20
127.6137999999999
 30
0.0
 11
28.863793999999999
 21
121.75
 31
0.0
  0
LINE
  5
6D9
  8
0
 62
     6
 10
23.000001999999991
 20
129.7351229999999
 30
0.0
 11
29.000001999999999
 21
123.73511499999999
 31
0.0
  0
LINE
  5
6DA
  8
0
 62
     6
 10
24.856441
 20
130.0
 30
0.0
 11
29.000001999999999
 21
125.8564379999999
 31
0.0
  0
LINE
  5
6DB
  8
0
 62
     6
 10
26.977759999999989
 20
130.0
 30
0.0
 11
29.000001999999999
 21
127.97775300000001
 31
0.0
  0
ENDBLK
  5
6DC
  8
0
  0
BLOCK
  8
0
  2
BLOCK57
 70
     0
 10
0.0
 20
0.0
 30
0.0
  3
BLOCK57
  1

  0
TEXT
  5
6DE
  8
0
 62
     1
 10
-329.0
 20
-220.0
 30
0.0
 40
3.0
  1
Ts3
 50
180.0
 41
1.225767462097451
 72
     5
 11
-336.69998199999992
 21
-220.0
 31
0.0
  0
ENDBLK
  5
6DF
  8
0
  0
BLOCK
  8
0
  2
BLOCK58
 70
     0
 10
0.0
 20
0.0
 30
0.0
  3
BLOCK58
  1

  0
TEXT
  5
6E1
  8
0
 62
     1
 10
-303.0
 20
-206.0
 30
0.0
 40
4.0
  1
1SDH000637R0.103
 50
180.0
 41
1.3857562765830549
 72
     5
 11
-362.26281699999998
 21
-206.0
 31
0.0
  0
ENDBLK
  5
6E2
  8
0
  0
BLOCK
  8
0
  2
BLOCK59
 70
     0
 10
0.0
 20
0.0
 30
0.0
  3
BLOCK59
  1

  0
TEXT
  5
6E4
  8
0
 62
     1
 10
-309.0
 20
-235.0
 30
0.0
 40
2.0
  1
INTERR.AUTOMATICO SERIE ISOMAX
 50
180.0
 41
1.076915325301204
 72
     5
 11
-353.69198599999987
 21
-235.0
 31
0.0
  0
ENDBLK
  5
6E5
  8
0
  0
BLOCK
  8
0
  2
BLOCK60
 70
     0
 10
0.0
 20
0.0
 30
0.0
  3
BLOCK60
  1

  0
TEXT
  5
6E7
  8
0
 62
     1
 10
-295.0
 20
-229.0
 30
0.0
 40
2.0
  1
TRIPOL.ESECUZIONE FISSA TERMINALI ANT.E ANT.PROL.
 50
180.0
 41
1.127687519260403
 72
     5
 11
-368.18691999999999
 21
-229.0
 31
0.0
  0
ENDBLK
  5
6E8
  8
0
  0
BLOCK
  8
0
  2
BLOCK61
 70
     0
 10
0.0
 20
0.0
 30
0.0
  3
BLOCK61
  1

  0
TEXT
  5
6EA
  8
0
 62
     1
 10
-300.0
 20
-248.0
 30
0.0
 40
2.0
  1
3POLE LOW VOLTAGE M.C.C.B SERIES ISOMAX
 50
180.0
 41
1.0999919659735351
 72
     5
 11
-358.18957499999999
 21
-248.0
 31
0.0
  0
ENDBLK
  5
6EB
  8
0
  0
BLOCK
  8
0
  2
BLOCK62
 70
     0
 10
0.0
 20
0.0
 30
0.0
  3
BLOCK62
  1

  0
TEXT
  5
6ED
  8
0
 62
     1
 10
-297.0
 20
-243.0
 30
0.0
 40
2.0
  1
FIXED VERSION FRONT+EXTENDED FRONT TERMINALS
 50
180.0
 41
1.04633779687845
 72
     5
 11
-362.68826300000001
 21
-243.0
 31
0.0
  0
ENDBLK
  5
6EE
  8
0
  0
BLOCK
  8
0
  2
BLOCK63
 70
     0
 10
0.0
 20
0.0
 30
0.0
  3
BLOCK63
  1

  0
TEXT
  5
6F0
  8
0
 62
     1
 10
-226.29531900000001
 20
-226.81141700000001
 30
0.0
 40
2.0
  1
N0204 2007-09-17
 50
180.0
 41
1.1017685633963989
 72
     5
 11
-249.99104299999999
 21
-226.81141700000001
 31
0.0
  0
ENDBLK
  5
6F1
  8
0
  0
BLOCK
  8
0
  2
BLOCK64
 70
     0
 10
0.0
 20
0.0
 30
0.0
  3
BLOCK64
  1

  0
TEXT
  5
6F3
  8
0
 62
     7
 10
123.51313
 20
16.5
 30
0.0
 40
3.0
  1
139
 50
269.99994791279232
 41
1.409019097613152
 72
     5
 11
123.51312299999989
 21
8.8000199999999982
 31
0.0
  0
ENDBLK
  5
6F4
  8
0
  0
BLOCK
  8
0
  2
BLOCK65
 70
     0
 10
0.0
 20
0.0
 30
0.0
  3
BLOCK65
  1

  0
TEXT
  5
6F6
  8
0
 62
     7
 10
-79.161086999999995
 20
-24.686951000000001
 30
0.0
 40
3.0
  1
35
 50
180.0
 41
1.2776591662854091
 72
     5
 11
-84.111075999999997
 21
-24.686951000000001
 31
0.0
  0
ENDBLK
  5
6F7
  8
0
  0
BLOCK
  8
0
  2
BLOCK66
 70
     0
 10
0.0
 20
0.0
 30
0.0
  3
BLOCK66
  1

  0
TEXT
  5
6F9
  8
0
 62
     7
 10
-121.0
 20
-4.0
 30
0.0
 40
3.0
  1
X
 50
180.0
 41
0.9777764444444425
 72
     5
 11
-123.1999969999999
 21
-4.0
 31
0.0
  0
ENDBLK
  5
6FA
  8
0
  0
BLOCK
  8
0
  2
BLOCK67
 70
     0
 10
0.0
 20
0.0
 30
0.0
  3
BLOCK67
  1

  0
TEXT
  5
6FC
  8
0
 62
     7
 10
110.0
 20
-3.0
 30
0.0
 40
3.0
  1
X
 50
180.0
 41
0.9777764444444425
 72
     5
 11
107.800003
 21
-3.0
 31
0.0
  0
ENDBLK
  5
6FD
  8
0
  0
BLOCK
  8
0
  2
BLOCK68
 70
     0
 10
0.0
 20
0.0
 30
0.0
  3
BLOCK68
  1

  0
TEXT
  5
6FF
  8
0
 62
     7
 10
-1.0
 20
-126.0
 30
0.0
 40
3.0
  1
Y
 50
180.0
 41
0.9777777777777778
 72
     5
 11
-3.2000000000000002
 21
-126.0
 31
0.0
  0
ENDBLK
  5
700
  8
0
  0
BLOCK
  8
0
  2
BLOCK69
 70
     0
 10
0.0
 20
0.0
 30
0.0
  3
BLOCK69
  1

  0
TEXT
  5
702
  8
0
 62
     7
 10
2.0
 20
138.0
 30
0.0
 40
3.0
  1
Y
 50
180.0
 41
0.9777777777777778
 72
     5
 11
-0.2
 21
138.0
 31
0.0
  0
ENDBLK
  5
703
  8
0
  0
BLOCK
  8
0
  2
BLOCK70
 70
     0
 10
0.0
 20
0.0
 30
0.0
  3
BLOCK70
  1

  0
TEXT
  5
705
  8
0
 62
     7
 10
185.90870699999991
 20
139.226395
 30
0.0
 40
3.0
  1
 5,5
 50
203.74853916276521
 41
1.7063242102056699
 72
     5
 11
176.34361299999989
 21
135.017944
 31
0.0
  0
ENDBLK
  5
706
  8
0
  0
BLOCK
  8
0
  2
BLOCK71
 70
     0
 10
0.0
 20
0.0
 30
0.0
  3
BLOCK71
  1

  0
TEXT
  5
708
  8
0
 62
     7
 10
187.37319899999989
 20
139.87072800000001
 30
0.0
 40
3.0
  1
%%c
 50
203.74849615251961
 41
0.9777746170628741
 72
     5
 11
185.35949699999989
 21
138.9847409999999
 31
0.0
  0
ENDBLK
  5
709
  8
0
  0
BLOCK
  8
0
  2
BLOCK72
 70
     0
 10
0.0
 20
0.0
 30
0.0
  3
BLOCK72
  1

  0
TEXT
  5
70B
  8
0
 62
     7
 10
145.63453699999999
 20
121.50653799999991
 30
0.0
 40
3.0
  1
 - M5
 50
203.74850282748869
 41
1.470868383570709
 72
     5
 11
133.552322
 21
116.1906129999999
 31
0.0
  0
ENDBLK
  5
70C
  8
0
  0
BLOCK
  8
0
  2
BLOCK73
 70
     0
 10
0.0
 20
0.0
 30
0.0
  3
BLOCK73
  1

  0
TEXT
  5
70E
  8
0
 62
     7
 10
-7.7446979999999987
 20
-1.284179999999999
 30
0.0
 40
3.0
  1
=
 50
179.99997395645201
 41
1.3333327272728639
 72
     5
 11
-9.9446969999999997
 21
-1.284179
 31
0.0
  0
ENDBLK
  5
70F
  8
0
  0
BLOCK
  8
0
  2
BLOCK74
 70
     0
 10
0.0
 20
0.0
 30
0.0
  3
BLOCK74
  1

  0
TEXT
  5
711
  8
0
 62
     7
 10
15.168755000000001
 20
-2.341736
 30
0.0
 40
3.0
  1
=
 50
180.0
 41
1.3333333333333319
 72
     5
 11
12.968755
 21
-2.341736
 31
0.0
  0
ENDBLK
  5
712
  8
0
  0
BLOCK
  8
0
  2
BLOCK75
 70
     0
 10
0.0
 20
0.0
 30
0.0
  3
BLOCK75
  1

  0
TEXT
  5
714
  8
0
 62
     5
 10
93.646796999999992
 20
-8.5355220000000003
 30
0.0
 40
3.0
  1
71,75
 50
270.0000347248174
 41
1.548516199592233
 72
     5
 11
93.646805000000001
 21
-21.735482999999991
 31
0.0
  0
ENDBLK
  5
715
  8
0
  0
BLOCK
  8
0
  2
BLOCK76
 70
     0
 10
0.0
 20
0.0
 30
0.0
  3
BLOCK76
  1

  0
TEXT
  5
717
  8
0
 62
     7
 10
-3.0
 20
-99.0
 30
0.0
 40
3.0
  1
X
 50
90.0
 41
0.9777764444444425
 72
     5
 11
-3.0
 21
-96.800003000000004
 31
0.0
  0
ENDBLK
  5
718
  8
0
  0
BLOCK
  8
0
  2
BLOCK77
 70
     0
 10
0.0
 20
0.0
 30
0.0
  3
BLOCK77
  1

  0
TEXT
  5
71A
  8
0
 62
     7
 10
-3.0
 20
111.0
 30
0.0
 40
3.0
  1
X
 50
90.0
 41
0.9777764444444425
 72
     5
 11
-3.0
 21
113.199997
 31
0.0
  0
ENDBLK
  5
71B
  8
0
  0
BLOCK
  8
0
  2
BLOCK78
 70
     0
 10
0.0
 20
0.0
 30
0.0
  3
BLOCK78
  1

  0
TEXT
  5
71D
  8
0
 62
     7
 10
-126.0
 20
-1.0
 30
0.0
 40
3.0
  1
Y
 50
90.0
 41
0.9777777777777778
 72
     5
 11
-126.0
 21
1.1999999999999991
 31
0.0
  0
ENDBLK
  5
71E
  8
0
  0
BLOCK
  8
0
  2
BLOCK79
 70
     0
 10
0.0
 20
0.0
 30
0.0
  3
BLOCK79
  1

  0
TEXT
  5
720
  8
0
 62
     7
 10
131.0
 20
-1.0
 30
0.0
 40
3.0
  1
Y
 50
90.0
 41
0.9777777777777778
 72
     5
 11
131.0
 21
1.1999999999999991
 31
0.0
  0
ENDBLK
  5
721
  8
0
  0
BLOCK
  8
0
  2
BLOCK80
 70
     0
 10
0.0
 20
0.0
 30
0.0
  3
BLOCK80
  1

  0
TEXT
  5
723
  8
0
 62
     7
 10
18.75
 20
-126.5937499999999
 30
0.0
 40
3.0
  1
112
 50
179.9999404717627
 41
1.5941402843842269
 72
     5
 11
11.05002
 21
-126.59374199999991
 31
0.0
  0
ENDBLK
  5
724
  8
0
  0
BLOCK
  8
0
  2
BLOCK81
 70
     0
 10
0.0
 20
0.0
 30
0.0
  3
BLOCK81
  1

  0
TEXT
  5
726
  8
0
 62
     7
 10
18.75
 20
-164.0829469999999
 30
0.0
 40
3.0
  1
142
 50
180.0
 41
1.3437594995413831
 72
     5
 11
11.05002
 21
-164.0829469999999
 31
0.0
  0
ENDBLK
  5
727
  8
0
  0
BLOCK
  8
0
  2
BLOCK82
 70
     0
 10
0.0
 20
0.0
 30
0.0
  3
BLOCK82
  1

  0
TEXT
  5
729
  8
0
 62
     7
 10
-121.533974
 20
-11.0
 30
0.0
 40
3.0
  1
80
 50
90.0
 41
1.3191663623963901
 72
     5
 11
-121.533974
 21
-6.0500099999999994
 31
0.0
  0
ENDBLK
  5
72A
  8
0
  0
BLOCK
  8
0
  2
BLOCK83
 70
     0
 10
0.0
 20
0.0
 30
0.0
  3
BLOCK83
  1

  0
TEXT
  5
72C
  8
0
 62
     7
 10
-154.251846
 20
-16.5
 30
0.0
 40
3.0
  1
112
 50
90.0
 41
1.594140284383367
 72
     5
 11
-154.251846
 21
-8.8000199999999982
 31
0.0
  0
ENDBLK
  5
72D
  8
0
  0
BLOCK
  8
0
  2
BLOCK84
 70
     0
 10
0.0
 20
0.0
 30
0.0
  3
BLOCK84
  1

  0
TEXT
  5
72F
  8
0
 62
     7
 10
122.34223899999991
 20
-111.27021000000001
 30
0.0
 40
3.0
  1
 7
 50
127.20898959685471
 41
1.736837925866495
 72
     5
 11
119.348862
 21
-107.3278659999999
 31
0.0
  0
ENDBLK
  5
730
  8
0
  0
BLOCK
  8
0
  2
BLOCK85
 70
     0
 10
0.0
 20
0.0
 30
0.0
  3
BLOCK85
  1

  0
TEXT
  5
732
  8
0
 62
     7
 10
123.30978399999999
 20
-112.544495
 30
0.0
 40
3.0
  1
%%c
 50
127.2089187033538
 41
0.9777779165820129
 72
     5
 11
121.9793929999999
 21
-110.79233600000001
 31
0.0
  0
ENDBLK
  5
733
  8
0
  0
ENDSEC
  0
SECTION
  2
ENTITIES
  0
LINE
  5
25
  8
0
 62
     7
 10
-142.298754
 20
678.01219400000002
 30
0.0
 11
-172.04875000000001
 21
678.01219400000002
 31
0.0
  0
LINE
  5
26
  8
0
 62
     7
 10
-136.511753
 20
678.01219400000002
 30
0.0
 11
-138.798755
 21
678.01219400000002
 31
0.0
  0
LINE
  5
27
  8
0
 62
     7
 10
-173.04875000000001
 20
675.21219099999985
 30
0.0
 11
-173.04875000000001
 21
677.01219400000002
 31
0.0
  0
LINE
  5
28
  8
0
 62
     7
 10
-173.04875000000001
 20
675.21219099999985
 30
0.0
 11
-175.54875000000001
 21
675.21219099999985
 31
0.0
  0
LINE
  5
29
  8
0
 62
     7
 10
-175.54876100000001
 20
671.262201
 30
0.0
 11
-175.54876100000001
 21
675.21219099999985
 31
0.0
  0
LINE
  5
2A
  8
0
 62
     7
 10
-173.04875000000001
 20
509.01219400000002
 30
0.0
 11
-173.04875000000001
 21
510.26220899999993
 31
0.0
  0
LINE
  5
2B
  8
0
 62
     7
 10
-142.298754
 20
508.01219400000002
 30
0.0
 11
-172.04875000000001
 21
508.01219400000002
 31
0.0
  0
LINE
  5
2C
  8
0
 62
     7
 10
-107.29868399999999
 20
508.01219400000002
 30
0.0
 11
-138.798755
 21
508.01219400000002
 31
0.0
  0
LINE
  5
2D
  8
0
 62
     7
 10
-74.048749999999998
 20
508.01219400000002
 30
0.0
 11
-103.79868500000001
 21
508.01219400000002
 31
0.0
  0
LINE
  5
2E
  8
0
 62
     7
 10
-73.048749999999998
 20
509.01219400000002
 30
0.0
 11
-73.048749999999998
 21
510.26220899999993
 31
0.0
  0
LINE
  5
2F
  8
0
 62
     7
 10
-138.04875499999989
 20
671.51219400000002
 30
0.0
 11
-143.048754
 21
671.51219400000002
 31
0.0
  0
LINE
  5
30
  8
0
 62
     7
 10
-173.048754
 20
671.262201
 30
0.0
 11
-173.048754
 21
675.21219099999985
 31
0.0
  0
CIRCLE
  5
31
  8
0
  6
DASHSPACE
 62
     7
 10
-158.04875000000001
 20
665.51218600000004
 30
0.0
 40
5.5000010000000001
  0
CIRCLE
  5
32
  8
0
 62
     7
 10
-158.048754
 20
674.012201
 30
0.0
 40
1.4000049999999991
  0
ARC
  5
33
  8
0
 62
     7
 10
-172.04874599999999
 20
677.01219400000002
 30
0.0
 40
1.0000039999999999
 50
90.000046999999995
 51
180.00048100000001
  0
CIRCLE
  5
34
  8
0
  6
DASHSPACE
 62
     7
 10
-158.048731
 20
520.51219700000001
 30
0.0
 40
5.4999969999999996
  0
CIRCLE
  5
35
  8
0
  6
DASHSPACE
 62
     7
 10
-140.54873699999999
 20
523.51219700000001
 30
0.0
 40
4.4999979999999997
  0
CIRCLE
  5
36
  8
0
  6
DASHSPACE
 62
     7
 10
-123.0487419999999
 20
520.51219400000002
 30
0.0
 40
5.4999969999999996
  0
ARC
  5
37
  8
0
 62
     7
 10
-172.04875000000001
 20
509.01219400000002
 30
0.0
 40
1.0
 50
180.00000900000001
 51
269.99999100000002
  0
CIRCLE
  5
38
  8
0
  6
DASHSPACE
 62
     7
 10
-105.54873499999999
 20
523.51217099999985
 30
0.0
 40
4.4999789999999988
  0
CIRCLE
  5
39
  8
0
  6
DASHSPACE
 62
     7
 10
-88.048676999999998
 20
520.51207499999987
 30
0.0
 40
5.5001319999999989
  0
ARC
  5
3A
  8
0
 62
     7
 10
-74.048742000000004
 20
509.01218599999999
 30
0.0
 40
0.9999900000000001
 50
269.999773
 51
0.000465
  0
LINE
  5
3B
  8
0
  6
DASHDOT
 62
     7
 10
-158.048754
 20
669.61220000000003
 30
0.0
 11
-158.048754
 21
678.41220999999985
 31
0.0
  0
LINE
  5
3C
  8
0
  6
DASHDOT
 62
     7
 10
-153.64874999999989
 20
674.012201
 30
0.0
 11
-162.448759
 21
674.012201
 31
0.0
  0
LINE
  5
3D
  8
0
  6
DASHDOT
 62
     7
 10
-158.04875000000001
 20
657.01218600000004
 30
0.0
 11
-158.04875000000001
 21
674.01218600000004
 31
0.0
  0
LINE
  5
3E
  8
0
  6
DASHDOT
 62
     7
 10
-149.5487479999999
 20
665.51218600000004
 30
0.0
 11
-166.54875000000001
 21
665.51218600000004
 31
0.0
  0
LINE
  5
3F
  8
0
  6
DASHDOT
 62
     7
 10
-140.548754
 20
655.01220899999998
 30
0.0
 11
-140.548754
 21
680.375811
 31
0.0
  0
LINE
  5
40
  8
0
  6
DASHDOT
 62
     7
 10
-158.048731
 20
512.012201
 30
0.0
 11
-158.048731
 21
529.01219700000001
 31
0.0
  0
LINE
  5
41
  8
0
  6
DASHDOT
 62
     7
 10
-149.54873699999999
 20
520.51219700000001
 30
0.0
 11
-166.548731
 21
520.51219700000001
 31
0.0
  0
LINE
  5
42
  8
0
  6
DASHDOT
 62
     7
 10
-140.54873699999999
 20
505.58502399999998
 30
0.0
 11
-140.54873699999999
 21
531.0121969999999
 31
0.0
  0
LINE
  5
43
  8
0
  6
DASHDOT
 62
     7
 10
-133.0487379999999
 20
523.51219700000001
 30
0.0
 11
-148.04873499999999
 21
523.51219700000001
 31
0.0
  0
LINE
  5
44
  8
0
  6
DASHDOT
 62
     7
 10
-114.5487439999999
 20
520.51219400000002
 30
0.0
 11
-131.5487379999999
 21
520.51219400000002
 31
0.0
  0
LINE
  5
45
  8
0
  6
DASHDOT
 62
     7
 10
-98.048754000000002
 20
523.51217099999985
 30
0.0
 11
-113.0487139999999
 21
523.51217099999985
 31
0.0
  0
LINE
  5
46
  8
0
  6
DASHDOT
 62
     7
 10
-88.048676999999998
 20
512.01194199999986
 30
0.0
 11
-88.048676999999998
 21
529.01220499999988
 31
0.0
  0
LINE
  5
47
  8
0
  6
DASHDOT
 62
     7
 10
-79.548543999999993
 20
520.51207499999987
 30
0.0
 11
-96.548809000000006
 21
520.51207499999987
 31
0.0
  0
LINE
  5
48
  8
0
  6
DASHDOT
 62
     7
 10
-88.048731000000004
 20
507.61220700000001
 30
0.0
 11
-88.048731000000004
 21
516.412195
 31
0.0
  0
LINE
  5
49
  8
0
  6
DASHDOT
 62
     7
 10
-158.04873499999999
 20
507.61219199999999
 30
0.0
 11
-158.04873499999999
 21
516.412195
 31
0.0
  0
LINE
  5
4A
  8
0
 62
     3
 10
-71.048734999999994
 20
643.26220499999988
 30
0.0
 11
-175.04871900000001
 21
643.26220499999988
 31
0.0
  0
LINE
  5
4B
  8
0
 62
     3
 10
-71.048734999999994
 20
538.26222000000007
 30
0.0
 11
-84.548734999999994
 21
538.26222000000007
 31
0.0
  0
LINE
  5
4C
  8
0
 62
     3
 10
-96.048734999999994
 20
538.26222000000007
 30
0.0
 11
-120.5994409999999
 21
538.26222000000007
 31
0.0
  0
LINE
  5
4D
  8
0
 62
     3
 10
-161.54871900000001
 20
538.26222000000007
 30
0.0
 11
-175.04871900000001
 21
538.26222000000007
 31
0.0
  0
LINE
  5
4E
  8
0
 62
     3
 10
-150.04871900000001
 20
538.26222000000007
 30
0.0
 11
-161.54871900000001
 21
538.26222000000007
 31
0.0
  0
LINE
  5
4F
  8
0
 62
     3
 10
-84.548734999999994
 20
538.26222000000007
 30
0.0
 11
-96.048734999999994
 21
538.26222000000007
 31
0.0
  0
LINE
  5
50
  8
0
  6
DASHDOT
 62
     7
 10
-123.04871899999991
 20
520.14102000000003
 30
0.0
 11
-123.04871899999991
 21
623.43629299999986
 31
0.0
  0
ARC
  5
51
  8
0
 62
     3
 10
-175.04871900000001
 20
538.76221999999996
 30
0.0
 40
0.5
 50
180.00000299999991
 51
270.00000499999987
  0
ARC
  5
52
  8
0
 62
     3
 10
-175.04871900000001
 20
642.76220499999999
 30
0.0
 40
0.5
 50
90.0
 51
180.00000299999991
  0
ARC
  5
53
  8
0
 62
     3
 10
-71.048734999999994
 20
642.76220499999999
 30
0.0
 40
0.5
 50
0.000001
 51
90.0
  0
ARC
  5
54
  8
0
 62
     3
 10
-71.048734999999994
 20
538.76221999999996
 30
0.0
 40
0.5
 50
270.00000499999987
 51
0.000001
  0
LINE
  5
55
  8
0
  6
DASHDOT
 62
     7
 10
-123.04871899999991
 20
629.21552499999984
 30
0.0
 11
-123.04871899999991
 21
658.12577199999987
 31
0.0
  0
LINE
  5
56
  8
0
 62
     3
 10
-125.49817
 20
538.26222000000007
 30
0.0
 11
-150.04871900000001
 21
538.26222000000007
 31
0.0
  0
LINE
  5
57
  8
0
 62
     7
 10
-150.54873499999999
 20
538.26220499999999
 30
0.0
 11
-160.54871900000001
 21
538.26220499999999
 31
0.0
  0
LINE
  5
58
  8
0
 62
     7
 10
-85.548749999999998
 20
538.26220499999999
 30
0.0
 11
-95.548749999999998
 21
538.26220499999999
 31
0.0
  0
LINE
  5
59
  8
0
 62
     7
 10
-70.548718999999991
 20
538.76220499999999
 30
0.0
 11
-70.548718999999991
 21
556.76218800000004
 31
0.0
  0
LINE
  5
5A
  8
0
 62
     7
 10
-175.54871900000001
 20
538.76220499999999
 30
0.0
 11
-175.54871900000001
 21
556.76218800000004
 31
0.0
  0
LINE
  5
5B
  8
0
 62
     7
 10
-71.048718999999991
 20
643.26220499999988
 30
0.0
 11
-175.04871900000001
 21
643.26220499999988
 31
0.0
  0
LINE
  5
5C
  8
0
 62
     7
 10
-160.54871900000001
 20
538.26220499999999
 30
0.0
 11
-175.54871900000001
 21
538.26220499999999
 31
0.0
  0
LINE
  5
5D
  8
0
 62
     7
 10
-95.548749999999998
 20
538.26220499999999
 30
0.0
 11
-150.54873499999999
 21
538.26220499999999
 31
0.0
  0
LINE
  5
5E
  8
0
 62
     7
 10
-70.548734999999994
 20
538.26220499999999
 30
0.0
 11
-85.548749999999998
 21
538.26220499999999
 31
0.0
  0
LINE
  5
5F
  8
0
 62
     7
 10
-112.29871899999991
 20
560.51218800000004
 30
0.0
 11
-112.29871899999991
 21
600.51217299999996
 31
0.0
  0
LINE
  5
60
  8
0
 62
     7
 10
-133.79871899999989
 20
560.51218800000004
 30
0.0
 11
-133.79871899999989
 21
600.51217299999996
 31
0.0
  0
LINE
  5
61
  8
0
 62
     7
 10
-70.548718999999991
 20
631.26217499999996
 30
0.0
 11
-175.54871900000001
 21
631.26217499999996
 31
0.0
  0
LINE
  5
62
  8
0
 62
     7
 10
-70.548718999999991
 20
641.26217499999996
 30
0.0
 11
-175.54871900000001
 21
641.26217499999996
 31
0.0
  0
LINE
  5
63
  8
0
 62
     7
 10
-112.29871899999991
 20
600.24770699999999
 30
0.0
 11
-133.79871899999989
 21
600.24770699999999
 31
0.0
  0
LINE
  5
64
  8
0
 62
     7
 10
-112.29871899999991
 20
600.51217299999996
 30
0.0
 11
-133.79871899999989
 21
600.51217299999996
 31
0.0
  0
LINE
  5
65
  8
0
 62
     7
 10
-112.29871899999991
 20
560.51218800000004
 30
0.0
 11
-133.79871899999989
 21
560.51218800000004
 31
0.0
  0
LINE
  5
66
  8
0
 62
     7
 10
-112.29871899999991
 20
560.77668399999993
 30
0.0
 11
-133.79871899999989
 21
560.77668399999993
 31
0.0
  0
LINE
  5
67
  8
0
  6
DASHDOT
 62
     7
 10
-123.04871899999991
 20
461.50807400000002
 30
0.0
 11
-123.04871899999991
 21
621.464609
 31
0.0
  0
LINE
  5
68
  8
0
 62
     7
 10
-70.548734999999994
 20
557.76218800000004
 30
0.0
 11
-70.548734999999994
 21
569.76217999999994
 31
0.0
  0
LINE
  5
69
  8
0
 62
     7
 10
-70.548734999999994
 20
538.26220499999999
 30
0.0
 11
-70.548734999999994
 21
642.76220499999999
 31
0.0
  0
LINE
  5
6A
  8
0
 62
     7
 10
-70.548734999999994
 20
570.76217999999994
 30
0.0
 11
-70.548734999999994
 21
590.26218800000004
 31
0.0
  0
LINE
  5
6B
  8
0
 62
     7
 10
-70.548734999999994
 20
591.26218800000004
 30
0.0
 11
-70.548734999999994
 21
603.26218800000004
 31
0.0
  0
LINE
  5
6C
  8
0
 62
     7
 10
-175.54871900000001
 20
557.76218800000004
 30
0.0
 11
-175.54871900000001
 21
569.76218800000004
 31
0.0
  0
LINE
  5
6D
  8
0
 62
     7
 10
-175.54871900000001
 20
570.76218800000004
 30
0.0
 11
-175.54871900000001
 21
590.26218800000004
 31
0.0
  0
LINE
  5
6E
  8
0
 62
     7
 10
-175.54871900000001
 20
591.26218800000004
 30
0.0
 11
-175.54871900000001
 21
603.26218800000004
 31
0.0
  0
LINE
  5
6F
  8
0
 62
     7
 10
-175.54871900000001
 20
538.26220499999999
 30
0.0
 11
-175.54871900000001
 21
642.76220499999999
 31
0.0
  0
ARC
  5
70
  8
0
 62
     7
 10
-175.04871900000001
 20
538.76220499999999
 30
0.0
 40
0.5
 50
180.00000299999991
 51
270.00000499999987
  0
ARC
  5
71
  8
0
 62
     7
 10
-71.048718999999991
 20
538.76220499999999
 30
0.0
 40
0.5
 50
270.00000499999987
 51
0.000001
  0
ARC
  5
72
  8
0
 62
     7
 10
-71.048718999999991
 20
642.76220499999999
 30
0.0
 40
0.5
 50
0.000001
 51
90.0
  0
ARC
  5
73
  8
0
 62
     7
 10
-175.04871900000001
 20
642.76220499999999
 30
0.0
 40
0.5
 50
90.0
 51
180.00000299999991
  0
LINE
  5
74
  8
0
 62
     7
 10
-145.54871900000001
 20
601.76218800000004
 30
0.0
 11
-147.04871900000001
 21
601.76218800000004
 31
0.0
  0
LINE
  5
75
  8
0
 62
     7
 10
-145.54871900000001
 20
592.76218800000004
 30
0.0
 11
-147.04871900000001
 21
592.76218800000004
 31
0.0
  0
CIRCLE
  5
76
  8
0
 62
     7
 10
-146.29871899999989
 20
563.76218800000004
 30
0.0
 40
4.5
  0
CIRCLE
  5
77
  8
0
 62
     7
 10
-146.29871899999989
 20
563.76218800000004
 30
0.0
 40
3.0
  0
LINE
  5
78
  8
0
 62
     7
 10
-147.04871900000001
 20
592.76218800000004
 30
0.0
 11
-147.04871900000001
 21
601.76218800000004
 31
0.0
  0
LINE
  5
79
  8
0
 62
     7
 10
-145.54871900000001
 20
592.76218800000004
 30
0.0
 11
-145.54871900000001
 21
601.76218800000004
 31
0.0
  0
LINE
  5
7A
  8
0
 62
     7
 10
-97.498729999999995
 20
567.61218799999995
 30
0.0
 11
-97.948729000000014
 21
567.61218799999995
 31
0.0
  0
LINE
  5
7B
  8
0
 62
     7
 10
-98.448729
 20
559.91218800000001
 30
0.0
 11
-99.248730000000009
 21
559.91218800000001
 31
0.0
  0
LINE
  5
7C
  8
0
 62
     7
 10
-105.6487289999999
 20
562.51218800000004
 30
0.0
 11
-105.6487289999999
 21
563.01218800000004
 31
0.0
  0
LINE
  5
7D
  8
0
 62
     7
 10
-100.4487289999999
 20
562.51218800000004
 30
0.0
 11
-100.4487289999999
 21
563.01218800000004
 31
0.0
  0
ARC
  5
7E
  8
0
 62
     7
 10
-103.04872899999999
 20
563.01218800000004
 30
0.0
 40
2.6000000000000001
 50
0.000001
 51
180.00000299999991
  0
ARC
  5
7F
  8
0
 62
     7
 10
-103.04872899999999
 20
562.51218800000004
 30
0.0
 40
2.6000000000000001
 50
180.00000299999991
 51
0.000001
  0
ARC
  5
80
  8
0
 62
     7
 10
-103.04872899999999
 20
563.01218800000004
 30
0.0
 40
1.8
 50
0.000001
 51
180.00000299999991
  0
ARC
  5
81
  8
0
 62
     7
 10
-103.04872899999999
 20
562.51218800000004
 30
0.0
 40
1.8
 50
180.00000299999991
 51
0.000001
  0
LINE
  5
82
  8
0
 62
     7
 10
-104.84873
 20
562.51218800000004
 30
0.0
 11
-104.84873
 21
563.01218800000004
 31
0.0
  0
LINE
  5
83
  8
0
 62
     7
 10
-101.24872999999999
 20
562.51218800000004
 30
0.0
 11
-101.24872999999999
 21
563.01218800000004
 31
0.0
  0
LINE
  5
84
  8
0
 62
     7
 10
-100.1987289999999
 20
564.41218800000001
 30
0.0
 11
-100.1987289999999
 21
565.21218799999997
 31
0.0
  0
LINE
  5
85
  8
0
 62
     7
 10
-99.248730000000009
 20
564.41218800000001
 30
0.0
 11
-100.1987289999999
 21
564.41218800000001
 31
0.0
  0
LINE
  5
86
  8
0
 62
     7
 10
-97.498729999999995
 20
564.41218800000001
 30
0.0
 11
-97.498729999999995
 21
565.21218799999997
 31
0.0
  0
LINE
  5
87
  8
0
 62
     7
 10
-99.248730000000009
 20
565.21218799999997
 30
0.0
 11
-100.1987289999999
 21
565.21218799999997
 31
0.0
  0
LINE
  5
88
  8
0
 62
     7
 10
-99.248730000000009
 20
559.91218800000001
 30
0.0
 11
-99.248730000000009
 21
564.41218800000001
 31
0.0
  0
LINE
  5
89
  8
0
 62
     7
 10
-98.448729
 20
559.91218800000001
 30
0.0
 11
-98.448729
 21
564.41218800000001
 31
0.0
  0
LINE
  5
8A
  8
0
 62
     7
 10
-97.498729999999995
 20
564.41218800000001
 30
0.0
 11
-98.448729
 21
564.41218800000001
 31
0.0
  0
LINE
  5
8B
  8
0
 62
     7
 10
-97.498729999999995
 20
565.21218799999997
 30
0.0
 11
-98.448729
 21
565.21218799999997
 31
0.0
  0
LINE
  5
8C
  8
0
 62
     7
 10
-99.248730000000009
 20
565.21218799999997
 30
0.0
 11
-99.248730000000009
 21
566.31218799999999
 31
0.0
  0
LINE
  5
8D
  8
0
 62
     7
 10
-98.448729
 20
565.21218799999997
 30
0.0
 11
-98.448729
 21
566.31218799999999
 31
0.0
  0
ARC
  5
8E
  8
0
 62
     7
 10
-97.948729000000014
 20
566.31218799999999
 30
0.0
 40
1.3
 50
90.000010000000003
 51
180.00000299999991
  0
ARC
  5
8F
  8
0
 62
     7
 10
-97.948729000000014
 20
566.31218799999999
 30
0.0
 40
0.5
 50
90.000010000000003
 51
180.00000299999991
  0
LINE
  5
90
  8
0
 62
     7
 10
-97.498729999999995
 20
566.81218799999999
 30
0.0
 11
-97.498729999999995
 21
567.61218799999995
 31
0.0
  0
LINE
  5
91
  8
0
 62
     7
 10
-97.498729999999995
 20
566.81218799999999
 30
0.0
 11
-97.948729000000014
 21
566.81218799999999
 31
0.0
  0
LINE
  5
92
  8
0
 62
     7
 10
-94.298729000000009
 20
567.61218799999995
 30
0.0
 11
-94.748729999999995
 21
567.61218799999995
 31
0.0
  0
LINE
  5
93
  8
0
 62
     7
 10
-95.248730000000009
 20
559.91218800000001
 30
0.0
 11
-96.048729000000009
 21
559.91218800000001
 31
0.0
  0
LINE
  5
94
  8
0
 62
     7
 10
-96.998730000000009
 20
564.41218800000001
 30
0.0
 11
-96.998730000000009
 21
565.21218799999997
 31
0.0
  0
LINE
  5
95
  8
0
 62
     7
 10
-96.048729000000009
 20
564.41218800000001
 30
0.0
 11
-96.998730000000009
 21
564.41218800000001
 31
0.0
  0
LINE
  5
96
  8
0
 62
     7
 10
-94.298729000000009
 20
564.41218800000001
 30
0.0
 11
-94.298729000000009
 21
565.21218799999997
 31
0.0
  0
LINE
  5
97
  8
0
 62
     7
 10
-96.048729000000009
 20
565.21218799999997
 30
0.0
 11
-96.998730000000009
 21
565.21218799999997
 31
0.0
  0
LINE
  5
98
  8
0
 62
     7
 10
-96.048729000000009
 20
559.91218800000001
 30
0.0
 11
-96.048729000000009
 21
564.41218800000001
 31
0.0
  0
LINE
  5
99
  8
0
 62
     7
 10
-95.248730000000009
 20
559.91218800000001
 30
0.0
 11
-95.248730000000009
 21
564.41218800000001
 31
0.0
  0
LINE
  5
9A
  8
0
 62
     7
 10
-94.298729000000009
 20
564.41218800000001
 30
0.0
 11
-95.248730000000009
 21
564.41218800000001
 31
0.0
  0
LINE
  5
9B
  8
0
 62
     7
 10
-94.298729000000009
 20
565.21218799999997
 30
0.0
 11
-95.248730000000009
 21
565.21218799999997
 31
0.0
  0
LINE
  5
9C
  8
0
 62
     7
 10
-96.048729000000009
 20
565.21218799999997
 30
0.0
 11
-96.048729000000009
 21
566.31218799999999
 31
0.0
  0
LINE
  5
9D
  8
0
 62
     7
 10
-95.248730000000009
 20
565.21218799999997
 30
0.0
 11
-95.248730000000009
 21
566.31218799999999
 31
0.0
  0
ARC
  5
9E
  8
0
 62
     7
 10
-94.748729999999995
 20
566.31218799999999
 30
0.0
 40
1.3
 50
90.000010000000003
 51
180.00000299999991
  0
ARC
  5
9F
  8
0
 62
     7
 10
-94.748729999999995
 20
566.31218799999999
 30
0.0
 40
0.5
 50
90.000010000000003
 51
180.00000299999991
  0
LINE
  5
A0
  8
0
 62
     7
 10
-94.298729000000009
 20
566.81218799999999
 30
0.0
 11
-94.298729000000009
 21
567.61218799999995
 31
0.0
  0
LINE
  5
A1
  8
0
 62
     7
 10
-94.298729000000009
 20
566.81218799999999
 30
0.0
 11
-94.748729999999995
 21
566.81218799999999
 31
0.0
  0
LINE
  5
A2
  8
0
 62
     7
 10
-98.848730000000003
 20
594.4121879999999
 30
0.0
 11
-99.648729000000003
 21
594.4121879999999
 31
0.0
  0
ARC
  5
A3
  8
0
 62
     7
 10
-103.04872899999999
 20
597.51218800000004
 30
0.0
 40
2.6000000000000001
 50
0.000001
 51
180.00000299999991
  0
ARC
  5
A4
  8
0
 62
     7
 10
-103.04872899999999
 20
597.51218800000004
 30
0.0
 40
1.8
 50
0.000001
 51
180.00000299999991
  0
ARC
  5
A5
  8
0
 62
     7
 10
-103.04872899999999
 20
597.01218800000004
 30
0.0
 40
2.6000000000000001
 50
180.00000299999991
 51
0.000001
  0
ARC
  5
A6
  8
0
 62
     7
 10
-103.04872899999999
 20
597.01218800000004
 30
0.0
 40
1.8
 50
180.00000299999991
 51
0.000001
  0
LINE
  5
A7
  8
0
 62
     7
 10
-101.24872999999999
 20
597.01218800000004
 30
0.0
 11
-101.24872999999999
 21
597.51218800000004
 31
0.0
  0
LINE
  5
A8
  8
0
 62
     7
 10
-100.4487289999999
 20
597.01218800000004
 30
0.0
 11
-100.4487289999999
 21
597.51218800000004
 31
0.0
  0
LINE
  5
A9
  8
0
 62
     7
 10
-104.84873
 20
597.01218800000004
 30
0.0
 11
-104.84873
 21
597.51218800000004
 31
0.0
  0
LINE
  5
AA
  8
0
 62
     7
 10
-105.6487289999999
 20
597.01218800000004
 30
0.0
 11
-105.6487289999999
 21
597.51218800000004
 31
0.0
  0
LINE
  5
AB
  8
0
 62
     7
 10
-99.648729000000003
 20
594.4121879999999
 30
0.0
 11
-99.648729000000003
 21
600.11218799999995
 31
0.0
  0
LINE
  5
AC
  8
0
 62
     7
 10
-98.848730000000003
 20
594.4121879999999
 30
0.0
 11
-98.848730000000003
 21
597.91218800000001
 31
0.0
  0
LINE
  5
AD
  8
0
 62
     7
 10
-96.048729000000009
 20
594.4121879999999
 30
0.0
 11
-96.048729000000009
 21
597.91218800000001
 31
0.0
  0
LINE
  5
AE
  8
0
 62
     7
 10
-95.248730000000009
 20
594.4121879999999
 30
0.0
 11
-95.248730000000009
 21
598.11218799999995
 31
0.0
  0
LINE
  5
AF
  8
0
 62
     7
 10
-98.848730000000003
 20
600.11218799999995
 30
0.0
 11
-99.648729000000003
 21
600.11218799999995
 31
0.0
  0
ARC
  5
B0
  8
0
 62
     7
 10
-97.448729
 20
597.91218800000001
 30
0.0
 40
1.399999999999999
 50
0.000001
 51
180.00000299999991
  0
LINE
  5
B1
  8
0
 62
     7
 10
-98.848730000000003
 20
599.31218699999999
 30
0.0
 11
-98.848730000000003
 21
600.11218799999995
 31
0.0
  0
ARC
  5
B2
  8
0
 62
     7
 10
-97.248730000000023
 20
598.11218799999995
 30
0.0
 40
2.0
 50
0.000001
 51
143.13010199999999
  0
LINE
  5
B3
  8
0
 62
     7
 10
-95.248730000000009
 20
594.4121879999999
 30
0.0
 11
-96.048729000000009
 21
594.4121879999999
 31
0.0
  0
LINE
  5
B4
  8
0
 62
     7
 10
-142.298754
 20
675.01219400000002
 30
0.0
 11
-142.298754
 21
678.01219400000002
 31
0.0
  0
LINE
  5
B5
  8
0
 62
     7
 10
-138.798755
 20
675.01219400000002
 30
0.0
 11
-138.798755
 21
678.01219400000002
 31
0.0
  0
LINE
  5
B6
  8
0
 62
     7
 10
-143.048754
 20
671.51219400000002
 30
0.0
 11
-143.048754
 21
675.01219400000002
 31
0.0
  0
LINE
  5
B7
  8
0
 62
     7
 10
-138.04875499999989
 20
671.51219400000002
 30
0.0
 11
-138.04875499999989
 21
675.01219400000002
 31
0.0
  0
LINE
  5
B8
  8
0
 62
     7
 10
-138.04875499999989
 20
675.01219400000002
 30
0.0
 11
-138.798755
 21
675.01219400000002
 31
0.0
  0
LINE
  5
B9
  8
0
 62
     7
 10
-142.298754
 20
675.01219400000002
 30
0.0
 11
-143.048754
 21
675.01219400000002
 31
0.0
  0
LINE
  5
BA
  8
0
 62
     7
 10
-103.79868500000001
 20
508.01219400000002
 30
0.0
 11
-103.79868500000001
 21
510.26220899999993
 31
0.0
  0
LINE
  5
BB
  8
0
 62
     7
 10
-107.29868399999999
 20
508.01219400000002
 30
0.0
 11
-107.29868399999999
 21
510.26220899999993
 31
0.0
  0
LINE
  5
BC
  8
0
 62
     7
 10
-138.798755
 20
508.01219400000002
 30
0.0
 11
-138.798755
 21
510.26220899999993
 31
0.0
  0
LINE
  5
BD
  8
0
 62
     7
 10
-142.298754
 20
508.01219400000002
 30
0.0
 11
-142.298754
 21
510.26220899999993
 31
0.0
  0
LINE
  5
BE
  8
0
  6
DASHDOT
 62
     7
 10
-105.54873499999999
 20
509.01219400000002
 30
0.0
 11
-105.54873499999999
 21
530.71885099999986
 31
0.0
  0
LINE
  5
BF
  8
0
 62
     7
 10
-112.29871899999991
 20
574.63750899999991
 30
0.0
 11
-133.79871899999989
 21
574.63750899999991
 31
0.0
  0
LINE
  5
C0
  8
0
 62
     7
 10
-112.29871899999991
 20
568.52104299999985
 30
0.0
 11
-133.79871899999989
 21
568.52104299999985
 31
0.0
  0
LINE
  5
C1
  8
0
 62
     7
 10
-112.29871899999991
 20
562.57322499999987
 30
0.0
 11
-133.79871899999989
 21
562.57322499999987
 31
0.0
  0
LINE
  5
C2
  8
0
 62
     7
 10
-112.29871899999991
 20
561.77047699999991
 30
0.0
 11
-133.79871899999989
 21
561.77047699999991
 31
0.0
  0
LINE
  5
C3
  8
0
  6
DASHDOT
 62
     7
 10
-43.467489
 20
590.76220299999989
 30
0.0
 11
-212.51839299999989
 21
590.76220299999989
 31
0.0
  0
LINE
  5
C4
  8
0
  6
DASHDOT
 62
     7
 10
-230.92220099999989
 20
590.76220299999989
 30
0.0
 11
-251.03006599999989
 21
590.76220299999989
 31
0.0
  0
LINE
  5
C5
  8
0
 62
     2
 10
-76.548749999999998
 20
505.51219400000002
 30
0.0
 11
-76.548749999999998
 21
508.01219400000002
 31
0.0
  0
LINE
  5
C6
  8
0
 62
     2
 10
-169.54875000000001
 20
505.51219400000002
 30
0.0
 11
-169.54875000000001
 21
508.01219400000002
 31
0.0
  0
LINE
  5
C7
  8
0
 62
     2
 10
-76.548749999999998
 20
505.51219400000002
 30
0.0
 11
-169.54875000000001
 21
505.51219400000002
 31
0.0
  0
LINE
  5
C8
  8
0
 62
     2
 10
-168.048754
 20
678.01219400000002
 30
0.0
 11
-168.048754
 21
710.51217800000006
 31
0.0
  0
LINE
  5
C9
  8
0
 62
     2
 10
-148.048754
 20
678.01219400000002
 30
0.0
 11
-148.048754
 21
710.51217800000006
 31
0.0
  0
LINE
  5
CA
  8
0
 62
     2
 10
-148.048754
 20
710.51217800000006
 30
0.0
 11
-168.048754
 21
710.51217800000006
 31
0.0
  0
CIRCLE
  5
CB
  8
0
 62
     2
 10
-158.04875000000001
 20
698.01217800000006
 30
0.0
 40
4.25
  0
LINE
  5
CC
  8
0
 62
     2
 10
-113.048754
 20
710.51217800000006
 30
0.0
 11
-133.048754
 21
710.51217800000006
 31
0.0
  0
LINE
  5
CD
  8
0
 62
     2
 10
-113.048754
 20
680.51219400000002
 30
0.0
 11
-113.048754
 21
710.51217800000006
 31
0.0
  0
CIRCLE
  5
CE
  8
0
 62
     2
 10
-123.048749
 20
698.01217800000006
 30
0.0
 40
4.25
  0
LINE
  5
CF
  8
0
 62
     2
 10
-133.048754
 20
680.51219400000002
 30
0.0
 11
-133.048754
 21
710.51217800000006
 31
0.0
  0
CIRCLE
  5
D0
  8
0
 62
     2
 10
-88.048749999999998
 20
698.01217800000006
 30
0.0
 40
4.25
  0
LINE
  5
D1
  8
0
 62
     2
 10
-78.048754000000002
 20
680.51219400000002
 30
0.0
 11
-78.048754000000002
 21
710.51217800000006
 31
0.0
  0
LINE
  5
D2
  8
0
 62
     2
 10
-98.048754000000002
 20
680.51219400000002
 30
0.0
 11
-98.048754000000002
 21
710.51217800000006
 31
0.0
  0
LINE
  5
D3
  8
0
 62
     2
 10
-78.048754000000002
 20
710.51217800000006
 30
0.0
 11
-98.048754000000002
 21
710.51217800000006
 31
0.0
  0
LINE
  5
D4
  8
0
  6
DASHDOT
 62
     2
 10
-88.048749999999998
 20
692.76217799999995
 30
0.0
 11
-88.048749999999998
 21
703.26217799999995
 31
0.0
  0
LINE
  5
D5
  8
0
  6
DASHDOT
 62
     2
 10
-82.798749999999998
 20
698.01217800000006
 30
0.0
 11
-93.298749999999984
 21
698.01217800000006
 31
0.0
  0
LINE
  5
D6
  8
0
  6
DASHDOT
 62
     2
 10
-123.048749
 20
658.51077499999985
 30
0.0
 11
-123.048749
 21
724.99287600000002
 31
0.0
  0
LINE
  5
D7
  8
0
  6
DASHDOT
 62
     2
 10
-117.798749
 20
698.01217800000006
 30
0.0
 11
-128.2987489999999
 21
698.01217800000006
 31
0.0
  0
LINE
  5
D8
  8
0
  6
DASHDOT
 62
     2
 10
-158.04875000000001
 20
692.76217799999995
 30
0.0
 11
-158.04875000000001
 21
703.26217799999995
 31
0.0
  0
LINE
  5
D9
  8
0
  6
DASHDOT
 62
     2
 10
-152.79875000000001
 20
698.01217800000006
 30
0.0
 11
-163.29875000000001
 21
698.01217800000006
 31
0.0
  0
LINE
  5
DA
  8
0
 62
     1
 10
-135.04875499999989
 20
680.51219400000002
 30
0.0
 11
-135.04875499999989
 21
683.51219400000002
 31
0.0
  0
LINE
  5
DB
  8
0
 62
     1
 10
-142.048754
 20
683.51219400000002
 30
0.0
 11
-146.048754
 21
683.51219400000002
 31
0.0
  0
LINE
  5
DC
  8
0
 62
     1
 10
-135.04875499999989
 20
683.51219400000002
 30
0.0
 11
-139.048754
 21
683.51219400000002
 31
0.0
  0
LINE
  5
DD
  8
0
 62
     1
 10
-146.048754
 20
678.01219400000002
 30
0.0
 11
-146.048754
 21
683.51219400000002
 31
0.0
  0
LINE
  5
DE
  8
0
 62
     1
 10
-135.04875499999989
 20
680.51219400000002
 30
0.0
 11
-146.048754
 21
680.51219400000002
 31
0.0
  0
LINE
  5
DF
  8
0
 62
     1
 10
-142.048754
 20
675.21219799999994
 30
0.0
 11
-142.79875399999989
 21
675.21219799999994
 31
0.0
  0
LINE
  5
E0
  8
0
 62
     1
 10
-142.79875399999989
 20
672.01219400000002
 30
0.0
 11
-142.79875399999989
 21
675.21219799999994
 31
0.0
  0
LINE
  5
E1
  8
0
 62
     1
 10
-138.29875499999989
 20
672.01219400000002
 30
0.0
 11
-142.79875399999989
 21
672.01219400000002
 31
0.0
  0
LINE
  5
E2
  8
0
 62
     1
 10
-138.29875499999989
 20
672.01219400000002
 30
0.0
 11
-138.29875499999989
 21
675.21219799999994
 31
0.0
  0
LINE
  5
E3
  8
0
 62
     1
 10
-138.29875499999989
 20
675.21219799999994
 30
0.0
 11
-139.048754
 21
675.21219799999994
 31
0.0
  0
LINE
  5
E4
  8
0
 62
     1
 10
-139.048754
 20
675.21219799999994
 30
0.0
 11
-139.048754
 21
680.51219400000002
 31
0.0
  0
LINE
  5
E5
  8
0
 62
     1
 10
-142.048754
 20
675.21219799999994
 30
0.0
 11
-142.048754
 21
680.51219400000002
 31
0.0
  0
LINE
  5
E6
  8
0
 62
     1
 10
-139.65500499999999
 20
780.51219400000002
 30
0.0
 11
-141.44250500000001
 21
780.51219400000002
 31
0.0
  0
LINE
  5
E7
  8
0
 62
     1
 10
-142.048754
 20
674.21219799999994
 30
0.0
 11
-142.048754
 21
675.21219799999994
 31
0.0
  0
LINE
  5
E8
  8
0
 62
     1
 10
-139.048754
 20
674.21219799999994
 30
0.0
 11
-139.048754
 21
675.21219799999994
 31
0.0
  0
LINE
  5
E9
  8
0
 62
     1
 10
-142.048754
 20
674.21219799999994
 30
0.0
 11
-142.79875399999989
 21
674.21219799999994
 31
0.0
  0
LINE
  5
EA
  8
0
 62
     1
 10
-138.29875499999989
 20
674.21219799999994
 30
0.0
 11
-139.048754
 21
674.21219799999994
 31
0.0
  0
LINE
  5
EB
  8
0
 62
     1
 10
-135.04875499999989
 20
681.51219400000002
 30
0.0
 11
-146.048754
 21
681.51219400000002
 31
0.0
  0
LINE
  5
EC
  8
0
 62
     1
 10
-139.048754
 20
683.51219400000002
 30
0.0
 11
-139.65500499999999
 21
780.51219400000002
 31
0.0
  0
LINE
  5
ED
  8
0
 62
     1
 10
-142.048754
 20
683.51219400000002
 30
0.0
 11
-141.44250500000001
 21
780.51219400000002
 31
0.0
  0
LINE
  5
EE
  8
0
 62
     1
 10
-107.0487549999999
 20
683.51219400000002
 30
0.0
 11
-106.442505
 21
780.51219400000002
 31
0.0
  0
LINE
  5
EF
  8
0
 62
     1
 10
-104.0487539999999
 20
683.51219400000002
 30
0.0
 11
-104.655005
 21
780.51219400000002
 31
0.0
  0
LINE
  5
F0
  8
0
 62
     1
 10
-104.655005
 20
780.51219400000002
 30
0.0
 11
-106.442505
 21
780.51219400000002
 31
0.0
  0
LINE
  5
F1
  8
0
 62
     1
 10
-100.0487539999999
 20
683.51219400000002
 30
0.0
 11
-104.0487539999999
 21
683.51219400000002
 31
0.0
  0
LINE
  5
F2
  8
0
 62
     1
 10
-107.0487549999999
 20
683.51219400000002
 30
0.0
 11
-111.0487549999999
 21
683.51219400000002
 31
0.0
  0
LINE
  5
F3
  8
0
 62
     1
 10
-100.0487539999999
 20
681.51219400000002
 30
0.0
 11
-111.0487549999999
 21
681.51219400000002
 31
0.0
  0
LINE
  5
F4
  8
0
 62
     1
 10
-111.0487549999999
 20
680.51219400000002
 30
0.0
 11
-111.0487549999999
 21
683.51219400000002
 31
0.0
  0
LINE
  5
F5
  8
0
 62
     1
 10
-100.0487539999999
 20
680.51219400000002
 30
0.0
 11
-100.0487539999999
 21
683.51219400000002
 31
0.0
  0
CIRCLE
  5
F6
  8
0
 62
     7
 10
-106.00157400000001
 20
745.82393099999979
 30
0.0
 40
0.5
  0
CIRCLE
  5
F7
  8
0
 62
     7
 10
-140.859781
 20
746.13241799999992
 30
0.0
 40
0.5
  0
LINE
  5
F8
  8
0
 62
     3
 10
-71.798738
 20
680.51219400000002
 30
0.0
 11
-134.92944099999991
 21
680.51219400000002
 31
0.0
  0
LINE
  5
F9
  8
0
 62
     3
 10
-70.548684999999992
 20
671.262201
 30
0.0
 11
-70.548684999999992
 21
679.26208699999995
 31
0.0
  0
LINE
  5
FA
  8
0
 62
     3
 10
-70.914850000000001
 20
680.14608199999986
 30
0.0
 11
-71.798731000000004
 21
680.51220099999989
 31
0.0
  0
LINE
  5
FB
  8
0
 62
     3
 10
-70.548734999999994
 20
679.26220899999998
 30
0.0
 11
-70.914854000000005
 21
680.14608899999985
 31
0.0
  0
LINE
  5
FC
  8
0
 62
     3
 10
-72.898736999999997
 20
671.262201
 30
0.0
 11
-72.898736999999997
 21
680.20154000000002
 31
0.0
  0
LINE
  5
FD
  8
0
 62
     3
 10
-76.498734999999996
 20
671.262201
 30
0.0
 11
-76.498734999999996
 21
680.20154000000002
 31
0.0
  0
LINE
  5
FE
  8
0
 62
     3
 10
-80.098733999999993
 20
671.262201
 30
0.0
 11
-80.098733999999993
 21
680.20154000000002
 31
0.0
  0
LINE
  5
FF
  8
0
 62
     3
 10
-83.698731999999978
 20
671.262201
 30
0.0
 11
-83.698731999999978
 21
680.20154000000002
 31
0.0
  0
LINE
  5
100
  8
0
 62
     3
 10
-87.298738
 20
671.262201
 30
0.0
 11
-87.298738
 21
680.20154000000002
 31
0.0
  0
LINE
  5
101
  8
0
 62
     3
 10
-90.898736999999997
 20
671.262201
 30
0.0
 11
-90.898736999999997
 21
680.20154000000002
 31
0.0
  0
LINE
  5
102
  8
0
 62
     3
 10
-94.498733999999985
 20
671.262201
 30
0.0
 11
-94.498733999999985
 21
680.20154000000002
 31
0.0
  0
LINE
  5
103
  8
0
 62
     3
 10
-98.098731999999998
 20
671.262201
 30
0.0
 11
-98.098731999999998
 21
680.20154000000002
 31
0.0
  0
LINE
  5
104
  8
0
 62
     3
 10
-101.69873
 20
671.262201
 30
0.0
 11
-101.69873
 21
680.20154000000002
 31
0.0
  0
LINE
  5
105
  8
0
 62
     3
 10
-105.298737
 20
671.262201
 30
0.0
 11
-105.298737
 21
680.20154000000002
 31
0.0
  0
LINE
  5
106
  8
0
 62
     3
 10
-108.898736
 20
671.262201
 30
0.0
 11
-108.898736
 21
680.20154000000002
 31
0.0
  0
LINE
  5
107
  8
0
 62
     3
 10
-112.498734
 20
671.262201
 30
0.0
 11
-112.498734
 21
680.20154000000002
 31
0.0
  0
LINE
  5
108
  8
0
 62
     3
 10
-116.098733
 20
671.262201
 30
0.0
 11
-116.098733
 21
680.20154000000002
 31
0.0
  0
LINE
  5
109
  8
0
 62
     3
 10
-119.698735
 20
671.262201
 30
0.0
 11
-119.698735
 21
680.20154000000002
 31
0.0
  0
LINE
  5
10A
  8
0
 62
     3
 10
-123.298734
 20
671.262201
 30
0.0
 11
-123.298734
 21
680.20154000000002
 31
0.0
  0
LINE
  5
10B
  8
0
 62
     3
 10
-126.898732
 20
671.262201
 30
0.0
 11
-126.898732
 21
680.20154000000002
 31
0.0
  0
LINE
  5
10C
  8
0
 62
     3
 10
-130.49873400000001
 20
671.262201
 30
0.0
 11
-130.49873400000001
 21
680.20154000000002
 31
0.0
  0
LINE
  5
10D
  8
0
 62
     3
 10
-134.09873300000001
 20
671.262201
 30
0.0
 11
-134.09873300000001
 21
680.20154000000002
 31
0.0
  0
POLYLINE
  5
10E
  8
0
 62
     3
 66
     1
 10
0.0
 20
0.0
 30
0.0
  0
VERTEX
  5
79D
  8
0
 62
     3
 10
-134.9292759999999
 20
680.51215499999989
 30
0.0
  0
VERTEX
  5
79E
  8
0
 62
     3
 10
-135.01275299999989
 20
680.44719899999996
 30
0.0
  0
VERTEX
  5
79F
  8
0
 62
     3
 10
-135.09393299999999
 20
680.38147900000001
 30
0.0
  0
VERTEX
  5
7A0
  8
0
 62
     3
 10
-135.17185799999999
 20
680.3158279999999
 30
0.0
  0
VERTEX
  5
7A1
  8
0
 62
     3
 10
-135.2475409999999
 20
680.24942999999985
 30
0.0
  0
VERTEX
  5
7A2
  8
0
 62
     3
 10
-135.32018299999999
 20
680.18303900000001
 30
0.0
  0
VERTEX
  5
7A3
  8
0
 62
     3
 10
-135.390637
 20
680.11592299999995
 30
0.0
  0
VERTEX
  5
7A4
  8
0
 62
     3
 10
-135.45825500000001
 20
680.04875400000003
 30
0.0
  0
VERTEX
  5
7A5
  8
0
 62
     3
 10
-135.52373399999999
 20
679.98088299999995
 30
0.0
  0
VERTEX
  5
7A6
  8
0
 62
     3
 10
-135.58657099999999
 20
679.91286699999989
 30
0.0
  0
VERTEX
  5
7A7
  8
0
 62
     3
 10
-135.6473159999999
 20
679.84416399999998
 30
0.0
  0
VERTEX
  5
7A8
  8
0
 62
     3
 10
-135.70560099999989
 20
679.77522499999998
 30
0.0
  0
VERTEX
  5
7A9
  8
0
 62
     3
 10
-135.76183599999999
 20
679.70560599999999
 30
0.0
  0
VERTEX
  5
7AA
  8
0
 62
     3
 10
-135.81578300000001
 20
679.63565199999994
 30
0.0
  0
VERTEX
  5
7AB
  8
0
 62
     3
 10
-135.86771799999991
 20
679.56502699999999
 30
0.0
  0
VERTEX
  5
7AC
  8
0
 62
     3
 10
-135.91752099999991
 20
679.49392899999998
 30
0.0
  0
VERTEX
  5
7AD
  8
0
 62
     3
 10
-135.96534700000001
 20
679.42218200000002
 30
0.0
  0
VERTEX
  5
7AE
  8
0
 62
     3
 10
-136.05507700000001
 20
679.27679599999988
 30
0.0
  0
VERTEX
  5
7AF
  8
0
 62
     3
 10
-136.13722300000001
 20
679.12856499999987
 30
0.0
  0
VERTEX
  5
7B0
  8
0
 62
     3
 10
-136.212065
 20
678.97711399999991
 30
0.0
  0
VERTEX
  5
7B1
  8
0
 62
     3
 10
-136.279842
 20
678.82200799999998
 30
0.0
  0
VERTEX
  5
7B2
  8
0
 62
     3
 10
-136.34075799999999
 20
678.66276700000003
 30
0.0
  0
VERTEX
  5
7B3
  8
0
 62
     3
 10
-136.39497900000001
 20
678.49879599999986
 30
0.0
  0
VERTEX
  5
7B4
  8
0
 62
     3
 10
-136.44263199999989
 20
678.32941600000004
 30
0.0
  0
VERTEX
  5
7B5
  8
0
 62
     3
 10
-136.48380800000001
 20
678.15379499999995
 30
0.0
  0
VERTEX
  5
7B6
  8
0
 62
     3
 10
-136.51855900000001
 20
677.97090300000002
 30
0.0
  0
VERTEX
  5
7B7
  8
0
 62
     3
 10
-136.54689999999999
 20
677.77943600000003
 30
0.0
  0
VERTEX
  5
7B8
  8
0
 62
     3
 10
-136.56880399999989
 20
677.57769199999996
 30
0.0
  0
VERTEX
  5
7B9
  8
0
 62
     3
 10
-136.574037
 20
677.51575700000001
 30
0.0
  0
VERTEX
  5
7BA
  8
0
 62
     3
 10
-136.58748099999991
 20
677.29702199999986
 30
0.0
  0
VERTEX
  5
7BB
  8
0
 62
     3
 10
-136.59421399999999
 20
677.06079999999997
 30
0.0
  0
VERTEX
  5
7BC
  8
0
 62
     3
 10
-136.59393899999989
 20
676.80082900000002
 30
0.0
  0
VERTEX
  5
7BD
  8
0
 62
     3
 10
-136.586094
 20
676.50578499999995
 30
0.0
  0
VERTEX
  5
7BE
  8
0
 62
     3
 10
-136.56943200000001
 20
676.15016400000002
 30
0.0
  0
VERTEX
  5
7BF
  8
0
 62
     3
 10
-136.53958600000001
 20
675.63868899999989
 30
0.0
  0
VERTEX
  5
7C0
  8
0
 62
     3
 10
-136.5188259999999
 20
675.2538239999999
 30
0.0
  0
VERTEX
  5
7C1
  8
0
 62
     3
 10
-136.50473999999991
 20
674.86821900000007
 30
0.0
  0
VERTEX
  5
7C2
  8
0
 62
     3
 10
-136.50192100000001
 20
674.70585800000003
 30
0.0
  0
VERTEX
  5
7C3
  8
0
 62
     3
 10
-136.501431
 20
674.54373399999986
 30
0.0
  0
VERTEX
  5
7C4
  8
0
 62
     3
 10
-136.503141
 20
674.40298600000006
 30
0.0
  0
VERTEX
  5
7C5
  8
0
 62
     3
 10
-136.50704799999991
 20
674.26256699999988
 30
0.0
  0
VERTEX
  5
7C6
  8
0
 62
     3
 10
-136.5126939999999
 20
674.13460699999996
 30
0.0
  0
VERTEX
  5
7C7
  8
0
 62
     3
 10
-136.520466
 20
674.00702899999999
 30
0.0
  0
VERTEX
  5
7C8
  8
0
 62
     3
 10
-136.52978999999991
 20
673.88787300000001
 30
0.0
  0
VERTEX
  5
7C9
  8
0
 62
     3
 10
-136.54119099999991
 20
673.76914399999998
 30
0.0
  0
VERTEX
  5
7CA
  8
0
 62
     3
 10
-136.55406199999999
 20
673.656519
 30
0.0
  0
VERTEX
  5
7CB
  8
0
 62
     3
 10
-136.56897299999989
 20
673.544352
 30
0.0
  0
VERTEX
  5
7CC
  8
0
 62
     3
 10
-136.58532600000001
 20
673.43677700000001
 30
0.0
  0
VERTEX
  5
7CD
  8
0
 62
     3
 10
-136.60368799999989
 20
673.32968300000005
 30
0.0
  0
VERTEX
  5
7CE
  8
0
 62
     3
 10
-136.62350599999991
 20
673.22610699999996
 30
0.0
  0
VERTEX
  5
7CF
  8
0
 62
     3
 10
-136.64530500000001
 20
673.12304100000006
 30
0.0
  0
VERTEX
  5
7D0
  8
0
 62
     3
 10
-136.66860399999999
 20
673.02265399999999
 30
0.0
  0
VERTEX
  5
7D1
  8
0
 62
     3
 10
-136.69386
 20
672.9228149999999
 30
0.0
  0
VERTEX
  5
7D2
  8
0
 62
     3
 10
-136.7206909999999
 20
672.82496100000003
 30
0.0
  0
VERTEX
  5
7D3
  8
0
 62
     3
 10
-136.74945500000001
 20
672.72768599999995
 30
0.0
  0
VERTEX
  5
7D4
  8
0
 62
     3
 10
-136.77990099999991
 20
672.63182300000005
 30
0.0
  0
VERTEX
  5
7D5
  8
0
 62
     3
 10
-136.81225699999999
 20
672.53656199999989
 30
0.0
  0
VERTEX
  5
7D6
  8
0
 62
     3
 10
-136.88249999999991
 20
672.34842900000001
 30
0.0
  0
VERTEX
  5
7D7
  8
0
 62
     3
 10
-136.96050299999999
 20
672.16234000000009
 30
0.0
  0
VERTEX
  5
7D8
  8
0
 62
     3
 10
-137.04668699999999
 20
671.97731199999998
 30
0.0
  0
VERTEX
  5
7D9
  8
0
 62
     3
 10
-137.14161200000001
 20
671.79230700000005
 30
0.0
  0
VERTEX
  5
7DA
  8
0
 62
     3
 10
-137.24603699999989
 20
671.606089
 30
0.0
  0
VERTEX
  5
7DB
  8
0
 62
     3
 10
-137.361028
 20
671.41706299999987
 30
0.0
  0
VERTEX
  5
7DC
  8
0
 62
     3
 10
-137.461479
 20
671.26266699999985
 30
0.0
  0
SEQEND
  5
7DD
  8
0
 62
     3
  0
CIRCLE
  5
150
  8
0
  6
DASHSPACE
 62
     7
 10
-123.048749
 20
665.51218600000004
 30
0.0
 40
5.5000010000000001
  0
CIRCLE
  5
151
  8
0
  6
DASHSPACE
 62
     7
 10
-88.048749999999998
 20
665.51218600000004
 30
0.0
 40
5.5000010000000001
  0
LINE
  5
152
  8
0
  6
DASHDOT
 62
     7
 10
-88.048749999999998
 20
657.01218600000004
 30
0.0
 11
-88.048749999999998
 21
674.01218600000004
 31
0.0
  0
LINE
  5
153
  8
0
  6
DASHDOT
 62
     7
 10
-79.548745999999994
 20
665.51218600000004
 30
0.0
 11
-96.548749999999998
 21
665.51218600000004
 31
0.0
  0
LINE
  5
154
  8
0
  6
DASHDOT
 62
     7
 10
-114.548748
 20
665.51218600000004
 30
0.0
 11
-131.54875100000001
 21
665.51218600000004
 31
0.0
  0
CIRCLE
  5
155
  8
0
 62
     7
 10
-67.223687999999996
 20
664.95530099999985
 30
0.0
 40
0.4
  0
LINE
  5
156
  8
0
 62
     7
 10
-70.548734999999994
 20
449.74325699999991
 30
0.0
 11
-76.457581999999988
 21
450.78514299999989
 31
0.0
  0
LINE
  5
157
  8
0
 62
     7
 10
-70.548734999999994
 20
449.74325699999991
 30
0.0
 11
-76.457581999999988
 21
448.70137199999999
 31
0.0
  0
LINE
  5
158
  8
0
 62
     7
 10
-175.54872299999991
 20
449.74328799999989
 30
0.0
 11
-169.63987199999991
 21
448.70140300000003
 31
0.0
  0
LINE
  5
159
  8
0
 62
     7
 10
-175.54872299999991
 20
449.74328799999989
 30
0.0
 11
-169.63987199999991
 21
450.78517299999999
 31
0.0
  0
LINE
  5
15A
  8
0
 62
     7
 10
-70.548734999999994
 20
449.74325699999991
 30
0.0
 11
-175.54872299999991
 21
449.74328799999989
 31
0.0
  0
LINE
  5
15B
  8
0
 62
     7
 10
-70.548734999999994
 20
445.74325700000003
 30
0.0
 11
-70.548711999999995
 21
538.262201
 31
0.0
  0
LINE
  5
15C
  8
0
 62
     7
 10
-175.54872299999991
 20
445.74328799999989
 30
0.0
 11
-175.54869299999999
 21
538.26223200000004
 31
0.0
  0
LINE
  5
15D
  8
0
 62
     7
 10
-218.40925399999989
 20
508.01220899999993
 30
0.0
 11
-217.367369
 21
513.92105300000003
 31
0.0
  0
LINE
  5
15E
  8
0
 62
     7
 10
-218.40925399999989
 20
508.01220899999993
 30
0.0
 11
-219.45113900000001
 21
513.92105300000003
 31
0.0
  0
LINE
  5
15F
  8
0
 62
     7
 10
-218.40926200000001
 20
678.01220899999987
 30
0.0
 11
-219.45114699999999
 21
672.10336500000005
 31
0.0
  0
LINE
  5
160
  8
0
 62
     7
 10
-218.40926200000001
 20
678.01220899999987
 30
0.0
 11
-217.3673609999999
 21
672.10336500000005
 31
0.0
  0
LINE
  5
161
  8
0
 62
     7
 10
-218.40925399999989
 20
508.01220899999993
 30
0.0
 11
-218.40926200000001
 21
678.01220899999987
 31
0.0
  0
LINE
  5
162
  8
0
 62
     7
 10
-222.409254
 20
508.01220899999993
 30
0.0
 11
-172.048754
 21
508.01220899999993
 31
0.0
  0
LINE
  5
163
  8
0
 62
     7
 10
-222.4092619999999
 20
678.01220899999987
 30
0.0
 11
-172.048754
 21
678.01220899999987
 31
0.0
  0
LINE
  5
164
  8
0
 62
     7
 10
-88.048676999999998
 20
466.151186
 30
0.0
 11
-93.957522999999995
 21
467.19307099999992
 31
0.0
  0
LINE
  5
165
  8
0
 62
     7
 10
-88.048676999999998
 20
466.151186
 30
0.0
 11
-93.957522999999995
 21
465.1093009999999
 31
0.0
  0
LINE
  5
166
  8
0
 62
     7
 10
-123.04871899999991
 20
466.151186
 30
0.0
 11
-117.13987400000001
 21
465.1093009999999
 31
0.0
  0
LINE
  5
167
  8
0
 62
     7
 10
-123.04871899999991
 20
466.151186
 30
0.0
 11
-117.13987400000001
 21
467.19308699999988
 31
0.0
  0
LINE
  5
168
  8
0
 62
     7
 10
-123.04871899999991
 20
466.151186
 30
0.0
 11
-128.9575669999999
 21
467.19308699999988
 31
0.0
  0
LINE
  5
169
  8
0
 62
     7
 10
-123.04871899999991
 20
466.151186
 30
0.0
 11
-128.9575669999999
 21
465.1093009999999
 31
0.0
  0
LINE
  5
16A
  8
0
 62
     7
 10
-158.048731
 20
466.15120100000001
 30
0.0
 11
-152.13988699999999
 21
465.10931599999998
 31
0.0
  0
LINE
  5
16B
  8
0
 62
     7
 10
-158.048731
 20
466.15120100000001
 30
0.0
 11
-152.13988699999999
 21
467.19308699999988
 31
0.0
  0
LINE
  5
16C
  8
0
 62
     7
 10
-88.048676999999998
 20
466.151186
 30
0.0
 11
-158.048731
 21
466.15120100000001
 31
0.0
  0
LINE
  5
16D
  8
0
 62
     7
 10
-88.048676999999998
 20
462.151186
 30
0.0
 11
-88.048665999999997
 21
512.011934
 31
0.0
  0
LINE
  5
16E
  8
0
 62
     7
 10
-158.048731
 20
462.15120100000001
 30
0.0
 11
-158.0487159999999
 21
512.01220899999987
 31
0.0
  0
LINE
  5
16F
  8
0
 62
     7
 10
-198.88593899999989
 20
590.76220099999989
 30
0.0
 11
-197.844053
 21
596.67105300000003
 31
0.0
  0
LINE
  5
170
  8
0
 62
     7
 10
-198.88593899999989
 20
590.76220099999989
 30
0.0
 11
-199.9278239999999
 21
596.67105300000003
 31
0.0
  0
LINE
  5
171
  8
0
 62
     7
 10
-198.88594599999999
 20
678.01219400000002
 30
0.0
 11
-199.92783199999991
 21
672.10334999999986
 31
0.0
  0
LINE
  5
172
  8
0
 62
     7
 10
-198.88594599999999
 20
678.01219400000002
 30
0.0
 11
-197.844053
 21
672.10334999999986
 31
0.0
  0
LINE
  5
173
  8
0
 62
     7
 10
-198.88593899999989
 20
590.76220099999989
 30
0.0
 11
-198.88594599999999
 21
678.01219400000002
 31
0.0
  0
LINE
  5
174
  8
0
 62
     7
 10
-202.88594599999999
 20
678.01219400000002
 30
0.0
 11
-172.04874599999999
 21
678.01219400000002
 31
0.0
  0
LINE
  5
175
  8
0
 62
     2
 10
-148.048754
 20
725.60933099999988
 30
0.0
 11
-153.9575979999999
 21
726.65121599999986
 31
0.0
  0
LINE
  5
176
  8
0
 62
     2
 10
-148.048754
 20
725.60933099999988
 30
0.0
 11
-153.9575979999999
 21
724.56744600000002
 31
0.0
  0
LINE
  5
177
  8
0
 62
     2
 10
-168.048754
 20
725.60933099999988
 30
0.0
 11
-162.13990999999999
 21
724.56744600000002
 31
0.0
  0
LINE
  5
178
  8
0
 62
     2
 10
-168.048754
 20
725.60933099999988
 30
0.0
 11
-162.13990999999999
 21
726.65121599999986
 31
0.0
  0
LINE
  5
179
  8
0
 62
     2
 10
-148.048754
 20
725.60933099999988
 30
0.0
 11
-168.048754
 21
725.60933099999988
 31
0.0
  0
LINE
  5
17A
  8
0
 62
     2
 10
-148.048754
 20
729.60933099999988
 30
0.0
 11
-148.048754
 21
710.51217800000006
 31
0.0
  0
LINE
  5
17B
  8
0
 62
     2
 10
-168.048754
 20
729.60933099999988
 30
0.0
 11
-168.048754
 21
710.51217800000006
 31
0.0
  0
LINE
  5
17C
  8
0
 62
     2
 10
-162.20231799999999
 20
698.91240900000003
 30
0.0
 11
-167.7563879999999
 21
701.18225999999993
 31
0.0
  0
LINE
  5
17D
  8
0
 62
     2
 10
-162.20231799999999
 20
698.91240900000003
 30
0.0
 11
-168.1977709999999
 21
699.14576899999997
 31
0.0
  0
LINE
  5
17E
  8
0
 62
     2
 10
-153.8951889999999
 20
697.1119480000001
 30
0.0
 11
-148.34111200000001
 21
694.84209599999986
 31
0.0
  0
LINE
  5
17F
  8
0
 62
     2
 10
-153.8951889999999
 20
697.1119480000001
 30
0.0
 11
-147.89972900000001
 21
696.87858800000004
 31
0.0
  0
LINE
  5
180
  8
0
 62
     2
 10
-153.8951889999999
 20
697.1119480000001
 30
0.0
 11
-200.52092599999989
 21
707.21749299999999
 31
0.0
  0
LINE
  5
181
  8
0
 62
     2
 10
-15.566969
 20
505.51219400000002
 30
0.0
 11
-14.525076
 21
511.42103800000001
 31
0.0
  0
LINE
  5
182
  8
0
 62
     2
 10
-15.566969
 20
505.51219400000002
 30
0.0
 11
-16.608854000000001
 21
511.42103800000001
 31
0.0
  0
LINE
  5
183
  8
0
 62
     2
 10
-15.566976999999991
 20
680.51219400000002
 30
0.0
 11
-16.608861999999998
 21
674.60334999999998
 31
0.0
  0
LINE
  5
184
  8
0
 62
     2
 10
-15.566976999999991
 20
680.51219400000002
 30
0.0
 11
-14.525084
 21
674.60334999999998
 31
0.0
  0
LINE
  5
185
  8
0
 62
     2
 10
-15.566969
 20
505.51219400000002
 30
0.0
 11
-15.566976999999991
 21
680.51219400000002
 31
0.0
  0
LINE
  5
186
  8
0
 62
     2
 10
-11.566969
 20
505.51219400000002
 30
0.0
 11
-76.548745999999994
 21
505.51219400000002
 31
0.0
  0
LINE
  5
187
  8
0
 62
     2
 10
-11.566977
 20
680.51219400000002
 30
0.0
 11
-71.798734999999994
 21
680.51219400000002
 31
0.0
  0
LINE
  5
188
  8
0
 62
     7
 10
-51.237257
 20
590.76220099999989
 30
0.0
 11
-50.195371999999999
 21
596.67105300000003
 31
0.0
  0
LINE
  5
189
  8
0
 62
     7
 10
-51.237257
 20
590.76220099999989
 30
0.0
 11
-52.279142
 21
596.67105300000003
 31
0.0
  0
LINE
  5
18A
  8
0
 62
     7
 10
-51.237257
 20
680.51219400000002
 30
0.0
 11
-52.279150000000001
 21
674.60334999999998
 31
0.0
  0
LINE
  5
18B
  8
0
 62
     7
 10
-51.237257
 20
680.51219400000002
 30
0.0
 11
-50.195371999999999
 21
674.60334999999998
 31
0.0
  0
LINE
  5
18C
  8
0
 62
     7
 10
-51.237257
 20
590.76220099999989
 30
0.0
 11
-51.237257
 21
680.51219400000002
 31
0.0
  0
LINE
  5
18D
  8
0
 62
     7
 10
-47.237257
 20
680.51219400000002
 30
0.0
 11
-71.798738
 21
680.51219400000002
 31
0.0
  0
LINE
  5
18E
  8
0
 62
     2
 10
-15.566976999999991
 20
680.51219400000002
 30
0.0
 11
-14.525084
 21
686.42103799999995
 31
0.0
  0
LINE
  5
18F
  8
0
 62
     2
 10
-15.566976999999991
 20
680.51219400000002
 30
0.0
 11
-16.608861999999998
 21
686.42103799999995
 31
0.0
  0
LINE
  5
190
  8
0
 62
     2
 10
-15.566976999999991
 20
780.51219400000002
 30
0.0
 11
-16.608861999999998
 21
774.60334999999998
 31
0.0
  0
LINE
  5
191
  8
0
 62
     2
 10
-15.566976999999991
 20
780.51219400000002
 30
0.0
 11
-14.525084
 21
774.60334999999998
 31
0.0
  0
LINE
  5
192
  8
0
 62
     2
 10
-15.566976999999991
 20
680.51219400000002
 30
0.0
 11
-15.566976999999991
 21
780.51219400000002
 31
0.0
  0
LINE
  5
193
  8
0
 62
     2
 10
-11.566969
 20
680.51219400000002
 30
0.0
 11
-71.798738
 21
680.51219400000002
 31
0.0
  0
LINE
  5
194
  8
0
 62
     2
 10
-11.566977
 20
780.51219400000002
 30
0.0
 11
-139.65500499999999
 21
780.51217800000006
 31
0.0
  0
LINE
  5
195
  8
0
 62
     7
 10
-33.460974
 20
510.26220899999993
 30
0.0
 11
-32.419080999999991
 21
516.17105300000003
 31
0.0
  0
LINE
  5
196
  8
0
 62
     7
 10
-33.460974
 20
510.26220899999993
 30
0.0
 11
-34.502859000000001
 21
516.17105300000003
 31
0.0
  0
LINE
  5
197
  8
0
 62
     7
 10
-33.460974
 20
671.26220899999987
 30
0.0
 11
-34.502866999999988
 21
665.35336500000005
 31
0.0
  0
LINE
  5
198
  8
0
 62
     7
 10
-33.460974
 20
671.26220899999987
 30
0.0
 11
-32.419088000000002
 21
665.35336500000005
 31
0.0
  0
LINE
  5
199
  8
0
 62
     7
 10
-33.460974
 20
510.26220899999993
 30
0.0
 11
-33.460974
 21
671.26220899999987
 31
0.0
  0
LINE
  5
19A
  8
0
 62
     7
 10
-29.460974
 20
510.26220899999993
 30
0.0
 11
-65.798718999999991
 21
510.26220899999993
 31
0.0
  0
LINE
  5
19B
  8
0
 62
     7
 10
-29.460974
 20
671.26220899999987
 30
0.0
 11
-65.798718999999991
 21
671.26220899999987
 31
0.0
  0
LINE
  5
19C
  8
0
 62
     3
 10
210.81865699999989
 20
510.81222199999991
 30
0.0
 11
233.10655199999999
 21
510.81222199999991
 31
0.0
  0
LINE
  5
19D
  8
0
 62
     7
 10
161.10655399999999
 20
508.01221800000002
 30
0.0
 11
161.10655399999999
 21
548.30643499999985
 31
0.0
  0
LINE
  5
19E
  8
0
 62
     7
 10
161.10655399999999
 20
548.30640800000003
 30
0.0
 11
161.10655399999999
 21
678.01218800000004
 31
0.0
  0
LINE
  5
19F
  8
0
  6
DASHDOT
 62
     7
 10
159.10655399999999
 20
497.18275099999988
 30
0.0
 11
159.10655399999999
 21
688.04050800000005
 31
0.0
  0
LINE
  5
1A0
  8
0
 62
     7
 10
159.10655399999999
 20
667.34180800000001
 30
0.0
 11
159.10655399999999
 21
667.51217299999996
 31
0.0
  0
LINE
  5
1A1
  8
0
 62
     7
 10
229.60652899999999
 20
615.26219900000001
 30
0.0
 11
229.60655199999991
 21
607.01217699999995
 31
0.0
  0
LINE
  5
1A2
  8
0
 62
     7
 10
232.10649100000001
 20
661.51219600000002
 30
0.0
 11
232.813614
 21
661.80508799999996
 31
0.0
  0
LINE
  5
1A3
  8
0
 62
     7
 10
232.81362899999991
 20
661.80506500000001
 30
0.0
 11
233.10652200000001
 21
662.51217299999996
 31
0.0
  0
LINE
  5
1A4
  8
0
 62
     7
 10
229.60653699999989
 20
654.51220299999989
 30
0.0
 11
229.60655199999991
 21
661.512203
 31
0.0
  0
LINE
  5
1A5
  8
0
 62
     7
 10
229.60655199999991
 20
661.512203
 30
0.0
 11
232.10652200000001
 21
661.512203
 31
0.0
  0
LINE
  5
1A6
  8
0
 62
     7
 10
229.60653699999989
 20
615.26220299999989
 30
0.0
 11
229.60653699999989
 21
654.51220299999989
 31
0.0
  0
LINE
  5
1A7
  8
0
 62
     7
 10
225.10655199999999
 20
564.512203
 30
0.0
 11
225.10655199999999
 21
605.01220299999989
 31
0.0
  0
LINE
  5
1A8
  8
0
 62
     7
 10
225.10658299999989
 20
605.01225899999986
 30
0.0
 11
225.374527
 21
606.01225899999986
 31
0.0
  0
LINE
  5
1A9
  8
0
 62
     7
 10
225.3745649999999
 20
606.01229699999999
 30
0.0
 11
226.106606
 21
606.74435199999994
 31
0.0
  0
LINE
  5
1AA
  8
0
 62
     7
 10
226.10649900000001
 20
606.74423200000001
 30
0.0
 11
227.106514
 21
607.01217699999995
 31
0.0
  0
LINE
  5
1AB
  8
0
 62
     7
 10
225.10655199999999
 20
564.512203
 30
0.0
 11
233.10655199999999
 21
564.512203
 31
0.0
  0
LINE
  5
1AC
  8
0
 62
     7
 10
232.106438
 20
550.51219000000003
 30
0.0
 11
233.106514
 21
549.51219000000003
 31
0.0
  0
LINE
  5
1AD
  8
0
 62
     7
 10
232.106461
 20
561.51221500000008
 30
0.0
 11
233.10655199999999
 21
562.51221500000008
 31
0.0
  0
LINE
  5
1AE
  8
0
 62
     7
 10
169.338639
 20
561.51217799999995
 30
0.0
 11
232.10644500000001
 21
561.51220899999987
 31
0.0
  0
LINE
  5
1AF
  8
0
 62
     7
 10
169.33859299999989
 20
550.51220299999989
 30
0.0
 11
232.106461
 21
550.51220299999989
 31
0.0
  0
LINE
  5
1B0
  8
0
 62
     7
 10
165.60654999999991
 20
562.51217499999996
 30
0.0
 11
169.33863400000001
 21
561.512159
 31
0.0
  0
LINE
  5
1B1
  8
0
 62
     7
 10
162.106549
 20
563.44999900000005
 30
0.0
 11
165.606582
 21
562.51216299999987
 31
0.0
  0
LINE
  5
1B2
  8
0
 62
     7
 10
161.10655499999999
 20
548.30643799999996
 30
0.0
 11
169.33859399999989
 21
550.51220299999989
 31
0.0
  0
LINE
  5
1B3
  8
0
 62
     7
 10
161.1065669999999
 20
565.80650700000001
 30
0.0
 11
162.10656399999991
 21
566.07445099999995
 31
0.0
  0
LINE
  5
1B4
  8
0
 62
     7
 10
161.10655399999999
 20
542.01218800000004
 30
0.0
 11
165.10655299999991
 21
542.01218800000004
 31
0.0
  0
LINE
  5
1B5
  8
0
 62
     7
 10
165.10655299999991
 20
534.49541099999988
 30
0.0
 11
165.10655299999991
 21
542.01218800000004
 31
0.0
  0
LINE
  5
1B6
  8
0
 62
     7
 10
162.10655399999999
 20
548.57436799999994
 30
0.0
 11
162.10655399999999
 21
593.01218800000004
 31
0.0
  0
LINE
  5
1B7
  8
0
 62
     7
 10
165.60655399999999
 20
562.51220299999989
 30
0.0
 11
165.60655399999999
 21
587.51220299999989
 31
0.0
  0
LINE
  5
1B8
  8
0
 62
     7
 10
161.10655299999991
 20
593.01218800000004
 30
0.0
 11
164.10655199999991
 21
593.01218800000004
 31
0.0
  0
LINE
  5
1B9
  8
0
 62
     7
 10
164.106562
 20
593.01217799999995
 30
0.0
 11
164.85656399999991
 21
592.81122000000005
 31
0.0
  0
LINE
  5
1BA
  8
0
 62
     7
 10
164.106562
 20
593.01217799999995
 30
0.0
 11
164.85656399999991
 21
592.81122000000005
 31
0.0
  0
LINE
  5
1BB
  8
0
 62
     7
 10
164.85655700000001
 20
592.81121399999995
 30
0.0
 11
165.40559500000001
 21
592.26217300000008
 31
0.0
  0
LINE
  5
1BC
  8
0
 62
     7
 10
165.40557799999999
 20
592.26215999999999
 30
0.0
 11
165.606539
 21
591.51215999999988
 31
0.0
  0
LINE
  5
1BD
  8
0
 62
     7
 10
165.60657199999989
 20
587.51218899999992
 30
0.0
 11
165.60657199999989
 21
591.51217499999996
 31
0.0
  0
LINE
  5
1BE
  8
0
 62
     7
 10
165.40559999999991
 20
586.76218200000005
 30
0.0
 11
165.500822
 21
587.11755899999991
 31
0.0
  0
LINE
  5
1BF
  8
0
 62
     7
 10
165.500821
 20
587.11754900000005
 30
0.0
 11
165.606559
 21
587.51218700000004
 31
0.0
  0
LINE
  5
1C0
  8
0
 62
     7
 10
164.85655399999999
 20
586.21310999999992
 30
0.0
 11
165.4055919999999
 21
586.7621519999999
 31
0.0
  0
LINE
  5
1C1
  8
0
 62
     7
 10
164.10654099999991
 20
586.01216699999986
 30
0.0
 11
164.85654099999991
 21
586.21312499999999
 31
0.0
  0
LINE
  5
1C2
  8
0
 62
     7
 10
162.10655399999999
 20
586.01218800000004
 30
0.0
 11
164.10655299999991
 21
586.01218800000004
 31
0.0
  0
LINE
  5
1C3
  8
0
 62
     7
 10
159.10655399999999
 20
518.51218800000004
 30
0.0
 11
161.10655399999999
 21
518.51218800000004
 31
0.0
  0
LINE
  5
1C4
  8
0
 62
     7
 10
159.10655399999999
 20
667.51217299999996
 30
0.0
 11
161.10655399999999
 21
667.51217299999996
 31
0.0
  0
LINE
  5
1C5
  8
0
 62
     7
 10
159.10655399999999
 20
657.64382599999988
 30
0.0
 11
161.10655399999999
 21
657.64382599999988
 31
0.0
  0
LINE
  5
1C6
  8
0
 62
     7
 10
165.60653099999999
 20
551.01219200000003
 30
0.0
 11
168.40556699999999
 21
550.26219200000003
 31
0.0
  0
LINE
  5
1C7
  8
0
 62
     7
 10
165.6065209999999
 20
551.01220099999989
 30
0.0
 11
165.6065209999999
 21
561.012201
 31
0.0
  0
LINE
  5
1C8
  8
0
 62
     7
 10
165.6065209999999
 20
561.01218800000004
 30
0.0
 11
168.40558100000001
 21
561.76218800000004
 31
0.0
  0
LINE
  5
1C9
  8
0
 62
     7
 10
159.10655399999999
 20
528.29680999999994
 30
0.0
 11
161.10655399999999
 21
528.29680999999994
 31
0.0
  0
LINE
  5
1CA
  8
0
 62
     7
 10
159.10655399999999
 20
528.51218800000004
 30
0.0
 11
161.10655399999999
 21
528.51218800000004
 31
0.0
  0
LINE
  5
1CB
  8
0
 62
     7
 10
165.40560300000001
 20
586.23288899999989
 30
0.0
 11
165.60656399999999
 21
587.11756300000002
 31
0.0
  0
LINE
  5
1CC
  8
0
 62
     7
 10
165.50081399999991
 20
587.11756500000001
 30
0.0
 11
165.60655199999999
 21
587.11756500000001
 31
0.0
  0
LINE
  5
1CD
  8
0
 62
     7
 10
165.47257699999989
 20
573.01217699999995
 30
0.0
 11
165.606549
 21
573.11163399999987
 31
0.0
  0
LINE
  5
1CE
  8
0
 62
     7
 10
165.40559699999989
 20
573.06187099999988
 30
0.0
 11
165.47258600000001
 21
573.01214299999992
 31
0.0
  0
LINE
  5
1CF
  8
0
 62
     7
 10
165.4055919999999
 20
583.012203
 30
0.0
 11
165.60655299999999
 21
583.012203
 31
0.0
  0
LINE
  5
1D0
  8
0
 62
     7
 10
165.405587
 20
576.96241699999985
 30
0.0
 11
165.472576
 21
577.01214500000003
 31
0.0
  0
LINE
  5
1D1
  8
0
 62
     7
 10
165.47258500000001
 20
577.01217099999985
 30
0.0
 11
165.60655700000001
 21
576.91271399999994
 31
0.0
  0
LINE
  5
1D2
  8
0
 62
     7
 10
165.40558599999989
 20
585.34404699999993
 30
0.0
 11
165.51476
 21
584.73427500000003
 31
0.0
  0
LINE
  5
1D3
  8
0
 62
     7
 10
165.5147649999999
 20
584.73428200000001
 30
0.0
 11
165.60655199999999
 21
583.01220599999988
 31
0.0
  0
LINE
  5
1D4
  8
0
 62
     7
 10
164.89022800000001
 20
573.16440899999986
 30
0.0
 11
165.40558799999999
 21
573.06190100000003
 31
0.0
  0
LINE
  5
1D5
  8
0
 62
     7
 10
164.856551
 20
573.18692199999998
 30
0.0
 11
164.89023
 21
573.16441500000008
 31
0.0
  0
LINE
  5
1D6
  8
0
 62
     7
 10
164.856537
 20
576.83742900000004
 30
0.0
 11
164.890218
 21
576.85993599999995
 31
0.0
  0
LINE
  5
1D7
  8
0
 62
     7
 10
164.8902239999999
 20
576.85993099999985
 30
0.0
 11
165.40558200000001
 21
576.96243900000002
 31
0.0
  0
LINE
  5
1D8
  8
0
 62
     7
 10
164.85655299999991
 20
583.012203
 30
0.0
 11
165.4055919999999
 21
583.012203
 31
0.0
  0
LINE
  5
1D9
  8
0
 62
     7
 10
164.106549
 20
573.3211849999999
 30
0.0
 11
164.856549
 21
573.18690800000002
 31
0.0
  0
LINE
  5
1DA
  8
0
 62
     7
 10
164.10654700000001
 20
576.70315500000004
 30
0.0
 11
164.85654700000001
 21
576.83743200000004
 31
0.0
  0
LINE
  5
1DB
  8
0
 62
     7
 10
164.10655299999991
 20
583.012203
 30
0.0
 11
164.85655299999991
 21
583.012203
 31
0.0
  0
LINE
  5
1DC
  8
0
 62
     7
 10
162.10655399999999
 20
576.70316700000001
 30
0.0
 11
164.10655299999991
 21
576.70316700000001
 31
0.0
  0
LINE
  5
1DD
  8
0
 62
     7
 10
162.10655399999999
 20
583.012203
 30
0.0
 11
164.10655299999991
 21
583.012203
 31
0.0
  0
LINE
  5
1DE
  8
0
 62
     7
 10
162.10655399999999
 20
573.32120899999995
 30
0.0
 11
164.10655299999991
 21
573.32120899999995
 31
0.0
  0
LINE
  5
1DF
  8
0
 62
     3
 10
190.35655399999999
 20
678.012203
 30
0.0
 11
258.10655200000002
 21
678.012203
 31
0.0
  0
LINE
  5
1E0
  8
0
 62
     3
 10
226.4256739999999
 20
675.2122149999999
 30
0.0
 11
255.30654899999999
 21
675.2122149999999
 31
0.0
  0
LINE
  5
1E1
  8
0
 62
     3
 10
233.10655199999999
 20
510.81222199999991
 30
0.0
 11
255.30654899999999
 21
510.81222199999991
 31
0.0
  0
LINE
  5
1E2
  8
0
 62
     3
 10
233.10655199999999
 20
508.01221800000002
 30
0.0
 11
258.10655200000002
 21
508.01221800000002
 31
0.0
  0
LINE
  5
1E3
  8
0
 62
     3
 10
233.10655199999999
 20
508.01221800000002
 30
0.0
 11
233.10655199999999
 21
550.262203
 31
0.0
  0
LINE
  5
1E4
  8
0
 62
     3
 10
233.10655199999999
 20
561.76218800000004
 30
0.0
 11
233.10655199999999
 21
564.51226399999985
 31
0.0
  0
LINE
  5
1E5
  8
0
 62
     3
 10
233.10655199999999
 20
662.51224899999988
 30
0.0
 11
233.10655199999999
 21
678.012203
 31
0.0
  0
LINE
  5
1E6
  8
0
 62
     3
 10
262.60655200000002
 20
605.96107099999995
 30
0.0
 11
262.60655200000002
 21
615.51188300000001
 31
0.0
  0
LINE
  5
1E7
  8
0
 62
     3
 10
262.60649899999999
 20
555.06262600000002
 30
0.0
 11
262.60654399999999
 21
548.51190599999995
 31
0.0
  0
LINE
  5
1E8
  8
0
 62
     3
 10
258.10655200000002
 20
653.762203
 30
0.0
 11
258.10655200000002
 21
678.012203
 31
0.0
  0
LINE
  5
1E9
  8
0
 62
     3
 10
255.30654899999999
 20
661.76221799999985
 30
0.0
 11
258.10655200000002
 21
661.76221799999985
 31
0.0
  0
LINE
  5
1EA
  8
0
 62
     3
 10
258.10655200000002
 20
508.01221800000002
 30
0.0
 11
258.10655200000002
 21
532.76221799999985
 31
0.0
  0
LINE
  5
1EB
  8
0
 62
     3
 10
255.30654899999999
 20
524.26221799999985
 30
0.0
 11
258.10655200000002
 21
524.26221799999985
 31
0.0
  0
LINE
  5
1EC
  8
0
 62
     3
 10
255.30654899999999
 20
510.81222199999991
 30
0.0
 11
255.30654899999999
 21
532.76222199999995
 31
0.0
  0
LINE
  5
1ED
  8
0
 62
     3
 10
233.10655199999999
 20
561.76220299999989
 30
0.0
 11
255.30654899999999
 21
561.76220299999989
 31
0.0
  0
LINE
  5
1EE
  8
0
 62
     3
 10
233.10655199999999
 20
550.262203
 30
0.0
 11
255.30654899999999
 21
550.262203
 31
0.0
  0
LINE
  5
1EF
  8
0
 62
     1
 10
255.30654899999999
 20
653.762203
 30
0.0
 11
260.60655200000002
 21
653.762203
 31
0.0
  0
LINE
  5
1F0
  8
0
 62
     1
 10
257.60655200000002
 20
532.76221799999985
 30
0.0
 11
258.10655200000002
 21
532.76221799999985
 31
0.0
  0
LINE
  5
1F1
  8
0
 62
     1
 10
255.30654899999999
 20
532.76222199999995
 30
0.0
 11
260.60655200000002
 21
532.76221799999985
 31
0.0
  0
LINE
  5
1F2
  8
0
 62
     2
 10
271.60786400000001
 20
538.762203
 30
0.0
 11
271.60786400000001
 21
540.76220299999989
 31
0.0
  0
LINE
  5
1F3
  8
0
 62
     2
 10
262.60786400000001
 20
538.262203
 30
0.0
 11
262.60786400000001
 21
643.262203
 31
0.0
  0
LINE
  5
1F4
  8
0
 62
     2
 10
260.60655200000002
 20
643.262203
 30
0.0
 11
266.10771899999992
 21
643.262203
 31
0.0
  0
LINE
  5
1F5
  8
0
 62
     2
 10
260.60655200000002
 20
538.262203
 30
0.0
 11
266.10771899999992
 21
538.262203
 31
0.0
  0
LINE
  5
1F6
  8
0
 62
     2
 10
271.60781099999991
 20
556.76218800000004
 30
0.0
 11
271.60786400000001
 21
538.762203
 31
0.0
  0
LINE
  5
1F7
  8
0
 62
     2
 10
271.60766599999999
 20
569.76218800000004
 30
0.0
 11
271.60780299999988
 21
557.76218800000004
 31
0.0
  0
LINE
  5
1F8
  8
0
 62
     2
 10
271.60786400000001
 20
570.762203
 30
0.0
 11
271.60786400000001
 21
590.26218800000004
 31
0.0
  0
LINE
  5
1F9
  8
0
 62
     2
 10
271.60766599999999
 20
570.76217699999995
 30
0.0
 11
271.60771899999992
 21
590.26217699999995
 31
0.0
  0
LINE
  5
1FA
  8
0
 62
     2
 10
271.607506
 20
603.26218399999993
 30
0.0
 11
271.60771199999999
 21
591.26218499999993
 31
0.0
  0
LINE
  5
1FB
  8
0
 62
     7
 10
227.106514
 20
607.01217699999995
 30
0.0
 11
229.60654400000001
 21
607.01217699999995
 31
0.0
  0
LINE
  5
1FC
  8
0
 62
     7
 10
260.60655200000002
 20
643.262203
 30
0.0
 11
260.60655200000002
 21
653.762203
 31
0.0
  0
LINE
  5
1FD
  8
0
 62
     7
 10
260.60655200000002
 20
532.76221799999985
 30
0.0
 11
260.60655200000002
 21
538.262203
 31
0.0
  0
LINE
  5
1FE
  8
0
 62
     3
 10
255.30654899999999
 20
653.762203
 30
0.0
 11
255.30654899999999
 21
675.2122149999999
 31
0.0
  0
LINE
  5
1FF
  8
0
 62
     3
 10
255.30654899999999
 20
532.76222199999995
 30
0.0
 11
255.30654899999999
 21
653.762203
 31
0.0
  0
ARC
  5
200
  8
0
 62
     7
 10
292.28259300000002
 20
568.71832199999994
 30
0.0
 40
1.0
 50
348.62359199999992
 51
76.688818000000012
  0
ARC
  5
201
  8
0
 62
     7
 10
291.085846
 20
562.77050199999985
 30
0.0
 40
1.000000999999999
 50
260.59401099999991
 51
348.62359199999992
  0
LINE
  5
202
  8
0
  6
DASHDOT
 62
     7
 10
256.96649200000002
 20
572.69348300000001
 30
0.0
 11
307.08317599999992
 21
562.60966699999994
 31
0.0
  0
LINE
  5
203
  8
0
 62
     7
 10
271.60767399999997
 20
574.63753399999985
 30
0.0
 11
292.512833
 21
569.69145500000002
 31
0.0
  0
LINE
  5
204
  8
0
 62
     7
 10
292.0662079999999
 20
562.57325000000003
 30
0.0
 11
293.26293900000002
 21
568.5210679999999
 31
0.0
  0
LINE
  5
205
  8
0
 62
     7
 10
271.60771899999992
 20
564.98354600000005
 30
0.0
 11
290.92242399999998
 21
561.7839469999999
 31
0.0
  0
LINE
  5
206
  8
0
  6
DASHDOT
 62
     7
 10
156.10655399999999
 20
497.18275099999988
 30
0.0
 11
156.10655399999999
 21
688.04050800000005
 31
0.0
  0
LINE
  5
207
  8
0
 62
     7
 10
183.10655399999999
 20
654.51220299999989
 30
0.0
 11
196.0058479999999
 21
654.51220299999989
 31
0.0
  0
LINE
  5
208
  8
0
 62
     7
 10
183.43668199999999
 20
652.012203
 30
0.0
 11
196.5900649999999
 21
652.012203
 31
0.0
  0
LINE
  5
209
  8
0
 62
     7
 10
170.10655399999999
 20
647.94665099999986
 30
0.0
 11
170.10655399999999
 21
652.012203
 31
0.0
  0
LINE
  5
20A
  8
0
 62
     7
 10
174.10655399999999
 20
647.94665099999986
 30
0.0
 11
174.10655399999999
 21
652.012203
 31
0.0
  0
LINE
  5
20B
  8
0
 62
     7
 10
184.10655399999999
 20
652.012203
 30
0.0
 11
184.10655399999999
 21
654.51220299999989
 31
0.0
  0
LINE
  5
20C
  8
0
 62
     7
 10
170.10655399999999
 20
652.012203
 30
0.0
 11
176.555001
 21
652.012203
 31
0.0
  0
POLYLINE
  5
20D
  8
0
 62
     3
 66
     1
 10
0.0
 20
0.0
 30
0.0
  0
VERTEX
  5
7DE
  8
0
 62
     3
 10
153.87771299999989
 20
647.94665099999986
 30
0.0
  0
VERTEX
  5
7DF
  8
0
 62
     3
 10
169.877712
 20
647.94665099999986
 30
0.0
  0
VERTEX
  5
7E0
  8
0
 62
     3
 10
170.877712
 20
649.94665099999986
 30
0.0
  0
VERTEX
  5
7E1
  8
0
 62
     3
 10
171.877712
 20
645.94665099999986
 30
0.0
  0
VERTEX
  5
7E2
  8
0
 62
     3
 10
172.877712
 20
647.94665099999986
 30
0.0
  0
VERTEX
  5
7E3
  8
0
 62
     3
 10
188.877712
 20
647.94665099999986
 30
0.0
  0
VERTEX
  5
7E4
  8
0
 62
     3
 10
189.877712
 20
649.94665099999986
 30
0.0
  0
VERTEX
  5
7E5
  8
0
 62
     3
 10
190.877712
 20
645.94665099999986
 30
0.0
  0
VERTEX
  5
7E6
  8
0
 62
     3
 10
191.877712
 20
647.94665099999986
 30
0.0
  0
VERTEX
  5
7E7
  8
0
 62
     3
 10
196.5900649999999
 20
647.94665099999986
 30
0.0
  0
SEQEND
  5
7E8
  8
0
 62
     3
  0
LINE
  5
219
  8
0
 62
     7
 10
179.10655399999999
 20
673.512203
 30
0.0
 11
184.10655399999999
 21
673.512203
 31
0.0
  0
LINE
  5
21A
  8
0
 62
     7
 10
178.52933699999991
 20
646.94665099999997
 30
0.0
 11
182.60582400000001
 21
650.94076900000005
 31
0.0
  0
LINE
  5
21B
  8
0
 62
     7
 10
175.60728299999991
 20
651.08363699999995
 30
0.0
 11
179.10655399999999
 21
654.51220299999989
 31
0.0
  0
LINE
  5
21C
  8
0
 62
     7
 10
179.10655399999999
 20
654.51220299999989
 30
0.0
 11
179.10655399999999
 21
660.31220599999995
 31
0.0
  0
ARC
  5
21D
  8
0
 62
     7
 10
179.10655399999999
 20
647.512203
 30
0.0
 40
4.999998999999999
 50
134.4152949999999
 51
180.00000499999999
  0
ARC
  5
21E
  8
0
 62
     7
 10
179.10655399999999
 20
654.51220299999989
 30
0.0
 40
5.0
 50
314.415302
 51
360.0
  0
LINE
  5
21F
  8
0
  6
DASHDOT
 62
     7
 10
173.779526
 20
664.512203
 30
0.0
 11
190.43917300000001
 21
664.512203
 31
0.0
  0
LINE
  5
220
  8
0
 62
     7
 10
161.10655399999999
 20
531.51221499999997
 30
0.0
 11
179.10655399999999
 21
531.51221499999997
 31
0.0
  0
LINE
  5
221
  8
0
 62
     7
 10
175.10655399999999
 20
531.51221499999997
 30
0.0
 11
175.10655399999999
 21
534.49541099999988
 31
0.0
  0
LINE
  5
222
  8
0
 62
     7
 10
179.10655399999999
 20
531.51221499999997
 30
0.0
 11
179.10655399999999
 21
534.49541099999988
 31
0.0
  0
LINE
  5
223
  8
0
 62
     7
 10
185.10655399999999
 20
531.51221499999997
 30
0.0
 11
185.10655399999999
 21
534.49541099999988
 31
0.0
  0
LINE
  5
224
  8
0
 62
     7
 10
185.10655399999999
 20
531.51221499999997
 30
0.0
 11
208.31462499999989
 21
531.51221499999997
 31
0.0
  0
POLYLINE
  5
225
  8
0
 62
     3
 66
     1
 10
0.0
 20
0.0
 30
0.0
  0
VERTEX
  5
7E9
  8
0
 62
     3
 10
159.71873199999999
 20
534.49541099999988
 30
0.0
  0
VERTEX
  5
7EA
  8
0
 62
     3
 10
175.71873199999999
 20
534.49541099999988
 30
0.0
  0
VERTEX
  5
7EB
  8
0
 62
     3
 10
176.71873199999999
 20
536.49541099999999
 30
0.0
  0
VERTEX
  5
7EC
  8
0
 62
     3
 10
177.71873099999999
 20
532.49541099999999
 30
0.0
  0
VERTEX
  5
7ED
  8
0
 62
     3
 10
178.71873099999999
 20
534.49541099999988
 30
0.0
  0
VERTEX
  5
7EE
  8
0
 62
     3
 10
194.71873099999999
 20
534.49541099999988
 30
0.0
  0
VERTEX
  5
7EF
  8
0
 62
     3
 10
195.71873099999999
 20
536.49541099999999
 30
0.0
  0
VERTEX
  5
7F0
  8
0
 62
     3
 10
196.71873099999999
 20
532.49541099999999
 30
0.0
  0
VERTEX
  5
7F1
  8
0
 62
     3
 10
197.71873099999999
 20
534.49541099999988
 30
0.0
  0
VERTEX
  5
7F2
  8
0
 62
     3
 10
207.953754
 20
534.49541099999988
 30
0.0
  0
SEQEND
  5
7F3
  8
0
 62
     3
  0
LINE
  5
231
  8
0
 62
     7
 10
179.10655399999999
 20
512.51221799999985
 30
0.0
 11
182.10655399999999
 21
512.51221799999985
 31
0.0
  0
LINE
  5
232
  8
0
 62
     7
 10
182.10655199999991
 20
512.51221799999985
 30
0.0
 11
182.10655199999991
 21
517.51220299999989
 31
0.0
  0
LINE
  5
233
  8
0
 62
     7
 10
179.10655399999999
 20
512.51221799999985
 30
0.0
 11
179.10655399999999
 21
534.49541099999988
 31
0.0
  0
LINE
  5
234
  8
0
 62
     7
 10
182.10655399999999
 20
512.51221799999985
 30
0.0
 11
184.10655399999999
 21
512.51221799999985
 31
0.0
  0
LINE
  5
235
  8
0
 62
     7
 10
182.10655199999991
 20
533.51221500000008
 30
0.0
 11
184.10655199999991
 21
533.51221500000008
 31
0.0
  0
LINE
  5
236
  8
0
  6
DASHDOT
 62
     7
 10
173.779526
 20
521.51220299999989
 30
0.0
 11
195.1987
 21
521.51220299999989
 31
0.0
  0
LINE
  5
237
  8
0
 62
     7
 10
179.10655399999999
 20
525.61220199999991
 30
0.0
 11
184.10655199999991
 21
525.61220199999991
 31
0.0
  0
LINE
  5
238
  8
0
 62
     7
 10
179.10655399999999
 20
517.41220499999997
 30
0.0
 11
184.10655199999991
 21
517.41220499999997
 31
0.0
  0
ARC
  5
239
  8
0
  6
DASHDOT
 62
     7
 10
218.1073529999999
 20
580.51220299999989
 30
0.0
 40
76.044273000000004
 50
337.492324
 51
0.00001
  0
LINE
  5
23A
  8
0
  6
DASHDOT
 62
     7
 10
294.15162700000002
 20
580.51220299999989
 30
0.0
 11
294.15162700000002
 21
586.26240299999995
 31
0.0
  0
LINE
  5
23B
  8
0
 62
     7
 10
179.10655399999999
 20
668.71220000000005
 30
0.0
 11
183.10655399999999
 21
668.71220000000005
 31
0.0
  0
LINE
  5
23C
  8
0
 62
     7
 10
179.10655399999999
 20
660.31220599999995
 30
0.0
 11
183.10655399999999
 21
660.31220599999995
 31
0.0
  0
LINE
  5
23D
  8
0
 62
     7
 10
161.10655399999999
 20
678.01218800000004
 30
0.0
 11
162.60655399999999
 21
678.01218800000004
 31
0.0
  0
LINE
  5
23E
  8
0
 62
     1
 10
266.10771899999992
 20
535.76220299999989
 30
0.0
 11
266.10771899999992
 21
537.762203
 31
0.0
  0
LINE
  5
23F
  8
0
 62
     1
 10
266.10771899999992
 20
535.76220299999989
 30
0.0
 11
268.10771899999992
 21
535.76220299999989
 31
0.0
  0
LINE
  5
240
  8
0
 62
     1
 10
266.10771899999992
 20
643.76219900000001
 30
0.0
 11
266.10771899999992
 21
645.762203
 31
0.0
  0
LINE
  5
241
  8
0
 62
     1
 10
266.10771899999992
 20
645.762203
 30
0.0
 11
268.10771899999992
 21
645.762203
 31
0.0
  0
LINE
  5
242
  8
0
 62
     1
 10
266.10771899999992
 20
537.762203
 30
0.0
 11
266.10771899999992
 21
643.76220299999989
 31
0.0
  0
LINE
  5
243
  8
0
 62
     1
 10
261.60771899999992
 20
659.33955000000003
 30
0.0
 11
261.60771899999992
 21
664.18485599999985
 31
0.0
  0
LINE
  5
244
  8
0
 62
     1
 10
261.60771899999992
 20
517.33955400000002
 30
0.0
 11
261.60771899999992
 21
522.18485299999986
 31
0.0
  0
LINE
  5
245
  8
0
 62
     1
 10
268.10771899999992
 20
509.262203
 30
0.0
 11
268.10771899999992
 21
672.262203
 31
0.0
  0
LINE
  5
246
  8
0
 62
     1
 10
268.10771899999992
 20
509.262203
 30
0.0
 11
271.60771899999992
 21
509.262203
 31
0.0
  0
LINE
  5
247
  8
0
 62
     1
 10
271.60771899999992
 20
509.262203
 30
0.0
 11
271.60771899999992
 21
672.262203
 31
0.0
  0
LINE
  5
248
  8
0
 62
     1
 10
268.10771899999992
 20
672.262203
 30
0.0
 11
269.60771899999997
 21
672.262203
 31
0.0
  0
LINE
  5
249
  8
0
 62
     1
 10
270.60771899999992
 20
672.262203
 30
0.0
 11
271.60771899999992
 21
672.262203
 31
0.0
  0
LINE
  5
24A
  8
0
 62
     1
 10
262.60771899999992
 20
658.762203
 30
0.0
 11
268.10771899999992
 21
658.762203
 31
0.0
  0
LINE
  5
24B
  8
0
 62
     1
 10
262.60771899999992
 20
664.76220299999989
 30
0.0
 11
268.10771899999992
 21
664.76220299999989
 31
0.0
  0
LINE
  5
24C
  8
0
 62
     1
 10
261.60772700000001
 20
659.33954199999994
 30
0.0
 11
262.60772700000001
 21
658.7621959999999
 31
0.0
  0
LINE
  5
24D
  8
0
 62
     1
 10
262.60771899999992
 20
658.762203
 30
0.0
 11
262.60771899999992
 21
658.99056599999994
 31
0.0
  0
LINE
  5
24E
  8
0
 62
     1
 10
262.60771899999992
 20
658.762203
 30
0.0
 11
262.60771899999992
 21
659.64088099999992
 31
0.0
  0
LINE
  5
24F
  8
0
 62
     1
 10
262.60771899999992
 20
659.64088099999992
 30
0.0
 11
262.60771899999992
 21
660.61416199999985
 31
0.0
  0
LINE
  5
250
  8
0
 62
     1
 10
262.60771899999992
 20
660.61416199999985
 30
0.0
 11
262.60771899999992
 21
661.76220299999989
 31
0.0
  0
LINE
  5
251
  8
0
 62
     1
 10
262.60771899999992
 20
661.76220299999989
 30
0.0
 11
262.60771899999992
 21
662.910259
 31
0.0
  0
LINE
  5
252
  8
0
 62
     1
 10
262.60771899999992
 20
662.910259
 30
0.0
 11
262.60771899999992
 21
664.76220299999989
 31
0.0
  0
LINE
  5
253
  8
0
 62
     1
 10
262.60771899999992
 20
663.88351799999998
 30
0.0
 11
262.60771899999992
 21
664.53383299999985
 31
0.0
  0
LINE
  5
254
  8
0
 62
     1
 10
261.60771899999992
 20
664.18484899999999
 30
0.0
 11
262.60771899999992
 21
664.76219600000002
 31
0.0
  0
LINE
  5
255
  8
0
 62
     1
 10
262.60771899999992
 20
664.53383299999985
 30
0.0
 11
262.60771899999992
 21
664.76219600000002
 31
0.0
  0
LINE
  5
256
  8
0
 62
     1
 10
262.60772700000001
 20
522.762203
 30
0.0
 11
268.10771899999992
 21
522.762203
 31
0.0
  0
LINE
  5
257
  8
0
 62
     1
 10
262.60771899999992
 20
516.762203
 30
0.0
 11
268.10771899999992
 21
516.762203
 31
0.0
  0
LINE
  5
258
  8
0
 62
     1
 10
262.60771899999992
 20
522.53384000000005
 30
0.0
 11
262.60771899999992
 21
522.762203
 31
0.0
  0
LINE
  5
259
  8
0
 62
     1
 10
261.60771899999992
 20
522.18485299999986
 30
0.0
 11
262.60771899999992
 21
522.762203
 31
0.0
  0
LINE
  5
25A
  8
0
 62
     1
 10
262.60771899999992
 20
521.88352199999986
 30
0.0
 11
262.60771899999992
 21
522.53384000000005
 31
0.0
  0
LINE
  5
25B
  8
0
 62
     1
 10
262.60771899999992
 20
520.91025499999989
 30
0.0
 11
262.60771899999992
 21
521.88352199999986
 31
0.0
  0
LINE
  5
25C
  8
0
 62
     1
 10
262.60771899999992
 20
519.76220299999989
 30
0.0
 11
262.60771899999992
 21
520.91025499999989
 31
0.0
  0
LINE
  5
25D
  8
0
 62
     1
 10
262.60771899999992
 20
518.61415499999998
 30
0.0
 11
262.60771899999992
 21
519.76220299999989
 31
0.0
  0
LINE
  5
25E
  8
0
 62
     1
 10
262.60771899999992
 20
517.64088400000003
 30
0.0
 11
262.60771899999992
 21
518.61415499999998
 31
0.0
  0
LINE
  5
25F
  8
0
 62
     1
 10
262.60771899999992
 20
516.99056599999994
 30
0.0
 11
262.60771899999992
 21
517.64088400000003
 31
0.0
  0
LINE
  5
260
  8
0
 62
     1
 10
262.60771899999992
 20
516.762203
 30
0.0
 11
262.60771899999992
 21
516.99056599999994
 31
0.0
  0
LINE
  5
261
  8
0
 62
     1
 10
261.60771899999992
 20
517.33955400000002
 30
0.0
 11
262.60771899999992
 21
516.762203
 31
0.0
  0
LINE
  5
262
  8
0
 62
     1
 10
269.60771899999997
 20
672.262203
 30
0.0
 11
270.60771899999992
 21
672.262203
 31
0.0
  0
LINE
  5
263
  8
0
 62
     7
 10
268.10771899999992
 20
672.262203
 30
0.0
 11
268.10771899999992
 21
743.07079699999997
 31
0.0
  0
LINE
  5
264
  8
0
 62
     7
 10
266.10771899999992
 20
643.76220299999989
 30
0.0
 11
266.10771899999992
 21
658.762203
 31
0.0
  0
LINE
  5
265
  8
0
 62
     7
 10
268.10771899999992
 20
464.28933299999989
 30
0.0
 11
268.10771899999992
 21
509.262203
 31
0.0
  0
LINE
  5
266
  8
0
 62
     7
 10
266.10771899999992
 20
462.85007899999999
 30
0.0
 11
266.10771899999992
 21
516.762203
 31
0.0
  0
POLYLINE
  5
267
  8
0
 62
     3
 66
     1
 10
0.0
 20
0.0
 30
0.0
  0
VERTEX
  5
7F4
  8
0
 62
     3
 10
262.33756299999988
 20
460.1369739999999
 30
0.0
  0
VERTEX
  5
7F5
  8
0
 62
     3
 10
269.62644999999992
 20
465.3822439999999
 30
0.0
  0
VERTEX
  5
7F6
  8
0
 62
     3
 10
269.26992000000001
 20
467.58970999999991
 30
0.0
  0
VERTEX
  5
7F7
  8
0
 62
     3
 10
272.41801499999991
 20
464.92709699999989
 30
0.0
  0
VERTEX
  5
7F8
  8
0
 62
     3
 10
272.061485
 20
467.13455599999992
 30
0.0
  0
SEQEND
  5
7F9
  8
0
 62
     3
  0
POLYLINE
  5
26E
  8
0
 62
     3
 66
     1
 10
0.0
 20
0.0
 30
0.0
  0
VERTEX
  5
7FA
  8
0
 62
     3
 10
261.33790599999998
 20
746.31104700000003
 30
0.0
  0
VERTEX
  5
7FB
  8
0
 62
     3
 10
269.26459499999999
 20
742.51707099999987
 30
0.0
  0
VERTEX
  5
7FC
  8
0
 62
     3
 10
271.03005200000001
 20
743.88935500000002
 30
0.0
  0
VERTEX
  5
7FD
  8
0
 62
     3
 10
270.20514700000001
 20
739.84960599999999
 30
0.0
  0
VERTEX
  5
7FE
  8
0
 62
     3
 10
271.97060399999992
 20
741.22188899999992
 30
0.0
  0
SEQEND
  5
7FF
  8
0
 62
     3
  0
LINE
  5
275
  8
0
 62
     7
 10
266.10771899999992
 20
665.26219600000002
 30
0.0
 11
268.10771899999992
 21
665.26219600000002
 31
0.0
  0
LINE
  5
276
  8
0
 62
     7
 10
266.10771899999992
 20
658.262203
 30
0.0
 11
268.10771899999992
 21
658.262203
 31
0.0
  0
LINE
  5
277
  8
0
 62
     7
 10
266.10771899999992
 20
646.762203
 30
0.0
 11
268.10771899999992
 21
646.762203
 31
0.0
  0
LINE
  5
278
  8
0
 62
     7
 10
266.10771899999992
 20
534.762203
 30
0.0
 11
268.10771899999992
 21
534.762203
 31
0.0
  0
LINE
  5
279
  8
0
 62
     7
 10
266.10771899999992
 20
523.26220299999989
 30
0.0
 11
268.10771899999992
 21
523.26220299999989
 31
0.0
  0
LINE
  5
27A
  8
0
 62
     7
 10
266.10771899999992
 20
516.262203
 30
0.0
 11
268.10771899999992
 21
516.262203
 31
0.0
  0
LINE
  5
27B
  8
0
 62
     7
 10
266.10771899999992
 20
522.762203
 30
0.0
 11
266.10771899999992
 21
535.76220299999989
 31
0.0
  0
LINE
  5
27C
  8
0
 62
     7
 10
266.10771899999992
 20
664.76220299999989
 30
0.0
 11
266.10771899999992
 21
744.02805699999988
 31
0.0
  0
LINE
  5
27D
  8
0
  6
DASHDOT
 62
     7
 10
138.42785499999991
 20
590.76220299999989
 30
0.0
 11
300.31320199999988
 21
590.76220299999989
 31
0.0
  0
LINE
  5
27E
  8
0
  6
DASHDOT
 62
     7
 10
48.406075000000001
 20
590.76220299999989
 30
0.0
 11
77.081824999999995
 21
590.76220299999989
 31
0.0
  0
POLYLINE
  5
27F
  8
0
 62
     3
 66
     1
 10
0.0
 20
0.0
 30
0.0
  0
VERTEX
  5
800
  8
0
 62
     3
 10
207.953754
 20
534.49541099999988
 30
0.0
  0
VERTEX
  5
801
  8
0
 62
     3
 10
209.8752289999999
 20
518.61120599999992
 30
0.0
  0
VERTEX
  5
802
  8
0
 62
     3
 10
211.98084999999989
 20
517.85862699999996
 30
0.0
  0
VERTEX
  5
803
  8
0
 62
     3
 10
208.1298899999999
 20
516.38549399999999
 30
0.0
  0
VERTEX
  5
804
  8
0
 62
     3
 10
210.23550800000001
 20
515.63291500000003
 30
0.0
  0
VERTEX
  5
805
  8
0
 62
     3
 10
211.5113299999999
 20
505.086117
 30
0.0
  0
SEQEND
  5
806
  8
0
 62
     3
  0
LINE
  5
287
  8
0
 62
     7
 10
161.10655399999999
 20
508.01221800000002
 30
0.0
 11
162.60655399999999
 21
508.01221800000002
 31
0.0
  0
POLYLINE
  5
288
  8
0
 62
     3
 66
     1
 10
0.0
 20
0.0
 30
0.0
  0
VERTEX
  5
807
  8
0
 62
     3
 10
225.2680279999999
 20
653.77060300000005
 30
0.0
  0
VERTEX
  5
808
  8
0
 62
     3
 10
226.1306229999999
 20
669.74733400000002
 30
0.0
  0
VERTEX
  5
809
  8
0
 62
     3
 10
224.187443
 20
670.853703
 30
0.0
  0
VERTEX
  5
80A
  8
0
 62
     3
 10
228.235535
 20
671.63660000000004
 30
0.0
  0
VERTEX
  5
80B
  8
0
 62
     3
 10
226.29235800000001
 20
672.74297000000001
 30
0.0
  0
VERTEX
  5
80C
  8
0
 62
     3
 10
226.741623
 20
681.06419000000005
 30
0.0
  0
SEQEND
  5
80D
  8
0
 62
     3
  0
POLYLINE
  5
290
  8
0
 62
     3
 66
     1
 10
0.0
 20
0.0
 30
0.0
  0
VERTEX
  5
80E
  8
0
 62
     3
 10
196.5900649999999
 20
653.77060300000005
 30
0.0
  0
VERTEX
  5
80F
  8
0
 62
     3
 10
212.5900649999999
 20
653.77060300000005
 30
0.0
  0
VERTEX
  5
810
  8
0
 62
     3
 10
213.5900649999999
 20
655.77060300000005
 30
0.0
  0
VERTEX
  5
811
  8
0
 62
     3
 10
214.5900649999999
 20
651.77060300000005
 30
0.0
  0
VERTEX
  5
812
  8
0
 62
     3
 10
215.5900649999999
 20
653.77060300000005
 30
0.0
  0
VERTEX
  5
813
  8
0
 62
     3
 10
225.2680279999999
 20
653.77060300000005
 30
0.0
  0
SEQEND
  5
814
  8
0
 62
     3
  0
POLYLINE
  5
298
  8
0
 62
     3
 66
     1
 10
0.0
 20
0.0
 30
0.0
  0
VERTEX
  5
815
  8
0
 62
     3
 10
196.5900649999999
 20
647.94665099999986
 30
0.0
  0
VERTEX
  5
816
  8
0
 62
     3
 10
196.5900649999999
 20
650.77061100000003
 30
0.0
  0
VERTEX
  5
817
  8
0
 62
     3
 10
194.5900649999999
 20
651.77061100000003
 30
0.0
  0
VERTEX
  5
818
  8
0
 62
     3
 10
198.5900649999999
 20
652.77061100000003
 30
0.0
  0
VERTEX
  5
819
  8
0
 62
     3
 10
196.5900649999999
 20
653.77061100000003
 30
0.0
  0
SEQEND
  5
81A
  8
0
 62
     3
  0
LINE
  5
29F
  8
0
 62
     7
 10
184.10655399999999
 20
512.51221799999985
 30
0.0
 11
184.10655399999999
 21
517.51220299999989
 31
0.0
  0
LINE
  5
2A0
  8
0
 62
     2
 10
190.10655399999999
 20
654.51220299999989
 30
0.0
 11
190.10655399999999
 21
710.512203
 31
0.0
  0
LINE
  5
2A1
  8
0
 62
     2
 10
184.10655399999999
 20
654.51220299999989
 30
0.0
 11
184.10655399999999
 21
660.512203
 31
0.0
  0
LINE
  5
2A2
  8
0
  6
DASHDOT
 62
     7
 10
173.779526
 20
698.012203
 30
0.0
 11
194.69543100000001
 21
698.012203
 31
0.0
  0
LINE
  5
2A3
  8
0
 62
     2
 10
184.10655399999999
 20
710.512203
 30
0.0
 11
190.10655399999999
 21
710.512203
 31
0.0
  0
LINE
  5
2A4
  8
0
 62
     2
 10
184.10655399999999
 20
702.26220299999989
 30
0.0
 11
190.10655399999999
 21
702.26220299999989
 31
0.0
  0
LINE
  5
2A5
  8
0
 62
     2
 10
184.10655399999999
 20
693.76220299999989
 30
0.0
 11
190.10655399999999
 21
693.76220299999989
 31
0.0
  0
LINE
  5
2A6
  8
0
 62
     2
 10
183.10655399999999
 20
668.76220299999989
 30
0.0
 11
190.10655399999999
 21
668.76220299999989
 31
0.0
  0
LINE
  5
2A7
  8
0
 62
     2
 10
184.10655399999999
 20
660.262203
 30
0.0
 11
190.10655399999999
 21
660.262203
 31
0.0
  0
LINE
  5
2A8
  8
0
 62
     7
 10
179.10655399999999
 20
671.01220299999989
 30
0.0
 11
179.10655399999999
 21
673.512203
 31
0.0
  0
LINE
  5
2A9
  8
0
 62
     2
 10
181.10655399999999
 20
678.012203
 30
0.0
 11
181.10655399999999
 21
679.51220299999989
 31
0.0
  0
LINE
  5
2AA
  8
0
 62
     2
 10
178.10655399999999
 20
678.012203
 30
0.0
 11
181.10655399999999
 21
678.012203
 31
0.0
  0
LINE
  5
2AB
  8
0
 62
     2
 10
178.10655399999999
 20
680.51220299999989
 30
0.0
 11
180.10655399999999
 21
680.51220299999989
 31
0.0
  0
LINE
  5
2AC
  8
0
 62
     2
 10
162.60655399999999
 20
654.51220299999989
 30
0.0
 11
164.10655399999999
 21
654.51220299999989
 31
0.0
  0
LINE
  5
2AD
  8
0
 62
     2
 10
162.60655399999999
 20
680.51220299999989
 30
0.0
 11
178.10655399999999
 21
680.51220299999989
 31
0.0
  0
LINE
  5
2AE
  8
0
 62
     2
 10
162.60655399999999
 20
654.51220299999989
 30
0.0
 11
162.60655399999999
 21
680.51220299999989
 31
0.0
  0
LINE
  5
2AF
  8
0
 62
     2
 10
178.10655399999999
 20
678.012203
 30
0.0
 11
178.10655399999999
 21
680.51220299999989
 31
0.0
  0
LINE
  5
2B0
  8
0
 62
     2
 10
177.52076700000001
 20
674.81219900000008
 30
0.0
 11
178.10655399999999
 21
674.81219900000008
 31
0.0
  0
LINE
  5
2B1
  8
0
 62
     2
 10
178.10655399999999
 20
673.012203
 30
0.0
 11
178.10655399999999
 21
678.012203
 31
0.0
  0
LINE
  5
2B2
  8
0
 62
     2
 10
176.43846899999991
 20
675.21220000000005
 30
0.0
 11
177.120768
 21
675.21220000000005
 31
0.0
  0
LINE
  5
2B3
  8
0
 62
     2
 10
177.120768
 20
675.21220000000005
 30
0.0
 11
177.52076700000001
 21
674.81219900000008
 31
0.0
  0
LINE
  5
2B4
  8
0
 62
     2
 10
164.10655399999999
 20
654.51220299999989
 30
0.0
 11
178.10655399999999
 21
678.012203
 31
0.0
  0
LINE
  5
2B5
  8
0
 62
     2
 10
178.60655399999999
 20
656.012203
 30
0.0
 11
178.60655399999999
 21
673.012203
 31
0.0
  0
LINE
  5
2B6
  8
0
 62
     2
 10
180.10655399999999
 20
680.51220299999989
 30
0.0
 11
181.10655399999999
 21
679.51220299999989
 31
0.0
  0
LINE
  5
2B7
  8
0
 62
     6
 10
179.10655399999999
 20
658.012203
 30
0.0
 11
179.10655399999999
 21
671.01220299999989
 31
0.0
  0
LINE
  5
2B8
  8
0
 62
     1
 10
260.60655200000002
 20
681.512203
 30
0.0
 11
260.60655200000002
 21
683.51220299999989
 31
0.0
  0
LINE
  5
2B9
  8
0
 62
     1
 10
159.60655499999999
 20
683.51220299999989
 30
0.0
 11
184.10655399999999
 21
683.51220299999989
 31
0.0
  0
LINE
  5
2BA
  8
0
 62
     1
 10
159.60655499999999
 20
681.512203
 30
0.0
 11
159.60655499999999
 21
683.51220299999989
 31
0.0
  0
LINE
  5
2BB
  8
0
 62
     1
 10
160.60655499999999
 20
680.51220299999989
 30
0.0
 11
162.60655399999999
 21
680.51220299999989
 31
0.0
  0
LINE
  5
2BC
  8
0
 62
     1
 10
180.10655399999999
 20
680.51220299999989
 30
0.0
 11
184.10655399999999
 21
680.51220299999989
 31
0.0
  0
LINE
  5
2BD
  8
0
 62
     1
 10
179.85655399999999
 20
675.21220000000005
 30
0.0
 11
184.10655399999999
 21
675.21220000000005
 31
0.0
  0
LINE
  5
2BE
  8
0
 62
     1
 10
178.85655399999999
 20
672.01220299999989
 30
0.0
 11
179.10655399999999
 21
672.01220299999989
 31
0.0
  0
LINE
  5
2BF
  8
0
 62
     1
 10
190.35655399999999
 20
672.01220299999989
 30
0.0
 11
190.35655399999999
 21
680.51220299999989
 31
0.0
  0
LINE
  5
2C0
  8
0
 62
     1
 10
178.85655399999999
 20
672.01220299999989
 30
0.0
 11
178.85655399999999
 21
678.012203
 31
0.0
  0
LINE
  5
2C1
  8
0
 62
     1
 10
159.60655499999999
 20
683.51220299999989
 30
0.0
 11
159.60655499999999
 21
780.512203
 31
0.0
  0
LINE
  5
2C2
  8
0
 62
     1
 10
260.60655200000002
 20
683.51220299999989
 30
0.0
 11
260.60655200000002
 21
780.512203
 31
0.0
  0
LINE
  5
2C3
  8
0
 62
     1
 10
190.10655399999999
 20
674.46220000000005
 30
0.0
 11
190.35655399999999
 21
674.21220000000005
 31
0.0
  0
LINE
  5
2C4
  8
0
 62
     1
 10
178.85655399999999
 20
674.21220000000005
 30
0.0
 11
179.85655399999999
 21
675.21220000000005
 31
0.0
  0
LINE
  5
2C5
  8
0
 62
     1
 10
259.60655200000002
 20
680.51220299999989
 30
0.0
 11
260.60655200000002
 21
681.512203
 31
0.0
  0
LINE
  5
2C6
  8
0
 62
     1
 10
159.60655499999999
 20
681.512203
 30
0.0
 11
160.60655499999999
 21
680.51220299999989
 31
0.0
  0
LINE
  5
2C7
  8
0
 62
     2
 10
162.60655399999999
 20
679.51220299999989
 30
0.0
 11
178.10655399999999
 21
679.51220299999989
 31
0.0
  0
LINE
  5
2C8
  8
0
 62
     2
 10
162.60655399999999
 20
655.51220299999989
 30
0.0
 11
164.70229900000001
 21
655.51220299999989
 31
0.0
  0
LINE
  5
2C9
  8
0
 62
     2
 10
165.00017199999991
 20
656.012203
 30
0.0
 11
178.60655399999999
 21
656.012203
 31
0.0
  0
LINE
  5
2CA
  8
0
 62
     2
 10
175.12783099999999
 20
673.012203
 30
0.0
 11
178.60655399999999
 21
673.012203
 31
0.0
  0
LINE
  5
2CB
  8
0
 62
     6
 10
178.60655399999999
 20
671.01220299999989
 30
0.0
 11
179.10655399999999
 21
671.01220299999989
 31
0.0
  0
LINE
  5
2CC
  8
0
 62
     6
 10
178.60655399999999
 20
658.012203
 30
0.0
 11
179.10655399999999
 21
658.012203
 31
0.0
  0
LINE
  5
2CD
  8
0
 62
     1
 10
159.60655499999999
 20
780.512203
 30
0.0
 11
260.60655200000002
 21
780.512203
 31
0.0
  0
LINE
  5
2CE
  8
0
 62
     1
 10
190.10655399999999
 20
672.01220299999989
 30
0.0
 11
190.35655399999999
 21
672.01220299999989
 31
0.0
  0
LINE
  5
2CF
  8
0
 62
     1
 10
190.10655399999999
 20
683.51220299999989
 30
0.0
 11
260.60655200000002
 21
683.51220299999989
 31
0.0
  0
LINE
  5
2D0
  8
0
 62
     1
 10
190.10655399999999
 20
680.51220299999989
 30
0.0
 11
259.60655200000002
 21
680.51220299999989
 31
0.0
  0
LINE
  5
2D1
  8
0
 62
     2
 10
260.60655200000002
 20
654.762203
 30
0.0
 11
260.60655200000002
 21
679.262203
 31
0.0
  0
LINE
  5
2D2
  8
0
 62
     2
 10
208.60655600000001
 20
680.51220299999989
 30
0.0
 11
259.35655200000002
 21
680.51220299999989
 31
0.0
  0
ARC
  5
2D3
  8
0
 62
     2
 10
259.35655200000002
 20
679.262203
 30
0.0
 40
1.25
 50
0.0
 51
90.000003000000007
  0
LINE
  5
2D4
  8
0
 62
     2
 10
259.60655200000002
 20
654.762203
 30
0.0
 11
260.60655200000002
 21
654.762203
 31
0.0
  0
LINE
  5
2D5
  8
0
 62
     2
 10
259.60655200000002
 20
653.762203
 30
0.0
 11
259.60655200000002
 21
654.762203
 31
0.0
  0
LINE
  5
2D6
  8
0
 62
     7
 10
191.10655399999999
 20
655.51220299999989
 30
0.0
 11
191.10655399999999
 21
673.512203
 31
0.0
  0
LINE
  5
2D7
  8
0
 62
     7
 10
190.10655399999999
 20
673.512203
 30
0.0
 11
191.10655399999999
 21
673.512203
 31
0.0
  0
LINE
  5
2D8
  8
0
 62
     7
 10
190.10655399999999
 20
655.51220299999989
 30
0.0
 11
191.10655399999999
 21
655.51220299999989
 31
0.0
  0
LINE
  5
2D9
  8
0
 62
     2
 10
184.10655399999999
 20
668.512203
 30
0.0
 11
184.10655399999999
 21
710.512203
 31
0.0
  0
LINE
  5
2DA
  8
0
 62
     2
 10
181.10655399999999
 20
506.512203
 30
0.0
 11
181.10655399999999
 21
508.012203
 31
0.0
  0
LINE
  5
2DB
  8
0
 62
     2
 10
178.10655399999999
 20
508.012203
 30
0.0
 11
181.10655399999999
 21
508.012203
 31
0.0
  0
LINE
  5
2DC
  8
0
 62
     2
 10
178.10655399999999
 20
505.51220299999989
 30
0.0
 11
180.10655399999999
 21
505.51220299999989
 31
0.0
  0
LINE
  5
2DD
  8
0
 62
     2
 10
162.60655399999999
 20
531.512203
 30
0.0
 11
164.10655399999999
 21
531.512203
 31
0.0
  0
LINE
  5
2DE
  8
0
 62
     2
 10
162.60655399999999
 20
505.51220299999989
 30
0.0
 11
178.10655399999999
 21
505.51220299999989
 31
0.0
  0
LINE
  5
2DF
  8
0
 62
     2
 10
162.60655399999999
 20
505.51220299999989
 30
0.0
 11
162.60655399999999
 21
531.512203
 31
0.0
  0
LINE
  5
2E0
  8
0
 62
     2
 10
178.10655399999999
 20
505.51220299999989
 30
0.0
 11
178.10655399999999
 21
508.012203
 31
0.0
  0
LINE
  5
2E1
  8
0
 62
     2
 10
177.52076700000001
 20
511.21220799999998
 30
0.0
 11
178.10655399999999
 21
511.21220799999998
 31
0.0
  0
LINE
  5
2E2
  8
0
 62
     2
 10
178.10655399999999
 20
508.012203
 30
0.0
 11
178.10655399999999
 21
513.01220299999989
 31
0.0
  0
LINE
  5
2E3
  8
0
 62
     2
 10
176.43846899999991
 20
510.81220599999989
 30
0.0
 11
177.120768
 21
510.81220599999989
 31
0.0
  0
LINE
  5
2E4
  8
0
 62
     2
 10
177.120768
 20
510.81220599999989
 30
0.0
 11
177.52076700000001
 21
511.21220799999998
 31
0.0
  0
LINE
  5
2E5
  8
0
 62
     2
 10
164.10655399999999
 20
531.512203
 30
0.0
 11
178.10655399999999
 21
508.012203
 31
0.0
  0
LINE
  5
2E6
  8
0
 62
     2
 10
178.60655399999999
 20
513.01220299999989
 30
0.0
 11
178.60655399999999
 21
530.01220299999989
 31
0.0
  0
LINE
  5
2E7
  8
0
 62
     2
 10
180.10655399999999
 20
505.51220299999989
 30
0.0
 11
181.10655399999999
 21
506.512203
 31
0.0
  0
LINE
  5
2E8
  8
0
 62
     6
 10
179.10655399999999
 20
515.012203
 30
0.0
 11
179.10655399999999
 21
528.012203
 31
0.0
  0
LINE
  5
2E9
  8
0
 62
     2
 10
162.60655399999999
 20
506.512203
 30
0.0
 11
178.10655399999999
 21
506.512203
 31
0.0
  0
LINE
  5
2EA
  8
0
 62
     2
 10
162.60655399999999
 20
530.51220299999989
 30
0.0
 11
164.70229900000001
 21
530.51220299999989
 31
0.0
  0
LINE
  5
2EB
  8
0
 62
     2
 10
165.00017199999991
 20
530.01220299999989
 30
0.0
 11
178.60655399999999
 21
530.01220299999989
 31
0.0
  0
LINE
  5
2EC
  8
0
 62
     2
 10
175.12783099999999
 20
513.01220299999989
 30
0.0
 11
178.60655399999999
 21
513.01220299999989
 31
0.0
  0
LINE
  5
2ED
  8
0
 62
     6
 10
178.60655399999999
 20
515.012203
 30
0.0
 11
179.10655399999999
 21
515.012203
 31
0.0
  0
LINE
  5
2EE
  8
0
 62
     6
 10
178.60655399999999
 20
528.012203
 30
0.0
 11
179.10655399999999
 21
528.012203
 31
0.0
  0
LINE
  5
2EF
  8
0
 62
     7
 10
178.10655399999999
 20
508.01221800000002
 30
0.0
 11
233.10655199999999
 21
508.01221800000002
 31
0.0
  0
LINE
  5
2F0
  8
0
 62
     7
 10
189.10655399999999
 20
512.51220299999989
 30
0.0
 11
190.10655399999999
 21
512.51220299999989
 31
0.0
  0
LINE
  5
2F1
  8
0
 62
     7
 10
190.10655399999999
 20
512.51220299999989
 30
0.0
 11
190.10655399999999
 21
530.51220299999989
 31
0.0
  0
LINE
  5
2F2
  8
0
 62
     7
 10
189.10655399999999
 20
530.51220299999989
 30
0.0
 11
190.10655399999999
 21
530.51220299999989
 31
0.0
  0
LINE
  5
2F3
  8
0
 62
     7
 10
189.10655399999999
 20
512.51220299999989
 30
0.0
 11
189.10655399999999
 21
530.51220299999989
 31
0.0
  0
LINE
  5
2F4
  8
0
 62
     7
 10
184.10655399999999
 20
525.51220299999989
 30
0.0
 11
184.10655399999999
 21
533.51221500000008
 31
0.0
  0
LINE
  5
2F5
  8
0
 62
     7
 10
182.10655199999991
 20
525.51220299999989
 30
0.0
 11
182.10655199999991
 21
534.49541099999988
 31
0.0
  0
LINE
  5
2F6
  8
0
 62
     1
 10
190.50655399999999
 20
514.32220099999995
 30
0.0
 11
190.50655399999999
 21
528.70220199999994
 31
0.0
  0
ARC
  5
2F7
  8
0
 62
     1
 10
192.860218
 20
516.11970099999985
 30
0.0
 40
2.746335999999999
 50
319.117614
 51
40.882390999999998
  0
ARC
  5
2F8
  8
0
 62
     1
 10
192.860218
 20
526.90470500000004
 30
0.0
 40
2.746335999999999
 50
319.117614
 51
40.882390999999998
  0
LINE
  5
2F9
  8
0
 62
     1
 10
190.50655399999999
 20
517.91720199999997
 30
0.0
 11
194.9897499999999
 21
517.91720199999997
 31
0.0
  0
ARC
  5
2FA
  8
0
 62
     1
 10
184.82155399999991
 20
521.51220299999989
 30
0.0
 40
10.785
 50
340.52878099999992
 51
19.471219000000001
  0
LINE
  5
2FB
  8
0
 62
     1
 10
190.50655399999999
 20
525.10720400000002
 30
0.0
 11
194.9897499999999
 21
525.10720400000002
 31
0.0
  0
LINE
  5
2FC
  8
0
 62
     1
 10
190.50655399999999
 20
514.32220099999995
 30
0.0
 11
194.93659999999991
 21
514.32220099999995
 31
0.0
  0
LINE
  5
2FD
  8
0
 62
     1
 10
190.50655399999999
 20
528.70220199999994
 30
0.0
 11
194.93659999999991
 21
528.70220199999994
 31
0.0
  0
LINE
  5
2FE
  8
0
 62
     1
 10
190.10655399999999
 20
515.41220499999986
 30
0.0
 11
190.50655399999999
 21
515.41220499999986
 31
0.0
  0
LINE
  5
2FF
  8
0
 62
     1
 10
190.10655399999999
 20
527.6122019999998
 30
0.0
 11
190.50655399999999
 21
527.6122019999998
 31
0.0
  0
LINE
  5
300
  8
0
 62
     7
 10
179.10655399999999
 20
518.27899200000002
 30
0.0
 11
187.60655399999999
 21
518.27899200000002
 31
0.0
  0
LINE
  5
301
  8
0
 62
     7
 10
179.10655399999999
 20
524.74541500000009
 30
0.0
 11
187.60655399999999
 21
524.74541500000009
 31
0.0
  0
LINE
  5
302
  8
0
 62
     1
 10
179.10655399999999
 20
525.51220299999989
 30
0.0
 11
189.10655399999999
 21
525.51220299999989
 31
0.0
  0
LINE
  5
303
  8
0
 62
     1
 10
179.10655399999999
 20
517.51220299999989
 30
0.0
 11
189.10655399999999
 21
517.51220299999989
 31
0.0
  0
LINE
  5
304
  8
0
 62
     1
 10
187.60655399999999
 20
517.51220299999989
 30
0.0
 11
187.60655399999999
 21
525.51220299999989
 31
0.0
  0
LINE
  5
305
  8
0
 62
     1
 10
190.10655399999999
 20
515.41220499999986
 30
0.0
 11
190.10655399999999
 21
527.6122019999998
 31
0.0
  0
LINE
  5
306
  8
0
 62
     1
 10
195.60655199999991
 20
516.11970099999985
 30
0.0
 11
195.60655199999991
 21
526.90470500000004
 31
0.0
  0
LINE
  5
307
  8
0
  6
DASHDOT
 62
     7
 10
176.10655399999999
 20
521.51220299999989
 30
0.0
 11
199.60655600000001
 21
521.51220299999989
 31
0.0
  0
LINE
  5
308
  8
0
 62
     1
 10
191.50655399999999
 20
657.32220099999995
 30
0.0
 11
191.50655399999999
 21
671.70220599999993
 31
0.0
  0
ARC
  5
309
  8
0
 62
     1
 10
193.860218
 20
659.11970099999996
 30
0.0
 40
2.746335999999999
 50
319.117614
 51
40.882390999999998
  0
ARC
  5
30A
  8
0
 62
     1
 10
193.860218
 20
669.90470500000004
 30
0.0
 40
2.746335999999999
 50
319.117614
 51
40.882390999999998
  0
LINE
  5
30B
  8
0
 62
     1
 10
191.50655399999999
 20
660.91720199999986
 30
0.0
 11
195.9897499999999
 21
660.91720199999986
 31
0.0
  0
ARC
  5
30C
  8
0
 62
     1
 10
185.82155399999991
 20
664.512203
 30
0.0
 40
10.785
 50
340.52878099999992
 51
19.471219000000001
  0
LINE
  5
30D
  8
0
 62
     1
 10
191.50655399999999
 20
668.10720400000002
 30
0.0
 11
195.9897499999999
 21
668.10720400000002
 31
0.0
  0
LINE
  5
30E
  8
0
 62
     1
 10
191.50655399999999
 20
657.32220099999995
 30
0.0
 11
195.93659999999991
 21
657.32220099999995
 31
0.0
  0
LINE
  5
30F
  8
0
 62
     1
 10
191.50655399999999
 20
671.70220599999993
 30
0.0
 11
195.93659999999991
 21
671.70220599999993
 31
0.0
  0
LINE
  5
310
  8
0
 62
     1
 10
191.10655399999999
 20
658.41220499999986
 30
0.0
 11
191.50655399999999
 21
658.41220499999986
 31
0.0
  0
LINE
  5
311
  8
0
 62
     1
 10
191.10655399999999
 20
670.61220199999991
 30
0.0
 11
191.50655399999999
 21
670.61220199999991
 31
0.0
  0
LINE
  5
312
  8
0
 62
     7
 10
179.10655399999999
 20
661.27898800000003
 30
0.0
 11
187.60655399999999
 21
661.27898800000003
 31
0.0
  0
LINE
  5
313
  8
0
 62
     7
 10
179.10655399999999
 20
667.74541899999997
 30
0.0
 11
187.60655399999999
 21
667.74541899999997
 31
0.0
  0
LINE
  5
314
  8
0
 62
     1
 10
179.10655399999999
 20
668.512203
 30
0.0
 11
190.10655399999999
 21
668.512203
 31
0.0
  0
LINE
  5
315
  8
0
 62
     1
 10
179.10655399999999
 20
660.512203
 30
0.0
 11
190.10655399999999
 21
660.512203
 31
0.0
  0
LINE
  5
316
  8
0
 62
     1
 10
187.60655399999999
 20
660.512203
 30
0.0
 11
187.60655399999999
 21
668.512203
 31
0.0
  0
LINE
  5
317
  8
0
 62
     1
 10
191.10655399999999
 20
658.41220499999986
 30
0.0
 11
191.10655399999999
 21
670.61220199999991
 31
0.0
  0
LINE
  5
318
  8
0
 62
     1
 10
196.60655199999991
 20
659.11970099999996
 30
0.0
 11
196.60655199999991
 21
669.90470500000004
 31
0.0
  0
LINE
  5
319
  8
0
  6
DASHDOT
 62
     7
 10
176.10655399999999
 20
664.512203
 30
0.0
 11
199.60655199999991
 21
664.512203
 31
0.0
  0
CIRCLE
  5
31A
  8
0
 62
     2
 10
185.92240699999991
 20
706.28142199999991
 30
0.0
 40
0.3
  0
CIRCLE
  5
31B
  8
0
 62
     2
 10
180.50686099999999
 20
531.11651199999994
 30
0.0
 40
0.3
  0
LINE
  5
31C
  8
0
 62
     2
 10
183.10655399999999
 20
668.512203
 30
0.0
 11
183.10655399999999
 21
673.512203
 31
0.0
  0
LINE
  5
31D
  8
0
 62
     2
 10
183.10655399999999
 20
654.51220299999989
 30
0.0
 11
183.10655399999999
 21
660.512203
 31
0.0
  0
LINE
  5
31E
  8
0
  6
DASHDOT
 62
     7
 10
140.37179
 20
662.51220299999989
 30
0.0
 11
163.83209600000001
 21
662.51220299999989
 31
0.0
  0
LINE
  5
31F
  8
0
 62
     7
 10
152.10655399999999
 20
658.51220299999989
 30
0.0
 11
152.10655399999999
 21
666.512203
 31
0.0
  0
LINE
  5
320
  8
0
 62
     7
 10
152.10655399999999
 20
658.51220299999989
 30
0.0
 11
156.10655399999999
 21
658.51220299999989
 31
0.0
  0
LINE
  5
321
  8
0
 62
     7
 10
152.10655399999999
 20
666.512203
 30
0.0
 11
156.10655399999999
 21
666.512203
 31
0.0
  0
LINE
  5
322
  8
0
 62
     7
 10
148.10655399999999
 20
660.012203
 30
0.0
 11
148.10655399999999
 21
665.012203
 31
0.0
  0
LINE
  5
323
  8
0
 62
     7
 10
148.10655399999999
 20
665.012203
 30
0.0
 11
156.10655399999999
 21
665.012203
 31
0.0
  0
LINE
  5
324
  8
0
 62
     7
 10
148.10655399999999
 20
660.012203
 30
0.0
 11
156.10655399999999
 21
660.012203
 31
0.0
  0
LINE
  5
325
  8
0
 62
     7
 10
152.10655399999999
 20
527.512203
 30
0.0
 11
156.10655399999999
 21
527.512203
 31
0.0
  0
LINE
  5
326
  8
0
 62
     7
 10
148.10655399999999
 20
526.01220299999989
 30
0.0
 11
156.10655399999999
 21
526.01220299999989
 31
0.0
  0
LINE
  5
327
  8
0
  6
DASHDOT
 62
     7
 10
140.37179
 20
523.512203
 30
0.0
 11
163.83209600000001
 21
523.512203
 31
0.0
  0
LINE
  5
328
  8
0
 62
     7
 10
148.10655399999999
 20
521.01220299999989
 30
0.0
 11
156.10655399999999
 21
521.01220299999989
 31
0.0
  0
LINE
  5
329
  8
0
 62
     7
 10
152.10655399999999
 20
519.512203
 30
0.0
 11
156.10655399999999
 21
519.512203
 31
0.0
  0
LINE
  5
32A
  8
0
 62
     7
 10
152.10655399999999
 20
519.512203
 30
0.0
 11
152.10655399999999
 21
527.512203
 31
0.0
  0
LINE
  5
32B
  8
0
 62
     7
 10
148.10655399999999
 20
521.01220299999989
 30
0.0
 11
148.10655399999999
 21
526.01220299999989
 31
0.0
  0
CIRCLE
  5
32C
  8
0
 62
     7
 10
153.43828999999991
 20
661.22675700000002
 30
0.0
 40
0.2
  0
LINE
  5
32D
  8
0
 62
     7
 10
290.83174100000002
 20
654.51220299999989
 30
0.0
 11
289.78984100000002
 21
648.60335899999995
 31
0.0
  0
LINE
  5
32E
  8
0
 62
     7
 10
290.83174100000002
 20
654.51220299999989
 30
0.0
 11
291.87361099999993
 21
648.60335899999995
 31
0.0
  0
LINE
  5
32F
  8
0
 62
     7
 10
290.83174100000002
 20
664.512203
 30
0.0
 11
291.87361099999993
 21
670.42104699999993
 31
0.0
  0
LINE
  5
330
  8
0
 62
     7
 10
290.83174100000002
 20
664.512203
 30
0.0
 11
289.78984100000002
 21
670.42104699999993
 31
0.0
  0
LINE
  5
331
  8
0
 62
     7
 10
290.83171099999998
 20
653.84839199999999
 30
0.0
 11
290.83174100000002
 21
664.84839199999999
 31
0.0
  0
LINE
  5
332
  8
0
 62
     7
 10
294.83174100000002
 20
654.51220299999989
 30
0.0
 11
196.005844
 21
654.51222599999994
 31
0.0
  0
LINE
  5
333
  8
0
 62
     7
 10
294.83174100000002
 20
664.512203
 30
0.0
 11
190.43916299999989
 21
664.51223400000003
 31
0.0
  0
LINE
  5
334
  8
0
 62
     7
 10
117.4548799999999
 20
521.51221099999998
 30
0.0
 11
116.412994
 21
515.60335199999997
 31
0.0
  0
LINE
  5
335
  8
0
 62
     7
 10
117.4548799999999
 20
521.51221099999998
 30
0.0
 11
118.4967649999999
 21
515.60335199999997
 31
0.0
  0
LINE
  5
336
  8
0
 62
     7
 10
117.4548799999999
 20
531.51221099999987
 30
0.0
 11
118.4967649999999
 21
537.42106200000001
 31
0.0
  0
LINE
  5
337
  8
0
 62
     7
 10
117.4548799999999
 20
531.51221099999987
 30
0.0
 11
116.412994
 21
537.42106200000001
 31
0.0
  0
LINE
  5
338
  8
0
 62
     7
 10
117.4548799999999
 20
504.51221099999998
 30
0.0
 11
117.4548799999999
 21
531.51221099999987
 31
0.0
  0
LINE
  5
339
  8
0
 62
     7
 10
113.45488
 20
521.51221099999998
 30
0.0
 11
173.779526
 21
521.51219600000002
 31
0.0
  0
LINE
  5
33A
  8
0
 62
     7
 10
113.45488
 20
531.51221099999987
 30
0.0
 11
161.10655199999991
 21
531.5121959999999
 31
0.0
  0
LINE
  5
33B
  8
0
 62
     7
 10
156.10655199999991
 20
408.63564700000001
 30
0.0
 11
150.19770800000001
 21
409.67754699999989
 31
0.0
  0
LINE
  5
33C
  8
0
 62
     7
 10
156.10655199999991
 20
408.63566200000002
 30
0.0
 11
150.19770800000001
 21
407.59374600000001
 31
0.0
  0
LINE
  5
33D
  8
0
 62
     7
 10
159.10655199999991
 20
408.63564700000001
 30
0.0
 11
165.01539600000001
 21
407.59374600000001
 31
0.0
  0
LINE
  5
33E
  8
0
 62
     7
 10
159.10655199999991
 20
408.63564700000001
 30
0.0
 11
165.01539600000001
 21
409.67754699999989
 31
0.0
  0
LINE
  5
33F
  8
0
 62
     7
 10
294.15162700000002
 20
408.63564700000001
 30
0.0
 11
288.24275199999988
 21
409.67754699999989
 31
0.0
  0
LINE
  5
340
  8
0
 62
     7
 10
294.15162700000002
 20
408.63564700000001
 30
0.0
 11
288.24275199999988
 21
407.59374600000001
 31
0.0
  0
LINE
  5
341
  8
0
 62
     7
 10
139.10655199999991
 20
408.63564700000001
 30
0.0
 11
294.15162700000002
 21
408.63564700000001
 31
0.0
  0
LINE
  5
342
  8
0
 62
     7
 10
156.10655199999991
 20
404.63564700000001
 30
0.0
 11
156.10655199999991
 21
497.1827429999999
 31
0.0
  0
LINE
  5
343
  8
0
 62
     7
 10
159.10655199999991
 20
404.63564700000001
 30
0.0
 11
159.10655199999991
 21
497.1827429999999
 31
0.0
  0
LINE
  5
344
  8
0
 62
     7
 10
294.15162700000002
 20
404.63564700000001
 30
0.0
 11
294.15159599999993
 21
580.51220299999989
 31
0.0
  0
LINE
  5
345
  8
0
 62
     7
 10
159.10655199999991
 20
438.02947599999987
 30
0.0
 11
165.01539600000001
 21
436.98760600000003
 31
0.0
  0
LINE
  5
346
  8
0
 62
     7
 10
159.10655199999991
 20
438.02947599999987
 30
0.0
 11
165.01539600000001
 21
439.07137699999993
 31
0.0
  0
LINE
  5
347
  8
0
 62
     7
 10
262.60786400000001
 20
438.02947599999987
 30
0.0
 11
256.69898999999992
 21
439.07137699999993
 31
0.0
  0
LINE
  5
348
  8
0
 62
     7
 10
262.60786400000001
 20
438.02947599999987
 30
0.0
 11
256.69898999999992
 21
436.98760600000003
 31
0.0
  0
LINE
  5
349
  8
0
 62
     7
 10
159.10655199999991
 20
438.02947599999987
 30
0.0
 11
262.60786400000001
 21
438.02947599999987
 31
0.0
  0
LINE
  5
34A
  8
0
 62
     7
 10
159.10655199999991
 20
434.02947599999987
 30
0.0
 11
159.10655199999991
 21
497.1827429999999
 31
0.0
  0
LINE
  5
34B
  8
0
 62
     7
 10
262.60786400000001
 20
434.02947599999987
 30
0.0
 11
262.60783399999991
 21
538.262203
 31
0.0
  0
LINE
  5
34C
  8
0
 62
     7
 10
159.10655199999991
 20
455.0440099999999
 30
0.0
 11
165.01539600000001
 21
454.0021099999999
 31
0.0
  0
LINE
  5
34D
  8
0
 62
     7
 10
159.10655199999991
 20
455.0440099999999
 30
0.0
 11
165.01539600000001
 21
456.08589599999999
 31
0.0
  0
LINE
  5
34E
  8
0
 62
     7
 10
260.60652199999998
 20
455.0440099999999
 30
0.0
 11
254.69767799999991
 21
456.08589599999999
 31
0.0
  0
LINE
  5
34F
  8
0
 62
     7
 10
260.60652199999998
 20
455.0440099999999
 30
0.0
 11
254.69767799999991
 21
454.0021099999999
 31
0.0
  0
LINE
  5
350
  8
0
 62
     7
 10
159.10655199999991
 20
455.0440099999999
 30
0.0
 11
260.60655200000002
 21
455.0440099999999
 31
0.0
  0
LINE
  5
351
  8
0
 62
     7
 10
159.10655199999991
 20
451.04400299999998
 30
0.0
 11
159.10655199999991
 21
688.04050800000005
 31
0.0
  0
LINE
  5
352
  8
0
 62
     7
 10
260.60655200000002
 20
451.04401799999988
 30
0.0
 11
260.60652199999998
 21
653.762203
 31
0.0
  0
LINE
  5
353
  8
0
 62
     7
 10
312.58238199999988
 20
538.26221099999987
 30
0.0
 11
313.62428299999999
 21
544.17105500000002
 31
0.0
  0
LINE
  5
354
  8
0
 62
     7
 10
312.58238199999988
 20
538.26221099999987
 30
0.0
 11
311.540482
 21
544.17105500000002
 31
0.0
  0
LINE
  5
355
  8
0
 62
     7
 10
312.58241299999992
 20
643.26221099999987
 30
0.0
 11
311.54051199999998
 21
637.35336299999994
 31
0.0
  0
LINE
  5
356
  8
0
 62
     7
 10
312.58241299999992
 20
643.26221099999987
 30
0.0
 11
313.62431299999992
 21
637.35336700000005
 31
0.0
  0
LINE
  5
357
  8
0
 62
     7
 10
312.58238199999988
 20
538.26221099999987
 30
0.0
 11
312.58241299999992
 21
643.26221099999987
 31
0.0
  0
LINE
  5
358
  8
0
 62
     7
 10
316.58238199999988
 20
538.26221099999987
 30
0.0
 11
266.10771199999988
 21
538.26222599999994
 31
0.0
  0
LINE
  5
359
  8
0
 62
     7
 10
316.58241299999992
 20
643.26221099999987
 30
0.0
 11
266.10774199999992
 21
643.26222599999994
 31
0.0
  0
LINE
  5
35A
  8
0
 62
     7
 10
87.306128999999999
 20
521.51221099999998
 30
0.0
 11
88.348015000000004
 21
527.42105500000002
 31
0.0
  0
LINE
  5
35B
  8
0
 62
     7
 10
87.306128999999999
 20
521.51221099999998
 30
0.0
 11
86.264235999999997
 21
527.42105500000002
 31
0.0
  0
LINE
  5
35C
  8
0
 62
     7
 10
87.306174999999996
 20
664.512203
 30
0.0
 11
86.264281999999994
 21
658.60335899999995
 31
0.0
  0
LINE
  5
35D
  8
0
 62
     7
 10
87.306174999999996
 20
664.512203
 30
0.0
 11
88.348060999999987
 21
658.60335899999995
 31
0.0
  0
LINE
  5
35E
  8
0
 62
     7
 10
87.306128999999999
 20
521.51221099999998
 30
0.0
 11
87.306174999999996
 21
664.512203
 31
0.0
  0
LINE
  5
35F
  8
0
 62
     7
 10
83.306128999999999
 20
521.51221099999998
 30
0.0
 11
173.779526
 21
521.51217999999994
 31
0.0
  0
LINE
  5
360
  8
0
 62
     7
 10
83.306174999999996
 20
664.512203
 30
0.0
 11
173.779572
 21
664.51217999999994
 31
0.0
  0
LINE
  5
361
  8
0
 62
     7
 10
159.10655199999991
 20
421.53182600000002
 30
0.0
 11
165.01539600000001
 21
420.48995599999989
 31
0.0
  0
LINE
  5
362
  8
0
 62
     7
 10
159.10655199999991
 20
421.53182600000002
 30
0.0
 11
165.01539600000001
 21
422.57372699999991
 31
0.0
  0
LINE
  5
363
  8
0
 62
     7
 10
266.10771199999988
 20
421.53182600000002
 30
0.0
 11
260.198868
 21
422.57372699999991
 31
0.0
  0
LINE
  5
364
  8
0
 62
     7
 10
266.10771199999988
 20
421.53182600000002
 30
0.0
 11
260.198868
 21
420.48995599999989
 31
0.0
  0
LINE
  5
365
  8
0
 62
     7
 10
268.10771199999988
 20
421.53182600000002
 30
0.0
 11
274.01655599999992
 21
420.48995599999989
 31
0.0
  0
LINE
  5
366
  8
0
 62
     7
 10
268.10771199999988
 20
421.53182600000002
 30
0.0
 11
274.01655599999992
 21
422.57372699999991
 31
0.0
  0
LINE
  5
367
  8
0
 62
     7
 10
159.10655199999991
 20
421.53182600000002
 30
0.0
 11
279.60771199999999
 21
421.53182600000002
 31
0.0
  0
LINE
  5
368
  8
0
 62
     7
 10
159.10655199999991
 20
417.53182600000002
 30
0.0
 11
159.10655199999991
 21
497.1827429999999
 31
0.0
  0
LINE
  5
369
  8
0
 62
     7
 10
266.10771199999988
 20
417.53184099999999
 30
0.0
 11
266.10771199999988
 21
462.85008599999998
 31
0.0
  0
LINE
  5
36A
  8
0
 62
     7
 10
268.10771199999988
 20
417.53182600000002
 30
0.0
 11
268.10771199999988
 21
464.28934099999998
 31
0.0
  0
LINE
  5
36B
  8
0
 62
     5
 10
104.0059199999999
 20
590.76220299999989
 30
0.0
 11
105.04780599999999
 21
596.67104699999993
 31
0.0
  0
LINE
  5
36C
  8
0
 62
     5
 10
104.0059199999999
 20
590.76220299999989
 30
0.0
 11
102.96402
 21
596.67104699999993
 31
0.0
  0
LINE
  5
36D
  8
0
 62
     5
 10
104.0059049999999
 20
664.512203
 30
0.0
 11
102.96402
 21
658.60335899999995
 31
0.0
  0
LINE
  5
36E
  8
0
 62
     5
 10
104.0059049999999
 20
664.512203
 30
0.0
 11
105.04780599999999
 21
658.60335899999995
 31
0.0
  0
LINE
  5
36F
  8
0
 62
     5
 10
104.0059199999999
 20
590.76220299999989
 30
0.0
 11
104.0059199999999
 21
664.512203
 31
0.0
  0
LINE
  5
370
  8
0
 62
     5
 10
100.0059199999999
 20
590.76220299999989
 30
0.0
 11
138.42785599999999
 21
590.76220299999989
 31
0.0
  0
LINE
  5
371
  8
0
 62
     5
 10
100.0059049999999
 20
664.512203
 30
0.0
 11
173.779526
 21
664.51221099999987
 31
0.0
  0
LINE
  5
372
  8
0
 62
     7
 10
159.10655199999991
 20
481.46370300000001
 30
0.0
 11
165.01539600000001
 21
480.42181799999992
 31
0.0
  0
LINE
  5
373
  8
0
 62
     7
 10
159.10655199999991
 20
481.46370300000001
 30
0.0
 11
165.01539600000001
 21
482.50558899999987
 31
0.0
  0
LINE
  5
374
  8
0
 62
     7
 10
179.10655199999999
 20
481.46370300000001
 30
0.0
 11
173.19770800000001
 21
482.50558899999987
 31
0.0
  0
LINE
  5
375
  8
0
 62
     7
 10
179.10655199999999
 20
481.46370300000001
 30
0.0
 11
173.19770800000001
 21
480.42181799999992
 31
0.0
  0
LINE
  5
376
  8
0
 62
     7
 10
142.10655199999991
 20
481.46370300000001
 30
0.0
 11
179.10655199999999
 21
481.46370300000001
 31
0.0
  0
LINE
  5
377
  8
0
 62
     7
 10
159.10655199999991
 20
477.46370300000001
 30
0.0
 11
159.10655199999991
 21
497.1827429999999
 31
0.0
  0
LINE
  5
378
  8
0
 62
     7
 10
179.10655199999999
 20
477.46370300000001
 30
0.0
 11
179.10655199999999
 21
512.51221099999987
 31
0.0
  0
LINE
  5
379
  8
0
 62
     7
 10
179.10655199999999
 20
469.40587199999999
 30
0.0
 11
173.19770800000001
 21
470.44775800000002
 31
0.0
  0
LINE
  5
37A
  8
0
 62
     7
 10
179.10655199999999
 20
469.40587199999999
 30
0.0
 11
173.19770800000001
 21
468.36398700000001
 31
0.0
  0
POLYLINE
  5
37B
  8
0
 62
     7
 66
     1
 10
0.0
 20
0.0
 30
0.0
 70
     1
  0
VERTEX
  5
81B
  8
0
 62
     7
 10
185.10655199999991
 20
469.40587199999999
 30
0.0
  0
VERTEX
  5
81C
  8
0
 62
     7
 10
184.81366
 20
470.11297999999999
 30
0.0
  0
VERTEX
  5
81D
  8
0
 62
     7
 10
184.10655199999991
 20
470.40587199999987
 30
0.0
  0
VERTEX
  5
81E
  8
0
 62
     7
 10
183.3994449999999
 20
470.11297999999999
 30
0.0
  0
VERTEX
  5
81F
  8
0
 62
     7
 10
183.10655199999991
 20
469.40587199999999
 30
0.0
  0
VERTEX
  5
820
  8
0
 62
     7
 10
183.3994449999999
 20
468.69876499999998
 30
0.0
  0
VERTEX
  5
821
  8
0
 62
     7
 10
184.10655199999991
 20
468.40587199999999
 30
0.0
  0
VERTEX
  5
822
  8
0
 62
     7
 10
184.81366
 20
468.69876499999998
 30
0.0
  0
SEQEND
  5
823
  8
0
 62
     7
  0
LINE
  5
385
  8
0
 62
     7
 10
189.10655199999991
 20
469.40587199999999
 30
0.0
 11
195.01539600000001
 21
468.36398700000001
 31
0.0
  0
LINE
  5
386
  8
0
 62
     7
 10
189.10655199999991
 20
469.40587199999999
 30
0.0
 11
195.01539600000001
 21
470.44775800000002
 31
0.0
  0
LINE
  5
387
  8
0
 62
     7
 10
167.60655199999991
 20
469.40587199999999
 30
0.0
 11
225.4172209999999
 21
469.40587199999999
 31
0.0
  0
LINE
  5
388
  8
0
 62
     7
 10
179.10655199999999
 20
465.40587199999999
 30
0.0
 11
179.10655199999999
 21
512.51221099999987
 31
0.0
  0
LINE
  5
389
  8
0
 62
     7
 10
184.10655199999991
 20
465.40587199999999
 30
0.0
 11
184.10655199999991
 21
512.51221099999987
 31
0.0
  0
LINE
  5
38A
  8
0
 62
     7
 10
189.10655199999991
 20
465.40587199999999
 30
0.0
 11
189.10655199999991
 21
512.51221099999987
 31
0.0
  0
LINE
  5
38B
  8
0
 62
     7
 10
103.66540500000001
 20
664.512203
 30
0.0
 11
104.707291
 21
670.42104699999993
 31
0.0
  0
LINE
  5
38C
  8
0
 62
     7
 10
103.66540500000001
 20
664.512203
 30
0.0
 11
102.6235199999999
 21
670.42104699999993
 31
0.0
  0
LINE
  5
38D
  8
0
 62
     7
 10
103.66540500000001
 20
698.012203
 30
0.0
 11
102.6235199999999
 21
692.10335899999995
 31
0.0
  0
LINE
  5
38E
  8
0
 62
     7
 10
103.66540500000001
 20
698.012203
 30
0.0
 11
104.707291
 21
692.10335899999995
 31
0.0
  0
LINE
  5
38F
  8
0
 62
     7
 10
103.66540500000001
 20
710.512203
 30
0.0
 11
104.707291
 21
716.42104699999993
 31
0.0
  0
LINE
  5
390
  8
0
 62
     7
 10
103.66540500000001
 20
710.512203
 30
0.0
 11
102.6235199999999
 21
716.42104699999993
 31
0.0
  0
LINE
  5
391
  8
0
 62
     7
 10
103.66540500000001
 20
664.512203
 30
0.0
 11
103.66540500000001
 21
738.51220299999989
 31
0.0
  0
LINE
  5
392
  8
0
 62
     7
 10
99.665405000000007
 20
664.512203
 30
0.0
 11
173.779526
 21
664.51221099999987
 31
0.0
  0
LINE
  5
393
  8
0
 62
     7
 10
99.665405000000007
 20
698.012203
 30
0.0
 11
173.779526
 21
698.01221099999987
 31
0.0
  0
LINE
  5
394
  8
0
 62
     7
 10
99.665405000000007
 20
710.512203
 30
0.0
 11
184.10655199999991
 21
710.512203
 31
0.0
  0
LINE
  5
395
  8
0
 62
     7
 10
159.10655199999991
 20
731.810879
 30
0.0
 11
165.01539600000001
 21
730.76899300000002
 31
0.0
  0
LINE
  5
396
  8
0
 62
     7
 10
159.10655199999991
 20
731.810879
 30
0.0
 11
165.01539600000001
 21
732.85277900000006
 31
0.0
  0
LINE
  5
397
  8
0
 62
     7
 10
184.10655199999991
 20
731.810879
 30
0.0
 11
178.19770800000001
 21
732.85276399999987
 31
0.0
  0
LINE
  5
398
  8
0
 62
     7
 10
184.10655199999991
 20
731.810879
 30
0.0
 11
178.19770800000001
 21
730.76897799999995
 31
0.0
  0
LINE
  5
399
  8
0
 62
     7
 10
190.10655199999991
 20
731.810879
 30
0.0
 11
196.01539600000001
 21
730.76899300000002
 31
0.0
  0
LINE
  5
39A
  8
0
 62
     7
 10
190.10655199999991
 20
731.810879
 30
0.0
 11
196.01539600000001
 21
732.85277900000006
 31
0.0
  0
LINE
  5
39B
  8
0
 62
     7
 10
159.10655199999991
 20
731.810879
 30
0.0
 11
201.60655199999999
 21
731.810879
 31
0.0
  0
LINE
  5
39C
  8
0
 62
     7
 10
159.10655199999991
 20
735.810879
 30
0.0
 11
159.10655199999991
 21
688.04050800000005
 31
0.0
  0
LINE
  5
39D
  8
0
 62
     7
 10
184.10655199999991
 20
735.810879
 30
0.0
 11
184.10655199999991
 21
710.512203
 31
0.0
  0
LINE
  5
39E
  8
0
 62
     7
 10
190.10655199999991
 20
735.810879
 30
0.0
 11
190.10655199999991
 21
710.512203
 31
0.0
  0
LINE
  5
39F
  8
0
 62
     2
 10
132.38110399999999
 20
517.51221099999998
 30
0.0
 11
131.3392179999999
 21
511.60335199999997
 31
0.0
  0
LINE
  5
3A0
  8
0
 62
     2
 10
132.38110399999999
 20
517.51221099999998
 30
0.0
 11
133.42300399999999
 21
511.60335199999997
 31
0.0
  0
LINE
  5
3A1
  8
0
 62
     2
 10
132.38110399999999
 20
525.51221099999998
 30
0.0
 11
133.42300399999999
 21
531.42105500000002
 31
0.0
  0
LINE
  5
3A2
  8
0
 62
     2
 10
132.38110399999999
 20
525.51221099999998
 30
0.0
 11
131.3392179999999
 21
531.42105500000002
 31
0.0
  0
LINE
  5
3A3
  8
0
 62
     2
 10
132.38110399999999
 20
500.51221099999998
 30
0.0
 11
132.38110399999999
 21
525.51221099999998
 31
0.0
  0
LINE
  5
3A4
  8
0
 62
     2
 10
128.38110399999999
 20
517.51219600000002
 30
0.0
 11
179.10655199999999
 21
517.51221099999998
 31
0.0
  0
LINE
  5
3A5
  8
0
 62
     2
 10
128.38110399999999
 20
525.51219600000002
 30
0.0
 11
179.10655199999999
 21
525.51221099999998
 31
0.0
  0
LINE
  5
3A6
  8
0
  6
DASHDOT
 62
     7
 10
530.90725099999997
 20
709.58317899999997
 30
0.0
 11
530.90725099999997
 21
466.70055000000002
 31
0.0
  0
LINE
  5
3A7
  8
0
  6
DASHDOT
 62
     7
 10
560.86037599999997
 20
662.51220299999989
 30
0.0
 11
496.70269999999988
 21
662.51220299999989
 31
0.0
  0
LINE
  5
3A8
  8
0
  6
DASHDOT
 62
     7
 10
556.98271599999987
 20
523.512203
 30
0.0
 11
496.70269999999988
 21
523.512203
 31
0.0
  0
LINE
  5
3A9
  8
0
  6
DASHDOT
 62
     7
 10
513.40725099999997
 20
674.33170700000005
 30
0.0
 11
513.40725099999997
 21
506.887226
 31
0.0
  0
LINE
  5
3AA
  8
0
  6
DASHDOT
 62
     7
 10
548.40725099999986
 20
675.74176399999988
 30
0.0
 11
548.40725099999986
 21
507.94476700000001
 31
0.0
  0
POLYLINE
  5
3AB
  8
0
 62
     3
 66
     1
 10
0.0
 20
0.0
 30
0.0
  0
VERTEX
  5
824
  8
0
 62
     3
 10
483.40725099999992
 20
703.94294400000001
 30
0.0
  0
VERTEX
  5
825
  8
0
 62
     3
 10
483.40725099999992
 20
687.94294400000001
 30
0.0
  0
VERTEX
  5
826
  8
0
 62
     3
 10
485.40725099999992
 20
686.94294400000001
 30
0.0
  0
VERTEX
  5
827
  8
0
 62
     3
 10
481.40725099999992
 20
685.94294400000001
 30
0.0
  0
VERTEX
  5
828
  8
0
 62
     3
 10
483.40725099999992
 20
684.94294400000001
 30
0.0
  0
VERTEX
  5
829
  8
0
 62
     3
 10
483.40725099999992
 20
668.94294400000001
 30
0.0
  0
VERTEX
  5
82A
  8
0
 62
     3
 10
485.40725099999992
 20
667.9429439999999
 30
0.0
  0
VERTEX
  5
82B
  8
0
 62
     3
 10
481.40725099999992
 20
666.94294400000001
 30
0.0
  0
VERTEX
  5
82C
  8
0
 62
     3
 10
483.40725099999992
 20
665.94294400000001
 30
0.0
  0
VERTEX
  5
82D
  8
0
 62
     3
 10
483.40725099999992
 20
649.94294400000001
 30
0.0
  0
VERTEX
  5
82E
  8
0
 62
     3
 10
485.40725099999992
 20
648.94294400000001
 30
0.0
  0
VERTEX
  5
82F
  8
0
 62
     3
 10
481.40725099999992
 20
647.94294400000001
 30
0.0
  0
VERTEX
  5
830
  8
0
 62
     3
 10
483.40725099999992
 20
646.9429439999999
 30
0.0
  0
VERTEX
  5
831
  8
0
 62
     3
 10
483.40725099999992
 20
630.94294400000001
 30
0.0
  0
VERTEX
  5
832
  8
0
 62
     3
 10
485.40725099999992
 20
629.9429439999999
 30
0.0
  0
VERTEX
  5
833
  8
0
 62
     3
 10
481.40725099999992
 20
628.94294400000001
 30
0.0
  0
VERTEX
  5
834
  8
0
 62
     3
 10
483.40725099999992
 20
627.94294400000001
 30
0.0
  0
VERTEX
  5
835
  8
0
 62
     3
 10
483.40725099999992
 20
611.94294400000001
 30
0.0
  0
VERTEX
  5
836
  8
0
 62
     3
 10
485.40725099999992
 20
610.94294400000001
 30
0.0
  0
VERTEX
  5
837
  8
0
 62
     3
 10
481.40725099999992
 20
609.94294400000001
 30
0.0
  0
VERTEX
  5
838
  8
0
 62
     3
 10
483.40725099999992
 20
608.9429439999999
 30
0.0
  0
VERTEX
  5
839
  8
0
 62
     3
 10
483.40725099999992
 20
592.9429439999999
 30
0.0
  0
VERTEX
  5
83A
  8
0
 62
     3
 10
485.40725099999992
 20
591.94294400000001
 30
0.0
  0
VERTEX
  5
83B
  8
0
 62
     3
 10
481.40725099999992
 20
590.94294400000001
 30
0.0
  0
VERTEX
  5
83C
  8
0
 62
     3
 10
483.40725099999992
 20
589.94294400000001
 30
0.0
  0
VERTEX
  5
83D
  8
0
 62
     3
 10
483.40725099999992
 20
573.94294400000001
 30
0.0
  0
VERTEX
  5
83E
  8
0
 62
     3
 10
485.40725099999992
 20
572.94294400000001
 30
0.0
  0
VERTEX
  5
83F
  8
0
 62
     3
 10
481.40725099999992
 20
571.9429439999999
 30
0.0
  0
VERTEX
  5
840
  8
0
 62
     3
 10
483.40725099999992
 20
570.94294400000001
 30
0.0
  0
VERTEX
  5
841
  8
0
 62
     3
 10
483.40725099999992
 20
554.9429439999999
 30
0.0
  0
VERTEX
  5
842
  8
0
 62
     3
 10
485.40725099999992
 20
553.94294400000001
 30
0.0
  0
VERTEX
  5
843
  8
0
 62
     3
 10
481.40725099999992
 20
552.94294400000001
 30
0.0
  0
VERTEX
  5
844
  8
0
 62
     3
 10
483.40725099999992
 20
551.94294400000001
 30
0.0
  0
VERTEX
  5
845
  8
0
 62
     3
 10
483.40725099999992
 20
535.94294400000001
 30
0.0
  0
VERTEX
  5
846
  8
0
 62
     3
 10
485.40725099999992
 20
534.94294400000001
 30
0.0
  0
VERTEX
  5
847
  8
0
 62
     3
 10
481.40725099999992
 20
533.9429439999999
 30
0.0
  0
VERTEX
  5
848
  8
0
 62
     3
 10
483.40725099999992
 20
532.94294400000001
 30
0.0
  0
VERTEX
  5
849
  8
0
 62
     3
 10
483.40725099999992
 20
516.94294400000001
 30
0.0
  0
VERTEX
  5
84A
  8
0
 62
     3
 10
485.40725099999992
 20
515.94294400000001
 30
0.0
  0
VERTEX
  5
84B
  8
0
 62
     3
 10
481.40725099999992
 20
514.94294400000001
 30
0.0
  0
VERTEX
  5
84C
  8
0
 62
     3
 10
483.40725099999992
 20
513.9429439999999
 30
0.0
  0
VERTEX
  5
84D
  8
0
 62
     3
 10
483.40725099999992
 20
497.94294400000001
 30
0.0
  0
VERTEX
  5
84E
  8
0
 62
     3
 10
485.40725099999992
 20
496.94294400000001
 30
0.0
  0
VERTEX
  5
84F
  8
0
 62
     3
 10
481.40725099999992
 20
495.94294400000001
 30
0.0
  0
VERTEX
  5
850
  8
0
 62
     3
 10
483.40725099999992
 20
494.94294400000013
 30
0.0
  0
VERTEX
  5
851
  8
0
 62
     3
 10
483.40725099999992
 20
480.44862000000001
 30
0.0
  0
SEQEND
  5
852
  8
0
 62
     3
  0
POLYLINE
  5
3DB
  8
0
 62
     3
 66
     1
 10
0.0
 20
0.0
 30
0.0
  0
VERTEX
  5
853
  8
0
 62
     3
 10
578.40725099999986
 20
703.94294400000001
 30
0.0
  0
VERTEX
  5
854
  8
0
 62
     3
 10
578.40725099999986
 20
687.94294400000001
 30
0.0
  0
VERTEX
  5
855
  8
0
 62
     3
 10
580.40725099999997
 20
686.94294400000001
 30
0.0
  0
VERTEX
  5
856
  8
0
 62
     3
 10
576.40725099999997
 20
685.94294400000001
 30
0.0
  0
VERTEX
  5
857
  8
0
 62
     3
 10
578.40725099999986
 20
684.94294400000001
 30
0.0
  0
VERTEX
  5
858
  8
0
 62
     3
 10
578.40725099999986
 20
668.94294400000001
 30
0.0
  0
VERTEX
  5
859
  8
0
 62
     3
 10
580.40725099999997
 20
667.9429439999999
 30
0.0
  0
VERTEX
  5
85A
  8
0
 62
     3
 10
576.40725099999997
 20
666.94294400000001
 30
0.0
  0
VERTEX
  5
85B
  8
0
 62
     3
 10
578.40725099999986
 20
665.94294400000001
 30
0.0
  0
VERTEX
  5
85C
  8
0
 62
     3
 10
578.40725099999986
 20
649.94294400000001
 30
0.0
  0
VERTEX
  5
85D
  8
0
 62
     3
 10
580.40725099999997
 20
648.94294400000001
 30
0.0
  0
VERTEX
  5
85E
  8
0
 62
     3
 10
576.40725099999997
 20
647.94294400000001
 30
0.0
  0
VERTEX
  5
85F
  8
0
 62
     3
 10
578.40725099999986
 20
646.9429439999999
 30
0.0
  0
VERTEX
  5
860
  8
0
 62
     3
 10
578.40725099999986
 20
630.94294400000001
 30
0.0
  0
VERTEX
  5
861
  8
0
 62
     3
 10
580.40725099999997
 20
629.9429439999999
 30
0.0
  0
VERTEX
  5
862
  8
0
 62
     3
 10
576.40725099999997
 20
628.94294400000001
 30
0.0
  0
VERTEX
  5
863
  8
0
 62
     3
 10
578.40725099999986
 20
627.94294400000001
 30
0.0
  0
VERTEX
  5
864
  8
0
 62
     3
 10
578.40725099999986
 20
611.94294400000001
 30
0.0
  0
VERTEX
  5
865
  8
0
 62
     3
 10
580.40725099999997
 20
610.94294400000001
 30
0.0
  0
VERTEX
  5
866
  8
0
 62
     3
 10
576.40725099999997
 20
609.94294400000001
 30
0.0
  0
VERTEX
  5
867
  8
0
 62
     3
 10
578.40725099999986
 20
608.9429439999999
 30
0.0
  0
VERTEX
  5
868
  8
0
 62
     3
 10
578.40725099999986
 20
592.9429439999999
 30
0.0
  0
VERTEX
  5
869
  8
0
 62
     3
 10
580.40725099999997
 20
591.94294400000001
 30
0.0
  0
VERTEX
  5
86A
  8
0
 62
     3
 10
576.40725099999997
 20
590.94294400000001
 30
0.0
  0
VERTEX
  5
86B
  8
0
 62
     3
 10
578.40725099999986
 20
589.94294400000001
 30
0.0
  0
VERTEX
  5
86C
  8
0
 62
     3
 10
578.40725099999986
 20
573.94294400000001
 30
0.0
  0
VERTEX
  5
86D
  8
0
 62
     3
 10
580.40725099999997
 20
572.94294400000001
 30
0.0
  0
VERTEX
  5
86E
  8
0
 62
     3
 10
576.40725099999997
 20
571.9429439999999
 30
0.0
  0
VERTEX
  5
86F
  8
0
 62
     3
 10
578.40725099999986
 20
570.94294400000001
 30
0.0
  0
VERTEX
  5
870
  8
0
 62
     3
 10
578.40725099999986
 20
554.9429439999999
 30
0.0
  0
VERTEX
  5
871
  8
0
 62
     3
 10
580.40725099999997
 20
553.94294400000001
 30
0.0
  0
VERTEX
  5
872
  8
0
 62
     3
 10
576.40725099999997
 20
552.94294400000001
 30
0.0
  0
VERTEX
  5
873
  8
0
 62
     3
 10
578.40725099999986
 20
551.94294400000001
 30
0.0
  0
VERTEX
  5
874
  8
0
 62
     3
 10
578.40725099999986
 20
535.94294400000001
 30
0.0
  0
VERTEX
  5
875
  8
0
 62
     3
 10
580.40725099999997
 20
534.94294400000001
 30
0.0
  0
VERTEX
  5
876
  8
0
 62
     3
 10
576.40725099999997
 20
533.9429439999999
 30
0.0
  0
VERTEX
  5
877
  8
0
 62
     3
 10
578.40725099999986
 20
532.94294400000001
 30
0.0
  0
VERTEX
  5
878
  8
0
 62
     3
 10
578.40725099999986
 20
516.94294400000001
 30
0.0
  0
VERTEX
  5
879
  8
0
 62
     3
 10
580.40725099999997
 20
515.94294400000001
 30
0.0
  0
VERTEX
  5
87A
  8
0
 62
     3
 10
576.40725099999997
 20
514.94294400000001
 30
0.0
  0
VERTEX
  5
87B
  8
0
 62
     3
 10
578.40725099999986
 20
513.9429439999999
 30
0.0
  0
VERTEX
  5
87C
  8
0
 62
     3
 10
578.40725099999986
 20
497.94294400000001
 30
0.0
  0
VERTEX
  5
87D
  8
0
 62
     3
 10
580.40725099999997
 20
496.94294400000001
 30
0.0
  0
VERTEX
  5
87E
  8
0
 62
     3
 10
576.40725099999997
 20
495.94294400000001
 30
0.0
  0
VERTEX
  5
87F
  8
0
 62
     3
 10
578.40725099999986
 20
494.94294400000013
 30
0.0
  0
VERTEX
  5
880
  8
0
 62
     3
 10
578.40725099999986
 20
481.50616799999989
 30
0.0
  0
SEQEND
  5
881
  8
0
 62
     3
  0
POLYLINE
  5
40B
  8
0
 62
     3
 66
     1
 10
0.0
 20
0.0
 30
0.0
  0
VERTEX
  5
882
  8
0
 62
     3
 10
595.75933299999986
 20
692.51220299999989
 30
0.0
  0
VERTEX
  5
883
  8
0
 62
     3
 10
579.75933299999986
 20
692.51220299999989
 30
0.0
  0
VERTEX
  5
884
  8
0
 62
     3
 10
578.75933299999986
 20
690.512203
 30
0.0
  0
VERTEX
  5
885
  8
0
 62
     3
 10
577.75933299999997
 20
694.512203
 30
0.0
  0
VERTEX
  5
886
  8
0
 62
     3
 10
576.75933299999986
 20
692.51220299999989
 30
0.0
  0
VERTEX
  5
887
  8
0
 62
     3
 10
560.75933299999986
 20
692.51220299999989
 30
0.0
  0
VERTEX
  5
888
  8
0
 62
     3
 10
559.75933299999986
 20
690.512203
 30
0.0
  0
VERTEX
  5
889
  8
0
 62
     3
 10
558.75933299999986
 20
694.512203
 30
0.0
  0
VERTEX
  5
88A
  8
0
 62
     3
 10
557.75933299999997
 20
692.51220299999989
 30
0.0
  0
VERTEX
  5
88B
  8
0
 62
     3
 10
541.75933299999986
 20
692.51220299999989
 30
0.0
  0
VERTEX
  5
88C
  8
0
 62
     3
 10
540.75933299999997
 20
690.512203
 30
0.0
  0
VERTEX
  5
88D
  8
0
 62
     3
 10
539.75933299999986
 20
694.512203
 30
0.0
  0
VERTEX
  5
88E
  8
0
 62
     3
 10
538.75933299999986
 20
692.51220299999989
 30
0.0
  0
VERTEX
  5
88F
  8
0
 62
     3
 10
522.75933299999986
 20
692.51220299999989
 30
0.0
  0
VERTEX
  5
890
  8
0
 62
     3
 10
521.75933299999986
 20
690.512203
 30
0.0
  0
VERTEX
  5
891
  8
0
 62
     3
 10
520.75933299999986
 20
694.512203
 30
0.0
  0
VERTEX
  5
892
  8
0
 62
     3
 10
519.75933299999997
 20
692.51220299999989
 30
0.0
  0
VERTEX
  5
893
  8
0
 62
     3
 10
503.75933299999991
 20
692.51220299999989
 30
0.0
  0
VERTEX
  5
894
  8
0
 62
     3
 10
502.75933300000003
 20
690.512203
 30
0.0
  0
VERTEX
  5
895
  8
0
 62
     3
 10
501.75933300000003
 20
694.512203
 30
0.0
  0
VERTEX
  5
896
  8
0
 62
     3
 10
500.75933300000003
 20
692.51220299999989
 30
0.0
  0
VERTEX
  5
897
  8
0
 62
     3
 10
484.75933300000003
 20
692.51220299999989
 30
0.0
  0
VERTEX
  5
898
  8
0
 62
     3
 10
483.75933300000003
 20
690.512203
 30
0.0
  0
VERTEX
  5
899
  8
0
 62
     3
 10
482.75933300000003
 20
694.512203
 30
0.0
  0
VERTEX
  5
89A
  8
0
 62
     3
 10
481.75933300000003
 20
692.51220299999989
 30
0.0
  0
VERTEX
  5
89B
  8
0
 62
     3
 10
475.5518209999999
 20
692.51220299999989
 30
0.0
  0
SEQEND
  5
89C
  8
0
 62
     3
  0
POLYLINE
  5
427
  8
0
 62
     3
 66
     1
 10
0.0
 20
0.0
 30
0.0
  0
VERTEX
  5
89D
  8
0
 62
     3
 10
591.52915399999995
 20
493.512203
 30
0.0
  0
VERTEX
  5
89E
  8
0
 62
     3
 10
575.52915399999995
 20
493.512203
 30
0.0
  0
VERTEX
  5
89F
  8
0
 62
     3
 10
574.52915399999995
 20
491.512203
 30
0.0
  0
VERTEX
  5
8A0
  8
0
 62
     3
 10
573.52915399999995
 20
495.512203
 30
0.0
  0
VERTEX
  5
8A1
  8
0
 62
     3
 10
572.52915399999995
 20
493.512203
 30
0.0
  0
VERTEX
  5
8A2
  8
0
 62
     3
 10
556.52915399999995
 20
493.512203
 30
0.0
  0
VERTEX
  5
8A3
  8
0
 62
     3
 10
555.52915399999995
 20
491.512203
 30
0.0
  0
VERTEX
  5
8A4
  8
0
 62
     3
 10
554.52915399999995
 20
495.512203
 30
0.0
  0
VERTEX
  5
8A5
  8
0
 62
     3
 10
553.52915399999995
 20
493.512203
 30
0.0
  0
VERTEX
  5
8A6
  8
0
 62
     3
 10
537.52915399999995
 20
493.512203
 30
0.0
  0
VERTEX
  5
8A7
  8
0
 62
     3
 10
536.52915399999995
 20
491.512203
 30
0.0
  0
VERTEX
  5
8A8
  8
0
 62
     3
 10
535.52915399999995
 20
495.512203
 30
0.0
  0
VERTEX
  5
8A9
  8
0
 62
     3
 10
534.52915399999995
 20
493.512203
 30
0.0
  0
VERTEX
  5
8AA
  8
0
 62
     3
 10
518.52915399999995
 20
493.512203
 30
0.0
  0
VERTEX
  5
8AB
  8
0
 62
     3
 10
517.52915399999995
 20
491.512203
 30
0.0
  0
VERTEX
  5
8AC
  8
0
 62
     3
 10
516.52915399999995
 20
495.512203
 30
0.0
  0
VERTEX
  5
8AD
  8
0
 62
     3
 10
515.52915399999995
 20
493.512203
 30
0.0
  0
VERTEX
  5
8AE
  8
0
 62
     3
 10
499.52915400000001
 20
493.512203
 30
0.0
  0
VERTEX
  5
8AF
  8
0
 62
     3
 10
498.52915400000001
 20
491.512203
 30
0.0
  0
VERTEX
  5
8B0
  8
0
 62
     3
 10
497.52915399999989
 20
495.512203
 30
0.0
  0
VERTEX
  5
8B1
  8
0
 62
     3
 10
496.52915399999989
 20
493.512203
 30
0.0
  0
VERTEX
  5
8B2
  8
0
 62
     3
 10
480.52915399999989
 20
493.512203
 30
0.0
  0
VERTEX
  5
8B3
  8
0
 62
     3
 10
479.52915400000001
 20
491.512203
 30
0.0
  0
VERTEX
  5
8B4
  8
0
 62
     3
 10
478.52915400000001
 20
495.512203
 30
0.0
  0
VERTEX
  5
8B5
  8
0
 62
     3
 10
477.52915400000001
 20
493.512203
 30
0.0
  0
VERTEX
  5
8B6
  8
0
 62
     3
 10
471.67415799999998
 20
493.512203
 30
0.0
  0
SEQEND
  5
8B7
  8
0
 62
     3
  0
CIRCLE
  5
443
  8
0
 62
     7
 10
513.40725099999997
 20
662.51220299999989
 30
0.0
 40
2.75
  0
CIRCLE
  5
444
  8
0
 62
     7
 10
548.40725099999986
 20
662.51220299999989
 30
0.0
 40
2.75
  0
CIRCLE
  5
445
  8
0
 62
     7
 10
513.40725099999997
 20
523.512203
 30
0.0
 40
2.75
  0
CIRCLE
  5
446
  8
0
 62
     7
 10
548.40725099999986
 20
523.512203
 30
0.0
 40
2.75
  0
CIRCLE
  5
447
  8
0
 62
     7
 10
498.11276099999998
 20
675.59144200000003
 30
0.0
 40
0.4
  0
LINE
  5
448
  8
0
  6
DASHDOT
 62
     7
 10
653.92667599999993
 20
590.76220299999989
 30
0.0
 11
420.1301519999999
 21
590.76220299999989
 31
0.0
  0
LINE
  5
449
  8
0
 62
     7
 10
411.39415200000002
 20
662.51220299999989
 30
0.0
 11
409.31036599999987
 21
650.69451499999991
 31
0.0
  0
LINE
  5
44A
  8
0
 62
     7
 10
411.39415200000002
 20
662.51220299999989
 30
0.0
 11
413.47792199999998
 21
650.69451499999991
 31
0.0
  0
LINE
  5
44B
  8
0
 62
     7
 10
411.394091
 20
523.512203
 30
0.0
 11
413.47787699999992
 21
535.32989099999986
 31
0.0
  0
LINE
  5
44C
  8
0
 62
     7
 10
411.394091
 20
523.512203
 30
0.0
 11
409.31031999999999
 21
535.32989099999986
 31
0.0
  0
LINE
  5
44D
  8
0
 62
     7
 10
411.39415200000002
 20
662.51220299999989
 30
0.0
 11
411.39410600000002
 21
523.512203
 31
0.0
  0
LINE
  5
44E
  8
0
 62
     7
 10
403.39415199999991
 20
662.51220299999989
 30
0.0
 11
496.70269200000001
 21
662.51214200000004
 31
0.0
  0
LINE
  5
44F
  8
0
 62
     7
 10
403.394091
 20
523.512203
 30
0.0
 11
496.70264600000002
 21
523.512203
 31
0.0
  0
LINE
  5
450
  8
0
 62
     7
 10
548.40725099999986
 20
613.69915400000002
 30
0.0
 11
560.22494299999994
 21
611.61541399999987
 31
0.0
  0
LINE
  5
451
  8
0
 62
     7
 10
548.40725099999986
 20
613.69915400000002
 30
0.0
 11
560.22494299999994
 21
615.78295500000002
 31
0.0
  0
LINE
  5
452
  8
0
 62
     7
 10
513.40726700000005
 20
613.69915400000002
 30
0.0
 11
501.58957099999992
 21
615.78295500000002
 31
0.0
  0
LINE
  5
453
  8
0
 62
     7
 10
513.40726700000005
 20
613.69915400000002
 30
0.0
 11
501.58957099999992
 21
611.61541399999987
 31
0.0
  0
LINE
  5
454
  8
0
 62
     7
 10
632.06833800000004
 20
613.69915400000002
 30
0.0
 11
513.40726700000005
 21
613.69915400000002
 31
0.0
  0
LINE
  5
455
  8
0
 62
     7
 10
510.89011599999998
 20
522.40472
 30
0.0
 11
499.23393399999998
 21
519.55279199999995
 31
0.0
  0
LINE
  5
456
  8
0
 62
     7
 10
510.89011599999998
 20
522.40472
 30
0.0
 11
500.91230999999999
 21
515.73815500000001
 31
0.0
  0
LINE
  5
457
  8
0
 62
     7
 10
515.92438700000002
 20
524.619686
 30
0.0
 11
527.58056099999988
 21
527.471676
 31
0.0
  0
LINE
  5
458
  8
0
 62
     7
 10
515.92438700000002
 20
524.619686
 30
0.0
 11
525.90219300000001
 21
531.28631200000007
 31
0.0
  0
LINE
  5
459
  8
0
 62
     7
 10
515.92438700000002
 20
524.619686
 30
0.0
 11
344.09231
 21
449.01708600000001
 31
0.0
  0
LINE
  5
45A
  8
0
 62
     5
 10
441.26045399999998
 20
662.51220299999989
 30
0.0
 11
439.17668300000003
 21
650.69451499999991
 31
0.0
  0
LINE
  5
45B
  8
0
 62
     5
 10
441.26045399999998
 20
662.51220299999989
 30
0.0
 11
443.34424000000001
 21
650.69451499999991
 31
0.0
  0
LINE
  5
45C
  8
0
 62
     5
 10
441.26045399999998
 20
590.76220299999989
 30
0.0
 11
443.34422499999988
 21
602.57989099999986
 31
0.0
  0
LINE
  5
45D
  8
0
 62
     5
 10
441.26045399999998
 20
590.76220299999989
 30
0.0
 11
439.17666799999989
 21
602.57989099999986
 31
0.0
  0
LINE
  5
45E
  8
0
 62
     5
 10
441.26045399999998
 20
662.51220299999989
 30
0.0
 11
441.26045399999998
 21
590.76220299999989
 31
0.0
  0
LINE
  5
45F
  8
0
 62
     5
 10
433.26045399999998
 20
662.51220299999989
 30
0.0
 11
496.70269999999988
 21
662.51220299999989
 31
0.0
  0
LINE
  5
460
  8
0
 62
     7
 10
806.37815899999987
 20
534.762203
 30
0.0
 11
918.37815899999998
 21
534.762203
 31
0.0
  0
LINE
  5
461
  8
0
 62
     7
 10
806.37815899999987
 20
646.762203
 30
0.0
 11
918.37815899999998
 21
646.762203
 31
0.0
  0
LINE
  5
462
  8
0
 62
     7
 10
806.37815899999987
 20
646.762203
 30
0.0
 11
806.37815899999987
 21
534.762203
 31
0.0
  0
LINE
  5
463
  8
0
 62
     7
 10
918.37815899999998
 20
646.762203
 30
0.0
 11
918.37815899999998
 21
534.762203
 31
0.0
  0
LINE
  5
464
  8
0
  6
DASHDOT
 62
     7
 10
862.37815899999998
 20
707.138058
 30
0.0
 11
862.37815899999998
 21
470.61504000000002
 31
0.0
  0
CIRCLE
  5
465
  8
0
 62
     7
 10
822.37815899999987
 20
661.76220299999989
 30
0.0
 40
3.5
  0
CIRCLE
  5
466
  8
0
 62
     7
 10
902.37815899999998
 20
661.76220299999989
 30
0.0
 40
3.5
  0
CIRCLE
  5
467
  8
0
 62
     7
 10
902.37815899999998
 20
519.76220299999989
 30
0.0
 40
3.5
  0
CIRCLE
  5
468
  8
0
 62
     7
 10
822.37815899999987
 20
519.76220299999989
 30
0.0
 40
3.5
  0
POLYLINE
  5
469
  8
0
 62
     3
 66
     1
 10
0.0
 20
0.0
 30
0.0
  0
VERTEX
  5
8B8
  8
0
 62
     3
 10
790.52017199999989
 20
671.16140399999995
 30
0.0
  0
VERTEX
  5
8B9
  8
0
 62
     3
 10
806.52017200000012
 20
671.16140399999995
 30
0.0
  0
VERTEX
  5
8BA
  8
0
 62
     3
 10
807.520172
 20
673.16140399999995
 30
0.0
  0
VERTEX
  5
8BB
  8
0
 62
     3
 10
808.520172
 20
669.16140399999995
 30
0.0
  0
VERTEX
  5
8BC
  8
0
 62
     3
 10
809.520172
 20
671.16140399999995
 30
0.0
  0
VERTEX
  5
8BD
  8
0
 62
     3
 10
825.520172
 20
671.16140399999995
 30
0.0
  0
VERTEX
  5
8BE
  8
0
 62
     3
 10
826.520172
 20
673.16140399999995
 30
0.0
  0
VERTEX
  5
8BF
  8
0
 62
     3
 10
827.520172
 20
669.16140399999995
 30
0.0
  0
VERTEX
  5
8C0
  8
0
 62
     3
 10
828.52017199999989
 20
671.16140399999995
 30
0.0
  0
VERTEX
  5
8C1
  8
0
 62
     3
 10
844.52017200000012
 20
671.16140399999995
 30
0.0
  0
VERTEX
  5
8C2
  8
0
 62
     3
 10
845.52017200000012
 20
673.16140399999995
 30
0.0
  0
VERTEX
  5
8C3
  8
0
 62
     3
 10
846.52017200000012
 20
669.16140399999995
 30
0.0
  0
VERTEX
  5
8C4
  8
0
 62
     3
 10
847.52017200000012
 20
671.16140399999995
 30
0.0
  0
VERTEX
  5
8C5
  8
0
 62
     3
 10
863.52017200000012
 20
671.16140399999995
 30
0.0
  0
VERTEX
  5
8C6
  8
0
 62
     3
 10
864.52017200000012
 20
673.16140399999995
 30
0.0
  0
VERTEX
  5
8C7
  8
0
 62
     3
 10
865.520172
 20
669.16140399999995
 30
0.0
  0
VERTEX
  5
8C8
  8
0
 62
     3
 10
866.520172
 20
671.16140399999995
 30
0.0
  0
VERTEX
  5
8C9
  8
0
 62
     3
 10
882.520172
 20
671.16140399999995
 30
0.0
  0
VERTEX
  5
8CA
  8
0
 62
     3
 10
883.520172
 20
673.16140399999995
 30
0.0
  0
VERTEX
  5
8CB
  8
0
 62
     3
 10
884.52017200000023
 20
669.16140399999995
 30
0.0
  0
VERTEX
  5
8CC
  8
0
 62
     3
 10
885.52017200000012
 20
671.16140399999995
 30
0.0
  0
VERTEX
  5
8CD
  8
0
 62
     3
 10
901.52017200000023
 20
671.16140399999995
 30
0.0
  0
VERTEX
  5
8CE
  8
0
 62
     3
 10
902.52017200000012
 20
673.16140399999995
 30
0.0
  0
VERTEX
  5
8CF
  8
0
 62
     3
 10
903.52017200000012
 20
669.16140399999995
 30
0.0
  0
VERTEX
  5
8D0
  8
0
 62
     3
 10
904.52017200000012
 20
671.16140399999995
 30
0.0
  0
VERTEX
  5
8D1
  8
0
 62
     3
 10
920.52017200000012
 20
671.16140399999995
 30
0.0
  0
VERTEX
  5
8D2
  8
0
 62
     3
 10
921.52017200000012
 20
673.16140399999995
 30
0.0
  0
VERTEX
  5
8D3
  8
0
 62
     3
 10
922.52017200000012
 20
669.16140399999995
 30
0.0
  0
VERTEX
  5
8D4
  8
0
 62
     3
 10
923.520172
 20
671.16140399999995
 30
0.0
  0
VERTEX
  5
8D5
  8
0
 62
     3
 10
933.73365000000013
 20
671.16140399999995
 30
0.0
  0
SEQEND
  5
8D6
  8
0
 62
     3
  0
POLYLINE
  5
489
  8
0
 62
     3
 66
     1
 10
0.0
 20
0.0
 30
0.0
  0
VERTEX
  5
8D7
  8
0
 62
     3
 10
790.52017199999989
 20
506.340282
 30
0.0
  0
VERTEX
  5
8D8
  8
0
 62
     3
 10
806.52017200000012
 20
506.340282
 30
0.0
  0
VERTEX
  5
8D9
  8
0
 62
     3
 10
807.520172
 20
508.34028199999989
 30
0.0
  0
VERTEX
  5
8DA
  8
0
 62
     3
 10
808.520172
 20
504.34028199999989
 30
0.0
  0
VERTEX
  5
8DB
  8
0
 62
     3
 10
809.520172
 20
506.340282
 30
0.0
  0
VERTEX
  5
8DC
  8
0
 62
     3
 10
825.520172
 20
506.340282
 30
0.0
  0
VERTEX
  5
8DD
  8
0
 62
     3
 10
826.520172
 20
508.34028199999989
 30
0.0
  0
VERTEX
  5
8DE
  8
0
 62
     3
 10
827.520172
 20
504.34028199999989
 30
0.0
  0
VERTEX
  5
8DF
  8
0
 62
     3
 10
828.52017199999989
 20
506.340282
 30
0.0
  0
VERTEX
  5
8E0
  8
0
 62
     3
 10
844.52017200000012
 20
506.340282
 30
0.0
  0
VERTEX
  5
8E1
  8
0
 62
     3
 10
845.52017200000012
 20
508.34028199999989
 30
0.0
  0
VERTEX
  5
8E2
  8
0
 62
     3
 10
846.52017200000012
 20
504.34028199999989
 30
0.0
  0
VERTEX
  5
8E3
  8
0
 62
     3
 10
847.52017200000012
 20
506.340282
 30
0.0
  0
VERTEX
  5
8E4
  8
0
 62
     3
 10
863.52017200000012
 20
506.340282
 30
0.0
  0
VERTEX
  5
8E5
  8
0
 62
     3
 10
864.52017200000012
 20
508.34028199999989
 30
0.0
  0
VERTEX
  5
8E6
  8
0
 62
     3
 10
865.520172
 20
504.34028199999989
 30
0.0
  0
VERTEX
  5
8E7
  8
0
 62
     3
 10
866.520172
 20
506.340282
 30
0.0
  0
VERTEX
  5
8E8
  8
0
 62
     3
 10
882.520172
 20
506.340282
 30
0.0
  0
VERTEX
  5
8E9
  8
0
 62
     3
 10
883.520172
 20
508.34028199999989
 30
0.0
  0
VERTEX
  5
8EA
  8
0
 62
     3
 10
884.52017200000023
 20
504.34028199999989
 30
0.0
  0
VERTEX
  5
8EB
  8
0
 62
     3
 10
885.52017200000012
 20
506.340282
 30
0.0
  0
VERTEX
  5
8EC
  8
0
 62
     3
 10
901.52017200000023
 20
506.340282
 30
0.0
  0
VERTEX
  5
8ED
  8
0
 62
     3
 10
902.52017200000012
 20
508.34028199999989
 30
0.0
  0
VERTEX
  5
8EE
  8
0
 62
     3
 10
903.52017200000012
 20
504.34028199999989
 30
0.0
  0
VERTEX
  5
8EF
  8
0
 62
     3
 10
904.52017200000012
 20
506.340282
 30
0.0
  0
VERTEX
  5
8F0
  8
0
 62
     3
 10
920.52017200000012
 20
506.340282
 30
0.0
  0
VERTEX
  5
8F1
  8
0
 62
     3
 10
921.52017200000012
 20
508.34028199999989
 30
0.0
  0
VERTEX
  5
8F2
  8
0
 62
     3
 10
922.52017200000012
 20
504.34028199999989
 30
0.0
  0
VERTEX
  5
8F3
  8
0
 62
     3
 10
923.520172
 20
506.340282
 30
0.0
  0
VERTEX
  5
8F4
  8
0
 62
     3
 10
933.73365000000013
 20
506.340282
 30
0.0
  0
SEQEND
  5
8F5
  8
0
 62
     3
  0
POLYLINE
  5
4A9
  8
0
 62
     3
 66
     1
 10
0.0
 20
0.0
 30
0.0
  0
VERTEX
  5
8F6
  8
0
 62
     3
 10
933.73365000000013
 20
671.16140399999995
 30
0.0
  0
VERTEX
  5
8F7
  8
0
 62
     3
 10
933.73365000000013
 20
655.16140399999995
 30
0.0
  0
VERTEX
  5
8F8
  8
0
 62
     3
 10
935.73365000000001
 20
654.16140399999995
 30
0.0
  0
VERTEX
  5
8F9
  8
0
 62
     3
 10
931.7336499999999
 20
653.16140399999995
 30
0.0
  0
VERTEX
  5
8FA
  8
0
 62
     3
 10
933.73365000000013
 20
652.16140399999995
 30
0.0
  0
VERTEX
  5
8FB
  8
0
 62
     3
 10
933.73365000000013
 20
636.16140399999995
 30
0.0
  0
VERTEX
  5
8FC
  8
0
 62
     3
 10
935.73365000000001
 20
635.16140399999995
 30
0.0
  0
VERTEX
  5
8FD
  8
0
 62
     3
 10
931.7336499999999
 20
634.16140399999995
 30
0.0
  0
VERTEX
  5
8FE
  8
0
 62
     3
 10
933.73365000000013
 20
633.16140399999995
 30
0.0
  0
VERTEX
  5
8FF
  8
0
 62
     3
 10
933.73365000000013
 20
617.16140399999995
 30
0.0
  0
VERTEX
  5
900
  8
0
 62
     3
 10
935.73365000000001
 20
616.16140399999995
 30
0.0
  0
VERTEX
  5
901
  8
0
 62
     3
 10
931.7336499999999
 20
615.16140399999995
 30
0.0
  0
VERTEX
  5
902
  8
0
 62
     3
 10
933.73365000000013
 20
614.16140399999995
 30
0.0
  0
VERTEX
  5
903
  8
0
 62
     3
 10
933.73365000000013
 20
598.16140399999995
 30
0.0
  0
VERTEX
  5
904
  8
0
 62
     3
 10
935.73365000000001
 20
597.16140399999995
 30
0.0
  0
VERTEX
  5
905
  8
0
 62
     3
 10
931.7336499999999
 20
596.16140399999995
 30
0.0
  0
VERTEX
  5
906
  8
0
 62
     3
 10
933.73365000000013
 20
595.16140399999995
 30
0.0
  0
VERTEX
  5
907
  8
0
 62
     3
 10
933.73365000000013
 20
579.16140399999995
 30
0.0
  0
VERTEX
  5
908
  8
0
 62
     3
 10
935.73365000000001
 20
578.16140399999995
 30
0.0
  0
VERTEX
  5
909
  8
0
 62
     3
 10
931.7336499999999
 20
577.16140399999995
 30
0.0
  0
VERTEX
  5
90A
  8
0
 62
     3
 10
933.73365000000013
 20
576.16140399999995
 30
0.0
  0
VERTEX
  5
90B
  8
0
 62
     3
 10
933.73365000000013
 20
560.16140399999995
 30
0.0
  0
VERTEX
  5
90C
  8
0
 62
     3
 10
935.73365000000001
 20
559.16140399999995
 30
0.0
  0
VERTEX
  5
90D
  8
0
 62
     3
 10
931.7336499999999
 20
558.16140399999995
 30
0.0
  0
VERTEX
  5
90E
  8
0
 62
     3
 10
933.73365000000013
 20
557.16140399999995
 30
0.0
  0
VERTEX
  5
90F
  8
0
 62
     3
 10
933.73365000000013
 20
541.16140399999995
 30
0.0
  0
VERTEX
  5
910
  8
0
 62
     3
 10
935.73365000000001
 20
540.16140399999995
 30
0.0
  0
VERTEX
  5
911
  8
0
 62
     3
 10
931.7336499999999
 20
539.16140399999995
 30
0.0
  0
VERTEX
  5
912
  8
0
 62
     3
 10
933.73365000000013
 20
538.16140399999995
 30
0.0
  0
VERTEX
  5
913
  8
0
 62
     3
 10
933.73365000000013
 20
522.16140399999995
 30
0.0
  0
VERTEX
  5
914
  8
0
 62
     3
 10
935.73365000000001
 20
521.16140399999995
 30
0.0
  0
VERTEX
  5
915
  8
0
 62
     3
 10
931.7336499999999
 20
520.16140399999995
 30
0.0
  0
VERTEX
  5
916
  8
0
 62
     3
 10
933.73365000000013
 20
519.16140399999995
 30
0.0
  0
VERTEX
  5
917
  8
0
 62
     3
 10
933.73365000000013
 20
506.340282
 30
0.0
  0
SEQEND
  5
918
  8
0
 62
     3
  0
POLYLINE
  5
4CD
  8
0
 62
     3
 66
     1
 10
0.0
 20
0.0
 30
0.0
  0
VERTEX
  5
919
  8
0
 62
     3
 10
790.52017199999989
 20
671.16140399999995
 30
0.0
  0
VERTEX
  5
91A
  8
0
 62
     3
 10
790.52017199999989
 20
655.16140399999995
 30
0.0
  0
VERTEX
  5
91B
  8
0
 62
     3
 10
792.520172
 20
654.16140399999995
 30
0.0
  0
VERTEX
  5
91C
  8
0
 62
     3
 10
788.520172
 20
653.16140399999995
 30
0.0
  0
VERTEX
  5
91D
  8
0
 62
     3
 10
790.52017199999989
 20
652.16140399999995
 30
0.0
  0
VERTEX
  5
91E
  8
0
 62
     3
 10
790.52017199999989
 20
636.16140399999995
 30
0.0
  0
VERTEX
  5
91F
  8
0
 62
     3
 10
792.520172
 20
635.16140399999995
 30
0.0
  0
VERTEX
  5
920
  8
0
 62
     3
 10
788.520172
 20
634.16140399999995
 30
0.0
  0
VERTEX
  5
921
  8
0
 62
     3
 10
790.52017199999989
 20
633.16140399999995
 30
0.0
  0
VERTEX
  5
922
  8
0
 62
     3
 10
790.52017199999989
 20
617.16140399999995
 30
0.0
  0
VERTEX
  5
923
  8
0
 62
     3
 10
792.520172
 20
616.16140399999995
 30
0.0
  0
VERTEX
  5
924
  8
0
 62
     3
 10
788.520172
 20
615.16140399999995
 30
0.0
  0
VERTEX
  5
925
  8
0
 62
     3
 10
790.52017199999989
 20
614.16140399999995
 30
0.0
  0
VERTEX
  5
926
  8
0
 62
     3
 10
790.52017199999989
 20
598.16140399999995
 30
0.0
  0
VERTEX
  5
927
  8
0
 62
     3
 10
792.520172
 20
597.16140399999995
 30
0.0
  0
VERTEX
  5
928
  8
0
 62
     3
 10
788.520172
 20
596.16140399999995
 30
0.0
  0
VERTEX
  5
929
  8
0
 62
     3
 10
790.52017199999989
 20
595.16140399999995
 30
0.0
  0
VERTEX
  5
92A
  8
0
 62
     3
 10
790.52017199999989
 20
579.16140399999995
 30
0.0
  0
VERTEX
  5
92B
  8
0
 62
     3
 10
792.520172
 20
578.16140399999995
 30
0.0
  0
VERTEX
  5
92C
  8
0
 62
     3
 10
788.520172
 20
577.16140399999995
 30
0.0
  0
VERTEX
  5
92D
  8
0
 62
     3
 10
790.52017199999989
 20
576.16140399999995
 30
0.0
  0
VERTEX
  5
92E
  8
0
 62
     3
 10
790.52017199999989
 20
560.16140399999995
 30
0.0
  0
VERTEX
  5
92F
  8
0
 62
     3
 10
792.520172
 20
559.16140399999995
 30
0.0
  0
VERTEX
  5
930
  8
0
 62
     3
 10
788.520172
 20
558.16140399999995
 30
0.0
  0
VERTEX
  5
931
  8
0
 62
     3
 10
790.52017199999989
 20
557.16140399999995
 30
0.0
  0
VERTEX
  5
932
  8
0
 62
     3
 10
790.52017199999989
 20
541.16140399999995
 30
0.0
  0
VERTEX
  5
933
  8
0
 62
     3
 10
792.520172
 20
540.16140399999995
 30
0.0
  0
VERTEX
  5
934
  8
0
 62
     3
 10
788.520172
 20
539.16140399999995
 30
0.0
  0
VERTEX
  5
935
  8
0
 62
     3
 10
790.52017199999989
 20
538.16140399999995
 30
0.0
  0
VERTEX
  5
936
  8
0
 62
     3
 10
790.52017199999989
 20
522.16140399999995
 30
0.0
  0
VERTEX
  5
937
  8
0
 62
     3
 10
792.520172
 20
521.16140399999995
 30
0.0
  0
VERTEX
  5
938
  8
0
 62
     3
 10
788.520172
 20
520.16140399999995
 30
0.0
  0
VERTEX
  5
939
  8
0
 62
     3
 10
790.52017199999989
 20
519.16140399999995
 30
0.0
  0
VERTEX
  5
93A
  8
0
 62
     3
 10
790.52017199999989
 20
506.340282
 30
0.0
  0
SEQEND
  5
93B
  8
0
 62
     3
  0
LINE
  5
4F1
  8
0
  6
DASHDOT
 62
     7
 10
902.37815899999998
 20
668.262203
 30
0.0
 11
902.37815899999998
 21
655.262203
 31
0.0
  0
LINE
  5
4F2
  8
0
  6
DASHDOT
 62
     7
 10
895.87815899999987
 20
661.76220299999989
 30
0.0
 11
908.87815899999987
 21
661.76220299999989
 31
0.0
  0
LINE
  5
4F3
  8
0
  6
DASHDOT
 62
     7
 10
822.37815899999987
 20
668.262203
 30
0.0
 11
822.37815899999987
 21
655.262203
 31
0.0
  0
LINE
  5
4F4
  8
0
  6
DASHDOT
 62
     7
 10
815.87815899999998
 20
661.76220299999989
 30
0.0
 11
828.87815899999987
 21
661.76220299999989
 31
0.0
  0
LINE
  5
4F5
  8
0
  6
DASHDOT
 62
     7
 10
822.37815899999987
 20
526.262203
 30
0.0
 11
822.37815899999987
 21
513.262203
 31
0.0
  0
LINE
  5
4F6
  8
0
  6
DASHDOT
 62
     7
 10
815.87815899999998
 20
519.76220299999989
 30
0.0
 11
828.87815899999987
 21
519.76220299999989
 31
0.0
  0
LINE
  5
4F7
  8
0
  6
DASHDOT
 62
     7
 10
902.37815899999998
 20
526.262203
 30
0.0
 11
902.37815899999998
 21
513.262203
 31
0.0
  0
LINE
  5
4F8
  8
0
  6
DASHDOT
 62
     7
 10
895.87815899999987
 20
519.76220299999989
 30
0.0
 11
908.87815899999987
 21
519.76220299999989
 31
0.0
  0
CIRCLE
  5
4F9
  8
0
 62
     7
 10
797.05270399999995
 20
665.87520199999994
 30
0.0
 40
0.25
  0
LINE
  5
4FA
  8
0
  6
DASHDOT
 62
     7
 10
760.91472599999997
 20
590.76220299999989
 30
0.0
 11
972.89932999999996
 21
590.76220299999989
 31
0.0
  0
LINE
  5
4FB
  8
0
 62
     7
 10
739.78440899999987
 20
646.762203
 30
0.0
 11
737.70066799999995
 21
634.94451500000002
 31
0.0
  0
LINE
  5
4FC
  8
0
 62
     7
 10
739.78440899999987
 20
646.762203
 30
0.0
 11
741.86820999999986
 21
634.94451500000002
 31
0.0
  0
LINE
  5
4FD
  8
0
 62
     7
 10
739.78440899999987
 20
534.762203
 30
0.0
 11
741.86820999999986
 21
546.57989899999995
 31
0.0
  0
LINE
  5
4FE
  8
0
 62
     7
 10
739.78440899999987
 20
534.762203
 30
0.0
 11
737.70066799999995
 21
546.57989899999995
 31
0.0
  0
LINE
  5
4FF
  8
0
 62
     7
 10
739.78440899999987
 20
646.762203
 30
0.0
 11
739.78440899999987
 21
534.762203
 31
0.0
  0
LINE
  5
500
  8
0
 62
     7
 10
731.78440899999998
 20
646.762203
 30
0.0
 11
806.37815899999987
 21
646.76221099999987
 31
0.0
  0
LINE
  5
501
  8
0
 62
     7
 10
731.78440899999998
 20
534.762203
 30
0.0
 11
806.37815899999987
 21
534.76220699999988
 31
0.0
  0
LINE
  5
502
  8
0
 62
     7
 10
702.29521199999999
 20
661.76220299999989
 30
0.0
 11
700.21141099999988
 21
649.94451500000002
 31
0.0
  0
LINE
  5
503
  8
0
 62
     7
 10
702.29521199999999
 20
661.76220299999989
 30
0.0
 11
704.3789519999998
 21
649.94451500000002
 31
0.0
  0
LINE
  5
504
  8
0
 62
     7
 10
702.29521199999999
 20
519.76220299999989
 30
0.0
 11
704.3789519999998
 21
531.57989900000007
 31
0.0
  0
LINE
  5
505
  8
0
 62
     7
 10
702.29521199999999
 20
519.76220299999989
 30
0.0
 11
700.21141099999988
 21
531.57989900000007
 31
0.0
  0
LINE
  5
506
  8
0
 62
     7
 10
702.29521199999999
 20
661.76220299999989
 30
0.0
 11
702.29521199999999
 21
519.76220299999989
 31
0.0
  0
LINE
  5
507
  8
0
 62
     7
 10
694.29521199999999
 20
661.76220299999989
 30
0.0
 11
815.87815899999998
 21
661.76221099999998
 31
0.0
  0
LINE
  5
508
  8
0
 62
     7
 10
694.29521199999999
 20
519.76220299999989
 30
0.0
 11
815.87815899999998
 21
519.76221099999998
 31
0.0
  0
LINE
  5
509
  8
0
 62
     7
 10
822.37815899999987
 20
710.54617699999994
 30
0.0
 11
834.19584699999984
 21
708.46239100000003
 31
0.0
  0
LINE
  5
50A
  8
0
 62
     7
 10
822.37815899999987
 20
710.54617699999994
 30
0.0
 11
834.19584699999984
 21
712.62994800000001
 31
0.0
  0
LINE
  5
50B
  8
0
 62
     7
 10
902.37815899999998
 20
710.54617699999994
 30
0.0
 11
890.56047100000023
 21
712.62994800000001
 31
0.0
  0
LINE
  5
50C
  8
0
 62
     7
 10
902.37815899999998
 20
710.54617699999994
 30
0.0
 11
890.56047100000023
 21
708.46239100000003
 31
0.0
  0
LINE
  5
50D
  8
0
 62
     7
 10
822.37815899999987
 20
710.54617699999994
 30
0.0
 11
902.37815899999998
 21
710.54617699999994
 31
0.0
  0
LINE
  5
50E
  8
0
 62
     7
 10
822.37815899999987
 20
718.54617699999994
 30
0.0
 11
822.37815899999987
 21
668.26221099999987
 31
0.0
  0
LINE
  5
50F
  8
0
 62
     7
 10
902.37815899999998
 20
718.54617699999994
 30
0.0
 11
902.37815899999998
 21
668.26221099999987
 31
0.0
  0
LINE
  5
510
  8
0
 62
     7
 10
806.37815899999987
 20
743.26404999999988
 30
0.0
 11
818.19584699999984
 21
741.18026399999985
 31
0.0
  0
LINE
  5
511
  8
0
 62
     7
 10
806.37815899999987
 20
743.26404999999988
 30
0.0
 11
818.19584699999984
 21
745.34782000000007
 31
0.0
  0
LINE
  5
512
  8
0
 62
     7
 10
918.37815899999998
 20
743.26404999999988
 30
0.0
 11
906.56047100000001
 21
745.34782000000007
 31
0.0
  0
LINE
  5
513
  8
0
 62
     7
 10
918.37815899999998
 20
743.26404999999988
 30
0.0
 11
906.56047100000001
 21
741.18026399999985
 31
0.0
  0
LINE
  5
514
  8
0
 62
     7
 10
806.37815899999987
 20
743.26404999999988
 30
0.0
 11
918.37815899999998
 21
743.26404999999988
 31
0.0
  0
LINE
  5
515
  8
0
 62
     7
 10
806.37815899999987
 20
751.26404999999988
 30
0.0
 11
806.37815899999987
 21
646.76221799999985
 31
0.0
  0
LINE
  5
516
  8
0
 62
     7
 10
918.37815899999998
 20
751.26404999999988
 30
0.0
 11
918.37815899999998
 21
646.76221500000008
 31
0.0
  0
LINE
  5
517
  8
0
 62
     7
 10
819.59062199999994
 20
517.64567199999999
 30
0.0
 11
808.91850299999987
 21
512.15882499999998
 31
0.0
  0
LINE
  5
518
  8
0
 62
     7
 10
819.59062199999994
 20
517.64567199999999
 30
0.0
 11
811.43870500000014
 21
508.83963399999999
 31
0.0
  0
LINE
  5
519
  8
0
 62
     7
 10
825.16569500000003
 20
521.87873500000001
 30
0.0
 11
835.83781399999987
 21
527.36558899999989
 31
0.0
  0
LINE
  5
51A
  8
0
 62
     7
 10
825.16569500000003
 20
521.87873500000001
 30
0.0
 11
833.31761200000005
 21
530.68477199999995
 31
0.0
  0
LINE
  5
51B
  8
0
 62
     7
 10
825.16569500000003
 20
521.87873500000001
 30
0.0
 11
751.33665499999995
 21
465.82123899999999
 31
0.0
  0
INSERT
  5
734
  8
0
  2
BLOCK0
 10
-123.04871899999991
 20
580.51217799999995
 30
0.0
 50
90.0
  0
INSERT
  5
735
  8
0
  2
BLOCK1
 10
-123.04871899999991
 20
580.51217799999995
 30
0.0
 50
90.0
  0
INSERT
  5
736
  8
0
  2
BLOCK2
 10
-123.04871899999991
 20
580.51217799999995
 30
0.0
 50
90.0
  0
INSERT
  5
737
  8
0
  2
BLOCK3
 10
-123.04871899999991
 20
580.51217799999995
 30
0.0
 50
90.0
  0
INSERT
  5
738
  8
0
  2
BLOCK4
 10
-123.04871899999991
 20
580.51217799999995
 30
0.0
 50
90.0
  0
INSERT
  5
739
  8
0
  2
BLOCK5
 10
-123.04871899999991
 20
580.51217799999995
 30
0.0
 50
90.0
  0
INSERT
  5
73A
  8
0
  2
BLOCK6
 10
-123.04871899999991
 20
580.51217799999995
 30
0.0
 50
90.0
  0
INSERT
  5
73B
  8
0
  2
BLOCK7
 10
-123.04871899999991
 20
580.51217799999995
 30
0.0
 50
90.0
  0
INSERT
  5
73C
  8
0
  2
BLOCK8
 10
-123.04871899999991
 20
580.51217799999995
 30
0.0
 50
90.0
  0
INSERT
  5
73D
  8
0
  2
BLOCK9
 10
-123.04871899999991
 20
580.51217799999995
 30
0.0
 50
90.0
  0
INSERT
  5
73E
  8
0
  2
BLOCK10
 10
-123.04871899999991
 20
580.51217799999995
 30
0.0
 50
90.0
  0
INSERT
  5
73F
  8
0
  2
BLOCK11
 10
-123.04871899999991
 20
580.51217799999995
 30
0.0
 50
90.0
  0
INSERT
  5
740
  8
0
  2
BLOCK12
 10
-123.04871899999991
 20
580.51217799999995
 30
0.0
 50
90.0
  0
INSERT
  5
741
  8
0
  2
BLOCK13
 10
-123.04871899999991
 20
580.51217799999995
 30
0.0
 50
90.0
  0
INSERT
  5
742
  8
0
  2
BLOCK14
 10
-123.04871899999991
 20
580.51217799999995
 30
0.0
 50
90.0
  0
INSERT
  5
743
  8
0
  2
BLOCK15
 10
-123.04871899999991
 20
580.51217799999995
 30
0.0
 50
90.0
  0
INSERT
  5
744
  8
0
  2
BLOCK16
 10
-123.04871899999991
 20
580.51217799999995
 30
0.0
 50
90.0
  0
INSERT
  5
745
  8
0
  2
BLOCK17
 10
161.10655199999991
 20
580.51220299999989
 30
0.0
  0
INSERT
  5
746
  8
0
  2
BLOCK18
 10
161.10655199999991
 20
580.51220299999989
 30
0.0
  0
INSERT
  5
747
  8
0
  2
BLOCK19
 10
161.10655199999991
 20
580.51220299999989
 30
0.0
  0
INSERT
  5
748
  8
0
  2
BLOCK20
 10
161.10655199999991
 20
580.51220299999989
 30
0.0
  0
INSERT
  5
749
  8
0
  2
BLOCK21
 10
161.10655199999991
 20
580.51220299999989
 30
0.0
  0
INSERT
  5
74A
  8
0
  2
BLOCK22
 10
161.10655199999991
 20
580.51220299999989
 30
0.0
  0
INSERT
  5
74B
  8
0
  2
BLOCK23
 10
161.10655199999991
 20
580.51220299999989
 30
0.0
  0
INSERT
  5
74C
  8
0
  2
BLOCK24
 10
161.10655199999991
 20
580.51220299999989
 30
0.0
  0
INSERT
  5
74D
  8
0
  2
BLOCK25
 10
161.10655199999991
 20
580.51220299999989
 30
0.0
  0
INSERT
  5
74E
  8
0
  2
BLOCK26
 10
161.10655199999991
 20
580.51220299999989
 30
0.0
  0
INSERT
  5
74F
  8
0
  2
BLOCK27
 10
161.10655199999991
 20
580.51220299999989
 30
0.0
  0
INSERT
  5
750
  8
0
  2
BLOCK28
 10
161.10655199999991
 20
580.51220299999989
 30
0.0
  0
INSERT
  5
751
  8
0
  2
BLOCK29
 10
161.10655199999991
 20
580.51220299999989
 30
0.0
  0
INSERT
  5
753
  8
0
  2
BLOCK31
 10
161.10655199999991
 20
580.51220299999989
 30
0.0
  0
INSERT
  5
754
  8
0
  2
BLOCK32
 10
161.10655199999991
 20
580.51220299999989
 30
0.0
  0
INSERT
  5
755
  8
0
  2
BLOCK33
 10
161.10655199999991
 20
580.51220299999989
 30
0.0
  0
INSERT
  5
756
  8
0
  2
BLOCK34
 10
161.10655199999991
 20
580.51220299999989
 30
0.0
  0
INSERT
  5
757
  8
0
  2
BLOCK35
 10
161.10655199999991
 20
580.51220299999989
 30
0.0
  0
INSERT
  5
758
  8
0
  2
BLOCK36
 10
161.10655199999991
 20
580.51220299999989
 30
0.0
  0
INSERT
  5
759
  8
0
  2
BLOCK37
 10
161.10655199999991
 20
580.51220299999989
 30
0.0
  0
INSERT
  5
75A
  8
0
  2
BLOCK38
 10
161.10655199999991
 20
580.51220299999989
 30
0.0
  0
INSERT
  5
75B
  8
0
  2
BLOCK39
 10
161.10655199999991
 20
580.51220299999989
 30
0.0
  0
INSERT
  5
75C
  8
0
  2
BLOCK40
 10
161.10655199999991
 20
580.51220299999989
 30
0.0
  0
INSERT
  5
75D
  8
0
  2
BLOCK41
 10
161.10655199999991
 20
580.51220299999989
 30
0.0
  0
INSERT
  5
75E
  8
0
  2
BLOCK42
 10
161.10655199999991
 20
580.51220299999989
 30
0.0
  0
INSERT
  5
75F
  8
0
  2
BLOCK43
 10
161.10655199999991
 20
580.51220299999989
 30
0.0
  0
INSERT
  5
760
  8
0
  2
BLOCK44
 10
161.10655199999991
 20
580.51220299999989
 30
0.0
  0
INSERT
  5
761
  8
0
  2
BLOCK45
 10
161.10655199999991
 20
580.51220299999989
 30
0.0
  0
INSERT
  5
762
  8
0
  2
BLOCK46
 10
161.10655199999991
 20
580.51220299999989
 30
0.0
  0
INSERT
  5
763
  8
0
  2
BLOCK47
 10
161.10655199999991
 20
580.51220299999989
 30
0.0
  0
INSERT
  5
764
  8
0
  2
BLOCK48
 10
161.10655199999991
 20
580.51220299999989
 30
0.0
  0
INSERT
  5
765
  8
0
  2
BLOCK49
 10
161.10655199999991
 20
580.51220299999989
 30
0.0
  0
INSERT
  5
766
  8
0
  2
BLOCK50
 10
161.10655199999991
 20
580.51220299999989
 30
0.0
  0
INSERT
  5
767
  8
0
  2
BLOCK51
 10
161.10655199999991
 20
580.51220299999989
 30
0.0
  0
INSERT
  5
768
  8
0
  2
BLOCK52
 10
161.10655199999991
 20
580.51220299999989
 30
0.0
  0
INSERT
  5
769
  8
0
  2
BLOCK53
 10
161.10655199999991
 20
580.51220299999989
 30
0.0
  0
INSERT
  5
76A
  8
0
  2
BLOCK54
 10
161.10655199999991
 20
580.51220299999989
 30
0.0
  0
INSERT
  5
76B
  8
0
  2
BLOCK55
 10
161.10655199999991
 20
580.51220299999989
 30
0.0
  0
INSERT
  5
76C
  8
0
  2
BLOCK56
 10
161.10655199999991
 20
580.51220299999989
 30
0.0
  0
INSERT
  5
76D
  8
0
  2
BLOCK57
 10
173.24484299999989
 20
119.16841100000001
 30
0.0
 50
180.0
  0
INSERT
  5
76E
  8
0
  2
BLOCK58
 10
173.24484299999989
 20
119.16841100000001
 30
0.0
 50
180.0
  0
INSERT
  5
76F
  8
0
  2
BLOCK59
 10
173.24484299999989
 20
119.16841100000001
 30
0.0
 50
180.0
  0
INSERT
  5
770
  8
0
  2
BLOCK60
 10
173.24484299999989
 20
119.16841100000001
 30
0.0
 50
180.0
  0
INSERT
  5
771
  8
0
  2
BLOCK61
 10
173.24484299999989
 20
119.16841100000001
 30
0.0
 50
180.0
  0
INSERT
  5
772
  8
0
  2
BLOCK62
 10
173.24484299999989
 20
119.16841100000001
 30
0.0
 50
180.0
  0
INSERT
  5
773
  8
0
  2
BLOCK63
 10
173.24484299999989
 20
119.16841100000001
 30
0.0
 50
180.0
  0
INSERT
  5
774
  8
0
  2
BLOCK64
 10
530.90725099999997
 20
593.01220299999989
 30
0.0
 50
180.0
  0
INSERT
  5
775
  8
0
  2
BLOCK65
 10
530.90725099999997
 20
593.01220299999989
 30
0.0
 50
180.0
  0
INSERT
  5
776
  8
0
  2
BLOCK66
 10
530.90725099999997
 20
593.01220299999989
 30
0.0
 50
180.0
  0
INSERT
  5
777
  8
0
  2
BLOCK67
 10
530.90725099999997
 20
593.01220299999989
 30
0.0
 50
180.0
  0
INSERT
  5
778
  8
0
  2
BLOCK68
 10
530.90725099999997
 20
593.01220299999989
 30
0.0
 50
180.0
  0
INSERT
  5
779
  8
0
  2
BLOCK69
 10
530.90725099999997
 20
593.01220299999989
 30
0.0
 50
180.0
  0
INSERT
  5
77A
  8
0
  2
BLOCK70
 10
530.90725099999997
 20
593.01220299999989
 30
0.0
 50
180.0
  0
INSERT
  5
77B
  8
0
  2
BLOCK71
 10
530.90725099999997
 20
593.01220299999989
 30
0.0
 50
180.0
  0
INSERT
  5
77C
  8
0
  2
BLOCK72
 10
530.90725099999997
 20
593.01220299999989
 30
0.0
 50
180.0
  0
INSERT
  5
77F
  8
0
  2
BLOCK75
 10
530.90725099999997
 20
593.01220299999989
 30
0.0
 50
180.0
  0
INSERT
  5
780
  8
0
  2
BLOCK76
 10
862.37815899999998
 20
593.01220299999989
 30
0.0
 50
270.0
  0
INSERT
  5
781
  8
0
  2
BLOCK77
 10
862.37815899999998
 20
593.01220299999989
 30
0.0
 50
270.0
  0
INSERT
  5
782
  8
0
  2
BLOCK78
 10
862.37815899999998
 20
593.01220299999989
 30
0.0
 50
270.0
  0
INSERT
  5
783
  8
0
  2
BLOCK79
 10
862.37815899999998
 20
593.01220299999989
 30
0.0
 50
270.0
  0
INSERT
  5
784
  8
0
  2
BLOCK80
 10
862.37815899999998
 20
593.01220299999989
 30
0.0
 50
270.0
  0
INSERT
  5
785
  8
0
  2
BLOCK81
 10
862.37815899999998
 20
593.01220299999989
 30
0.0
 50
270.0
  0
INSERT
  5
786
  8
0
  2
BLOCK82
 10
862.37815899999998
 20
593.01220299999989
 30
0.0
 50
270.0
  0
INSERT
  5
787
  8
0
  2
BLOCK83
 10
862.37815899999998
 20
593.01220299999989
 30
0.0
 50
270.0
  0
INSERT
  5
788
  8
0
  2
BLOCK84
 10
862.37815899999998
 20
593.01220299999989
 30
0.0
 50
270.0
  0
INSERT
  5
789
  8
0
  2
BLOCK85
 10
862.37815899999998
 20
593.01220299999989
 30
0.0
 50
270.0
  0
VIEWPORT
  5
51C
 67
     1
  8
0
 62
     0
 10
0.0
 20
0.0
 30
0.0
 40
1000.0
 41
1000.0
 68
     1
 69
     1
1001
ACAD
1000
MVIEW
1002
{
1070
    16
1010
0.0
1020
0.0
1030
0.0
1010
0.0
1020
0.0
1030
1.0
1040
0.0
1040
1000.0
1040
0.0
1040
0.0
1040
50.0
1040
0.0
1040
0.0
1070
     0
1070
   100
1070
     1
1070
     1
1070
     0
1070
     0
1070
     0
1070
     0
1040
0.0
1040
0.0
1040
0.0
1040
1.0
1040
1.0
1040
1.0
1040
1.0
1070
     0
1002
{
1002
}
1002
}
  0
ENDSEC
  0
EOF
