  0
SECTION
  2
HEADER
  9
$ACADVER
  1
AC1009
  9
$DWGCODEPAGE
  3
iso8859-1
  9
$INSBASE
 10
0.0
 20
0.0
 30
0.0
  9
$EXTMIN
 10
1.0E20
 20
1.0E20
  9
$EXTMAX
 10
-1.0E20
 20
-1.0E20
  9
$LIMMIN
 10
0.0
 20
0.0
  9
$LIMMAX
 10
12.0
 20
9.0
  9
$ORTHOMODE
 70
     0
  9
$REGENMODE
 70
     1
  9
$FILLMODE
 70
     1
  9
$QTEXTMODE
 70
     0
  9
$MIRRTEXT
 70
     1
  9
$DRAGMODE
 70
     2
  9
$LTSCALE
 40
15.0
  9
$OSMODE
 70
     0
  9
$ATTMODE
 70
     1
  9
$TEXTSIZE
 40
0.2
  9
$TRACEWID
 40
0.05
  9
$TEXTSTYLE
  7
STANDARD
  9
$CLAYER
  8
0
  9
$CELTYPE
  6
DASHED
  9
$CECOLOR
 62
   256
  9
$DIMSCALE
 40
1.0
  9
$DIMASZ
 40
0.18
  9
$DIMEXO
 40
0.0625
  9
$DIMDLI
 40
0.38
  9
$DIMRND
 40
0.0
  9
$DIMDLE
 40
0.0
  9
$DIMEXE
 40
0.18
  9
$DIMTP
 40
0.0
  9
$DIMTM
 40
0.0
  9
$DIMTXT
 40
0.18
  9
$DIMCEN
 40
0.09
  9
$DIMTSZ
 40
0.0
  9
$DIMTOL
 70
     0
  9
$DIMLIM
 70
     0
  9
$DIMTIH
 70
     1
  9
$DIMTOH
 70
     1
  9
$DIMSE1
 70
     0
  9
$DIMSE2
 70
     0
  9
$DIMTAD
 70
     0
  9
$DIMZIN
 70
     0
  9
$DIMBLK
  1

  9
$DIMASO
 70
     1
  9
$DIMSHO
 70
     1
  9
$DIMPOST
  1

  9
$DIMAPOST
  1

  9
$DIMALT
 70
     0
  9
$DIMALTD
 70
     2
  9
$DIMALTF
 40
25.4
  9
$DIMLFAC
 40
1.0
  9
$DIMTOFL
 70
     0
  9
$DIMTVP
 40
0.0
  9
$DIMTIX
 70
     0
  9
$DIMSOXD
 70
     0
  9
$DIMSAH
 70
     0
  9
$DIMBLK1
  1

  9
$DIMBLK2
  1

  9
$DIMSTYLE
  2
STANDARD
  9
$DIMCLRD
 70
     0
  9
$DIMCLRE
 70
     0
  9
$DIMCLRT
 70
     0
  9
$DIMTFAC
 40
1.0
  9
$DIMGAP
 40
0.09
  9
$LUNITS
 70
     2
  9
$LUPREC
 70
     4
  9
$AXISMODE
 70
     0
  9
$AXISUNIT
 10
0.0
 20
0.0
  9
$SKETCHINC
 40
0.1
  9
$FILLETRAD
 40
0.0
  9
$AUNITS
 70
     0
  9
$AUPREC
 70
     0
  9
$MENU
  1
acad
  9
$ELEVATION
 40
0.0
  9
$PELEVATION
 40
0.0
  9
$THICKNESS
 40
0.0
  9
$LIMCHECK
 70
     0
  9
$BLIPMODE
 70
     1
  9
$CHAMFERA
 40
0.0
  9
$CHAMFERB
 40
0.0
  9
$SKPOLY
 70
     0
  9
$TDCREATE
 40
0.000000000
  9
$TDUPDATE
 40
0.000000000
  9
$TDINDWG
 40
0.0
  9
$TDUSRTIMER
 40
0.0
  9
$USRTIMER
 70
     1
  9
$ANGBASE
 50
0.0
  9
$ANGDIR
 70
     0
  9
$PDMODE
 70
     0
  9
$PDSIZE
 40
0.0
  9
$PLINEWID
 40
0.0
  9
$COORDS
 70
     1
  9
$SPLFRAME
 70
     0
  9
$SPLINETYPE
 70
     6
  9
$SPLINESEGS
 70
     8
  9
$ATTDIA
 70
     0
  9
$ATTREQ
 70
     1
  9
$HANDLING
 70
     1
  9
$HANDSEED
  5
   59B
  9
$SURFTAB1
 70
     6
  9
$SURFTAB2
 70
     6
  9
$SURFTYPE
 70
     6
  9
$SURFU
 70
     6
  9
$SURFV
 70
     6
  9
$UCSNAME
  2

  9
$UCSORG
 10
0.0
 20
0.0
 30
0.0
  9
$UCSXDIR
 10
1.0
 20
0.0
 30
0.0
  9
$UCSYDIR
 10
0.0
 20
1.0
 30
0.0
  9
$PUCSNAME
  2

  9
$PUCSORG
 10
0.0
 20
0.0
 30
0.0
  9
$PUCSXDIR
 10
1.0
 20
0.0
 30
0.0
  9
$PUCSYDIR
 10
0.0
 20
1.0
 30
0.0
  9
$USERI1
 70
     0
  9
$USERI2
 70
     0
  9
$USERI3
 70
     0
  9
$USERI4
 70
     0
  9
$USERI5
 70
     0
  9
$USERR1
 40
0.0
  9
$USERR2
 40
0.0
  9
$USERR3
 40
0.0
  9
$USERR4
 40
0.0
  9
$USERR5
 40
0.0
  9
$WORLDVIEW
 70
     1
  9
$SHADEDGE
 70
     3
  9
$SHADEDIF
 70
    70
  9
$TILEMODE
 70
     1
  9
$MAXACTVP
 70
    16
  9
$PINSBASE
 10
0.0
 20
0.0
 30
0.0
  9
$PLIMCHECK
 70
     0
  9
$PEXTMIN
 10
1.0E20
 20
1.0E20
 30
1.0E20
  9
$PEXTMAX
 10
-1.0E20
 20
-1.0E20
 30
-1.0E20
  9
$PLIMMIN
 10
0.0
 20
0.0
  9
$PLIMMAX
 10
12.0
 20
9.0
  9
$UNITMODE
 70
     0
  9
$VISRETAIN
 70
     0
  0
ENDSEC
  0
SECTION
  2
TABLES
  0
TABLE
  2
VPORT
 70
     1
  0
VPORT
  2
*ACTIVE
 70
     0
 10
0.0
 20
0.0
 11
1.0
 21
1.0
 12
6.801242
 22
4.5
 13
0.0
 23
0.0
 14
1.0
 24
1.0
 15
0.0
 25
0.0
 16
0.0
 26
0.0
 36
1.0
 17
0.0
 27
0.0
 37
0.0
 40
9.0
 41
1.511387
 42
50.0
 43
0.0
 44
0.0
 50
0.0
 51
0.0
 71
     0
 72
   100
 73
     1
 74
     1
 75
     0
 76
     0
 77
     0
 78
     0
  0
ENDTAB
  0
TABLE
  2
LTYPE
 70
    41
  0
LTYPE
  2
BYBLOCK
 70
     0
  3

 72
    65
 73
     0
 40
0.0
  0
LTYPE
  2
BYLAYER
 70
     0
  3

 72
    65
 73
     0
 40
0.0
  0
LTYPE
  2
CONTINUOUS
 70
     0
  3
Solid line
 72
    65
 73
     0
 40
0.0
  0
LTYPE
  2
BORDER
 70
    64
  3
__ __ . __ __ . __ __ . __ __ . __ __ . __ __ .
 72
    65
 73
     6
 40
1.75
 49
0.5
 49
-0.25
 49
0.5
 49
-0.25
 49
0.0
 49
-0.25
  0
LTYPE
  2
BORDER2
 70
    64
  3
__.__.__.__.__.__.__.__.__.__.__.__.__.__.__.__
 72
    65
 73
     6
 40
0.875
 49
0.25
 49
-0.125
 49
0.25
 49
-0.125
 49
0.0
 49
-0.125
  0
LTYPE
  2
BORDERX2
 70
    64
  3
____  ____  .  ____  ____  .  ____  ____  .  __
 72
    65
 73
     6
 40
3.5
 49
1.0
 49
-0.5
 49
1.0
 49
-0.5
 49
0.0
 49
-0.5
  0
LTYPE
  2
CENTER
 70
    64
  3
____ _ ____ _ ____ _ ____ _ ____ _ ____ _ ____
 72
    65
 73
     4
 40
2.0
 49
1.25
 49
-0.25
 49
0.25
 49
-0.25
  0
LTYPE
  2
CENTER2
 70
    64
  3
___ _ ___ _ ___ _ ___ _ ___ _ ___ _ ___ _ ___ _
 72
    65
 73
     4
 40
1.125
 49
0.75
 49
-0.125
 49
0.125
 49
-0.125
  0
LTYPE
  2
CENTERX2
 70
    64
  3
________  __  ________  __  ________  __  _____
 72
    65
 73
     4
 40
4.0
 49
2.5
 49
-0.5
 49
0.5
 49
-0.5
  0
LTYPE
  2
DASHDOT
 70
    64
  3
__ . __ . __ . __ . __ . __ . __ . __ . __ . __
 72
    65
 73
     4
 40
1.0
 49
0.5
 49
-0.25
 49
0.0
 49
-0.25
  0
LTYPE
  2
DASHDOT2
 70
    64
  3
_._._._._._._._._._._._._._._._._._._._._._._._
 72
    65
 73
     4
 40
0.5
 49
0.25
 49
-0.125
 49
0.0
 49
-0.125
  0
LTYPE
  2
DASHDOTX2
 70
    64
  3
____  .  ____  .  ____  .  ____  .  ____  .  __
 72
    65
 73
     4
 40
2.0
 49
1.0
 49
-0.5
 49
0.0
 49
-0.5
  0
LTYPE
  2
DASHED
 70
    64
  3
__ __ __ __ __ __ __ __ __ __ __ __ __ __ __ __
 72
    65
 73
     2
 40
0.75
 49
0.5
 49
-0.25
  0
LTYPE
  2
DASHED2
 70
    64
  3
_ _ _ _ _ _ _ _ _ _ _ _ _ _ _ _ _ _ _ _ _ _ _ _
 72
    65
 73
     2
 40
0.375
 49
0.25
 49
-0.125
  0
LTYPE
  2
DASHEDX2
 70
    64
  3
____  ____  ____  ____  ____  ____  ____  ____
 72
    65
 73
     2
 40
1.5
 49
1.0
 49
-0.5
  0
LTYPE
  2
DIVIDE
 70
    64
  3
____ . . ____ . . ____ . . ____ . . ____ . . __
 72
    65
 73
     6
 40
1.25
 49
0.5
 49
-0.25
 49
0.0
 49
-0.25
 49
0.0
 49
-0.25
  0
LTYPE
  2
DIVIDE2
 70
    64
  3
__..__..__..__..__..__..__..__..__..__..__..__.
 72
    65
 73
     6
 40
0.625
 49
0.25
 49
-0.125
 49
0.0
 49
-0.125
 49
0.0
 49
-0.125
  0
LTYPE
  2
DIVIDEX2
 70
    64
  3
________  .  .  ________  .  .  ________  .  .
 72
    65
 73
     6
 40
2.5
 49
1.0
 49
-0.5
 49
0.0
 49
-0.5
 49
0.0
 49
-0.5
  0
LTYPE
  2
DOT
 70
    64
  3
. . . . . . . . . . . . . . . . . . . . . . . .
 72
    65
 73
     2
 40
0.25
 49
0.0
 49
-0.25
  0
LTYPE
  2
DOT2
 70
    64
  3
...............................................
 72
    65
 73
     2
 40
0.125
 49
0.0
 49
-0.125
  0
LTYPE
  2
DOTX2
 70
    64
  3
.  .  .  .  .  .  .  .  .  .  .  .  .  .  .  .
 72
    65
 73
     2
 40
0.5
 49
0.0
 49
-0.5
  0
LTYPE
  2
HIDDEN
 70
    64
  3
__ __ __ __ __ __ __ __ __ __ __ __ __ __ __ __
 72
    65
 73
     2
 40
0.375
 49
0.25
 49
-0.125
  0
LTYPE
  2
HIDDEN2
 70
    64
  3
_ _ _ _ _ _ _ _ _ _ _ _ _ _ _ _ _ _ _ _ _ _ _ _
 72
    65
 73
     2
 40
0.1875
 49
0.125
 49
-0.0625
  0
LTYPE
  2
HIDDENX2
 70
    64
  3
____ ____ ____ ____ ____ ____ ____ ____ ____ __
 72
    65
 73
     2
 40
0.75
 49
0.5
 49
-0.25
  0
LTYPE
  2
PHANTOM
 70
    64
  3
______  __  __  ______  __  __  ______  __  __
 72
    65
 73
     6
 40
2.5
 49
1.25
 49
-0.25
 49
0.25
 49
-0.25
 49
0.25
 49
-0.25
  0
LTYPE
  2
PHANTOM2
 70
    64
  3
___ _ _ ___ _ _ ___ _ _ ___ _ _ ___ _ _ ___ _ _
 72
    65
 73
     6
 40
1.25
 49
0.625
 49
-0.125
 49
0.125
 49
-0.125
 49
0.125
 49
-0.125
  0
LTYPE
  2
PHANTOMX2
 70
    64
  3
____________    ____    ____    ____________
 72
    65
 73
     6
 40
5.0
 49
2.5
 49
-0.5
 49
0.5
 49
-0.5
 49
0.5
 49
-0.5
  0
LTYPE
  2
ACAD_ISO02W100
 70
    64
  3
__ __ __ __ __ __ __ __ __ __ __ __ __ __ __ __
 72
    65
 73
     2
 40
15.0
 49
12.0
 49
-3.0
  0
LTYPE
  2
ACAD_ISO03W100
 70
    64
  3
__    __    __    __    __    __    __    __
 72
    65
 73
     2
 40
30.0
 49
12.0
 49
-18.0
  0
LTYPE
  2
ACAD_ISO04W100
 70
    64
  3
____ . ____ . ____ . ____ . ____ . ____ . ____
 72
    65
 73
     4
 40
30.5
 49
24.0
 49
-3.0
 49
0.5
 49
-3.0
  0
LTYPE
  2
ACAD_ISO05W100
 70
    64
  3
____ .. ____ .. ____ .. ____ .. ____ .. ____ ..
 72
    65
 73
     6
 40
34.0
 49
24.0
 49
-3.0
 49
0.5
 49
-3.0
 49
0.5
 49
-3.0
  0
LTYPE
  2
ACAD_ISO06W100
 70
    64
  3
____ ... ____ ... ____ ... ____ ... ____ ... __
 72
    65
 73
     8
 40
37.5
 49
24.0
 49
-3.0
 49
0.5
 49
-3.0
 49
0.5
 49
-3.0
 49
0.5
 49
-3.0
  0
LTYPE
  2
ACAD_ISO07W100
 70
    64
  3
. . . . . . . . . . . . . . . . . . . . . . . .
 72
    65
 73
     2
 40
3.5
 49
0.5
 49
-3.0
  0
LTYPE
  2
ACAD_ISO08W100
 70
    64
  3
____ __ ____ __ ____ __ ____ ____ __ __ ____ __
 72
    65
 73
     4
 40
36.0
 49
24.0
 49
-3.0
 49
6.0
 49
-3.0
  0
LTYPE
  2
ACAD_ISO09W100
 70
    64
  3
____ __ __ ____ __ __ ____ __ __ ____ __ __ ___
 72
    65
 73
     6
 40
45.0
 49
24.0
 49
-3.0
 49
6.0
 49
-3.0
 49
6.0
 49
-3.0
  0
LTYPE
  2
ACAD_ISO10W100
 70
    64
  3
__ . __ . __ . __ . __ . __ . __ . __ . __ . __
 72
    65
 73
     4
 40
18.5
 49
12.0
 49
-3.0
 49
0.5
 49
-3.0
  0
LTYPE
  2
ACAD_ISO11W100
 70
    64
  3
__ __ . __ __ . __ __ . __ __ . __ __ . __ __ .
 72
    65
 73
     6
 40
33.5
 49
12.0
 49
-3.0
 49
12.0
 49
-3.0
 49
0.5
 49
-3.0
  0
LTYPE
  2
ACAD_ISO12W100
 70
    64
  3
__ . . __ . . __ . . __ . . __ . . __ . . __ .
 72
    65
 73
     6
 40
22.0
 49
12.0
 49
-3.0
 49
0.5
 49
-3.0
 49
0.5
 49
-3.0
  0
LTYPE
  2
ACAD_ISO13W100
 70
    64
  3
__ __ . . __ __ . . __ __ . . __ __ . . __ __ .
 72
    65
 73
     8
 40
37.0
 49
12.0
 49
-3.0
 49
12.0
 49
-3.0
 49
0.5
 49
-3.0
 49
0.5
 49
-3.0
  0
LTYPE
  2
ACAD_ISO14W100
 70
    64
  3
__ . . . __ . . . __ . . . __ . . . __ . . . __
 72
    65
 73
     8
 40
25.5
 49
12.0
 49
-3.0
 49
0.5
 49
-3.0
 49
0.5
 49
-3.0
 49
0.5
 49
-3.0
  0
LTYPE
  2
ACAD_ISO15W100
 70
    64
  3
__ __ . . . __ __ . . . __ __ . . . __ __ . . .
 72
    65
 73
    10
 40
40.5
 49
12.0
 49
-3.0
 49
12.0
 49
-3.0
 49
0.5
 49
-3.0
 49
0.5
 49
-3.0
 49
0.5
 49
-3.0
  0
ENDTAB
  0
TABLE
  2
STYLE
 70
     4
  0
STYLE
  2
STANDARD
 70
    64
 40
0.0
 41
1.0
 50
0.0
 71
     0
 42
0.2
  3
txt
  4

  0
STYLE
  2
TOLERANCE
 70
    64
 40
0.0
 41
1.0
 50
0.0
 71
     0
 42
0.2
  3
../igesfont/iges1003.shx
  4

  0
STYLE
  2
ROMANS
 70
    64
 40
0.0
 41
1.0
 50
0.0
 71
     0
 42
0.2
  3
romans.shx
  4

  0
STYLE
  2
ROMANC
 70
    64
 40
0.0
 41
1.0
 50
0.0
 71
     0
 42
0.2
  3
romanc.shx
  4

  0
ENDTAB
  0
TABLE
  2
DIMSTYLE
 70
     2
  0
DIMSTYLE
  2
UNNAMED
 70
     0
  3

  4

  5

  6

  7

 40
1.0
 41
0.18
 42
0.0625
 43
0.38
 44
0.18
 45
0.0
 46
0.0
 47
0.0
 48
0.0
140
0.18
141
0.09
142
0.0
143
25.4
144
1.0
145
0.0
146
1.0
147
0.09
 71
     0
 72
     0
 73
     1
 74
     1
 75
     0
 76
     0
 77
     0
 78
     0
170
     0
171
     2
172
     0
173
     0
174
     0
175
     0
176
     0
177
     0
178
     0
  0
DIMSTYLE
  2
STANDARD
 70
     0
  3

  4

  5

  6

  7

 40
1.0
 41
0.18
 42
0.0625
 43
0.38
 44
0.18
 45
0.0
 46
0.0
 47
0.0
 48
0.0
140
0.18
141
0.09
142
0.0
143
25.4
144
1.0
145
0.0
146
1.0
147
0.09
 71
     0
 72
     0
 73
     1
 74
     1
 75
     0
 76
     0
 77
     0
 78
     0
170
     0
171
     2
172
     0
173
     0
174
     0
175
     0
176
     0
177
     0
178
     0
  0
ENDTAB
  0
TABLE
  2
LAYER
 70
     2
  0
LAYER
  2
0
 70
     0
 62
     7
  6
CONTINUOUS
  0
LAYER
  2
255
 70
     0
 62
     7
  6
CONTINUOUS
  0
ENDTAB
  0
ENDSEC
  0
SECTION
  2
BLOCKS
  0
BLOCK
  5
     B
  8
0
  6
CONTINUOUS
 62
     0
  2
SSS
 70
    64
 10
0.0
 20
0.0
 30
0.0
  3
SSS
  0
ARC
  5
     C
  8
0
  6
CONTINUOUS
 62
     0
 10
2.55000000000001
 20
2.55
 30
0.0
 40
2.0
 50
178.557523870135
 51
271.442476129865
  0
CIRCLE
  5
     D
  8
0
  6
CONTINUOUS
 62
     0
 10
0.0
 20
0.0
 30
0.0
 40
3.750066744417
  0
ARC
  5
     E
  8
0
  6
CONTINUOUS
 62
     0
 10
-2.54999999999998
 20
2.55
 30
0.0
 40
2.0
 50
268.557523870135
 51
361.442476129865
  0
ARC
  5
     F
  8
0
  6
CONTINUOUS
 62
     0
 10
1.4210854715202E-14
 20
0.0
 30
0.0
 40
2.6580067720004
 50
78.0440027883074
 51
101.955997211693
  0
ARC
  5
    10
  8
0
  6
CONTINUOUS
 62
     0
 10
1.4210854715202E-14
 20
7.105427357601E-15
 30
0.0
 40
2.6580067720004
 50
168.044002788308
 51
191.955997211693
  0
ARC
  5
    11
  8
0
  6
CONTINUOUS
 62
     0
 10
1.4210854715202E-14
 20
7.105427357601E-15
 30
0.0
 40
2.6580067720004
 50
348.044002788307
 51
371.955997211692
  0
ARC
  5
    12
  8
0
  6
CONTINUOUS
 62
     0
 10
2.55000000000001
 20
-2.55
 30
0.0
 40
2.0
 50
88.5575238701351
 51
181.442476129865
  0
ARC
  5
    13
  8
0
  6
CONTINUOUS
 62
     0
 10
-2.54999999999998
 20
-2.55
 30
0.0
 40
2.0
 50
358.557523870135
 51
451.442476129865
  0
ARC
  5
    14
  8
0
  6
CONTINUOUS
 62
     0
 10
1.4210854715202E-14
 20
7.105427357601E-15
 30
0.0
 40
2.6580067720004
 50
258.044002788307
 51
281.955997211693
  0
LINE
  5
    15
  8
0
  6
DASHDOT
 62
     0
 10
0.0
 20
-13.750066744417
 30
0.0
 11
0.0
 21
13.750066744417
 31
0.0
  0
LINE
  5
    16
  8
0
  6
DASHDOT
 62
     0
 10
-13.750066744417
 20
0.0
 30
0.0
 11
13.750066744417
 21
0.0
 31
0.0
  0
POINT
  5
    17
  8
0
  6
CONTINUOUS
 62
     0
 10
0.0
 20
0.0
 30
0.0
  0
ENDBLK
  5
    18
  8
0
  6
CONTINUOUS
 62
     0
  0
BLOCK
  5
    19
  8
0
  6
CONTINUOUS
 62
     3
  2
*UDIM34
 70
    65
 10
0.0
 20
0.0
 30
0.0
  3
*UDIM34
  0
TEXT
  5
    1A
  8
0
  6
CONTINUOUS
 62
     3
 10
-367.324861860569
 20
98.5824543669471
 30
0.0
 40
3.00000002980232
  1
78
 50
359.999999844103
 41
0.933333333333333
 72
     1
 11
-364.82486183166
 21
100.082454375059
 31
0.0
 73
     2
  0
TEXT
  5
    1B
  8
0
  6
CONTINUOUS
 62
     3
 10
-379.924861985739
 20
94.582454371365
 30
0.0
 40
3.00000002980232
  1
=         =
 50
359.999999844103
 41
0.933333333333333
 72
     1
 11
-364.82486183166
 21
96.0824543452562
 31
0.0
 73
     2
  0
LINE
  5
    1C
  8
0
  6
CONTINUOUS
 62
     3
 10
-403.824839724442
 20
56.2552914647758
 30
0.0
 11
-403.824840505406
 21
99.5824543601574
 31
0.0
  0
LINE
  5
    1D
  8
0
  6
CONTINUOUS
 62
     3
 10
-325.824879618385
 20
56.2552914647758
 30
0.0
 11
-325.824883367001
 21
99.5824543601574
 31
0.0
  0
LINE
  5
    1E
  8
0
  6
CONTINUOUS
 62
     3
 10
-403.824840469357
 20
97.5824543601574
 30
0.0
 11
-325.824883193963
 21
97.5824543601574
 31
0.0
  0
LINE
  5
    1F
  8
0
  6
CONTINUOUS
 62
     3
 10
-400.927062996146
 20
98.358911516576
 30
0.0
 11
-403.824840469357
 21
97.5824543601574
 31
0.0
  0
LINE
  5
    20
  8
0
  6
CONTINUOUS
 62
     3
 10
-403.824840469357
 20
97.5824543601574
 30
0.0
 11
-400.927062996146
 21
96.8059972037389
 31
0.0
  0
LINE
  5
    21
  8
0
  6
CONTINUOUS
 62
     3
 10
-328.722660667174
 20
96.8059972037389
 30
0.0
 11
-325.824883193963
 21
97.5824543601574
 31
0.0
  0
LINE
  5
    22
  8
0
  6
CONTINUOUS
 62
     3
 10
-325.824883193963
 20
97.5824543601574
 30
0.0
 11
-328.722660667174
 21
98.358911516576
 31
0.0
  0
ENDBLK
  5
    23
  8
0
  6
CONTINUOUS
 62
     3
  0
BLOCK
  5
    24
  8
0
  6
CONTINUOUS
 62
     3
  2
*UDIM35
 70
    65
 10
0.0
 20
0.0
 30
0.0
  3
*UDIM35
  0
TEXT
  5
    25
  8
0
  6
CONTINUOUS
 62
     3
 10
-367.324965505899
 20
107.800300712566
 30
0.0
 40
3.00000002980232
  1
91
 50
359.999999844103
 41
0.933333333333333
 72
     1
 11
-364.82496547699
 21
109.300300720677
 31
0.0
 73
     2
  0
LINE
  5
    26
  8
0
  6
CONTINUOUS
 62
     3
 10
-410.32496547699
 20
36.0053882598877
 30
0.0
 11
-410.32496547699
 21
108.800300705776
 31
0.0
  0
LINE
  5
    27
  8
0
  6
CONTINUOUS
 62
     3
 10
-319.32496547699
 20
36.0053882598877
 30
0.0
 11
-319.32496547699
 21
108.800300705776
 31
0.0
  0
LINE
  5
    28
  8
0
  6
CONTINUOUS
 62
     3
 10
-410.32496547699
 20
106.800300705776
 30
0.0
 11
-319.32496547699
 21
106.800300705776
 31
0.0
  0
LINE
  5
    29
  8
0
  6
CONTINUOUS
 62
     3
 10
-407.427188003779
 20
107.576757862194
 30
0.0
 11
-410.32496547699
 21
106.800300705776
 31
0.0
  0
LINE
  5
    2A
  8
0
  6
CONTINUOUS
 62
     3
 10
-410.32496547699
 20
106.800300705776
 30
0.0
 11
-407.427188003779
 21
106.023843549357
 31
0.0
  0
LINE
  5
    2B
  8
0
  6
CONTINUOUS
 62
     3
 10
-322.2227429502
 20
106.023843549357
 30
0.0
 11
-319.32496547699
 21
106.800300705776
 31
0.0
  0
LINE
  5
    2C
  8
0
  6
CONTINUOUS
 62
     3
 10
-319.32496547699
 20
106.800300705776
 30
0.0
 11
-322.2227429502
 21
107.576757862194
 31
0.0
  0
ENDBLK
  5
    2D
  8
0
  6
CONTINUOUS
 62
     3
  0
BLOCK
  5
    2E
  8
0
  6
CONTINUOUS
 62
     3
  2
*UDIM36
 70
    65
 10
0.0
 20
0.0
 30
0.0
  3
*UDIM36
  0
TEXT
  5
    2F
  8
0
  6
CONTINUOUS
 62
     3
 10
-422.467282936786
 20
-14.2446117690195
 30
0.0
 40
3.00000002980232
  1
96
 50
449.999999844103
 41
0.933333333333333
 72
     1
 11
-423.9672829449
 21
-11.7446117401123
 31
0.0
 73
     2
  0
LINE
  5
    30
  8
0
  6
CONTINUOUS
 62
     3
 10
-410.07496547699
 20
36.2553882598877
 30
0.0
 11
-423.467282929999
 21
36.2553882598877
 31
0.0
  0
LINE
  5
    31
  8
0
  6
CONTINUOUS
 62
     3
 10
-410.07496547699
 20
-59.7446117401123
 30
0.0
 11
-423.467282929999
 21
-59.7446117401123
 31
0.0
  0
LINE
  5
    32
  8
0
  6
CONTINUOUS
 62
     3
 10
-421.467282929999
 20
36.2553882598877
 30
0.0
 11
-421.467282929999
 21
-59.7446117401123
 31
0.0
  0
LINE
  5
    33
  8
0
  6
CONTINUOUS
 62
     3
 10
-420.690825773581
 20
33.3576107866772
 30
0.0
 11
-421.467282929999
 21
36.2553882598877
 31
0.0
  0
LINE
  5
    34
  8
0
  6
CONTINUOUS
 62
     3
 10
-421.467282929999
 20
36.2553882598877
 30
0.0
 11
-422.243740086418
 21
33.3576107866772
 31
0.0
  0
LINE
  5
    35
  8
0
  6
CONTINUOUS
 62
     3
 10
-422.243740086418
 20
-56.8468342669018
 30
0.0
 11
-421.467282929999
 21
-59.7446117401123
 31
0.0
  0
LINE
  5
    36
  8
0
  6
CONTINUOUS
 62
     3
 10
-421.467282929999
 20
-59.7446117401123
 30
0.0
 11
-420.690825773581
 21
-56.8468342669018
 31
0.0
  0
ENDBLK
  5
    37
  8
0
  6
CONTINUOUS
 62
     3
  0
BLOCK
  5
    38
  8
0
  6
CONTINUOUS
 62
     7
  2
*UDIM37
 70
    65
 10
0.0
 20
0.0
 30
0.0
  3
*UDIM37
  0
TEXT
  5
    39
  8
0
  6
CONTINUOUS
 62
     7
 10
-429.888861901096
 20
-3.91970429529401
 30
0.0
 40
3.00000002980232
  1
120
 50
449.999999844103
 41
0.933333333333333
 72
     1
 11
-431.38886190541
 21
-1.97042524790447E-2
 31
0.0
 73
     2
  0
LINE
  5
    3A
  8
0
  6
CONTINUOUS
 62
     3
 10
-350.82485309602
 20
60.2552881240875
 30
0.0
 11
-430.888861890509
 21
60.2552881240875
 31
0.0
  0
LINE
  5
    3B
  8
0
  6
CONTINUOUS
 62
     3
 10
-350.824845314028
 20
-59.7446966171247
 30
0.0
 11
-430.888861890509
 21
-59.7446966171247
 31
0.0
  0
LINE
  5
    3C
  8
0
  6
CONTINUOUS
 62
     3
 10
-428.888861890509
 20
60.2552881240875
 30
0.0
 11
-428.888861890509
 21
-59.7446966171247
 31
0.0
  0
LINE
  5
    3D
  8
0
  6
CONTINUOUS
 62
     3
 10
-428.367917460558
 20
57.3008648468805
 30
0.0
 11
-428.888861890509
 21
60.2552881240875
 31
0.0
  0
LINE
  5
    3E
  8
0
  6
CONTINUOUS
 62
     3
 10
-428.888861890509
 20
60.2552881240875
 30
0.0
 11
-429.409806320461
 21
57.3008648468805
 31
0.0
  0
LINE
  5
    3F
  8
0
  6
CONTINUOUS
 62
     3
 10
-429.409806320461
 20
-56.7902733399177
 30
0.0
 11
-428.888861890509
 21
-59.7446966171247
 31
0.0
  0
LINE
  5
    40
  8
0
  6
CONTINUOUS
 62
     3
 10
-428.888861890509
 20
-59.7446966171247
 30
0.0
 11
-428.367917460558
 21
-56.7902733399177
 31
0.0
  0
ENDBLK
  5
    41
  8
0
  6
CONTINUOUS
 62
     7
  0
BLOCK
  5
    42
  8
0
  6
CONTINUOUS
 62
     7
  2
*UDIM38
 70
    65
 10
0.0
 20
0.0
 30
0.0
  3
*UDIM38
  0
TEXT
  5
    43
  8
0
  6
CONTINUOUS
 62
     7
 10
-429.888861904897
 20
67.3052880673642
 30
0.0
 40
3.00000002980232
  1
24.5
 50
449.999999844103
 41
0.933333333333333
 72
     1
 11
-431.38886190541
 21
72.6052881240869
 31
0.0
 73
     2
  0
LINE
  5
    44
  8
0
  6
CONTINUOUS
 62
     3
 10
-378.074823478438
 20
84.9552881240863
 30
0.0
 11
-430.888861890509
 21
84.9552881240863
 31
0.0
  0
LINE
  5
    45
  8
0
  6
CONTINUOUS
 62
     3
 10
-428.888861890509
 20
84.9552881240863
 30
0.0
 11
-428.888861890509
 21
60.2552881240875
 31
0.0
  0
LINE
  5
    46
  8
0
  6
CONTINUOUS
 62
     3
 10
-428.367917460558
 20
82.0008648468793
 30
0.0
 11
-428.888861890509
 21
84.9552881240863
 31
0.0
  0
LINE
  5
    47
  8
0
  6
CONTINUOUS
 62
     3
 10
-428.888861890509
 20
84.9552881240863
 30
0.0
 11
-429.409806320461
 21
82.0008648468793
 31
0.0
  0
LINE
  5
    48
  8
0
  6
CONTINUOUS
 62
     3
 10
-429.665319046928
 20
63.153065597298
 30
0.0
 11
-428.888861890509
 21
60.2552881240875
 31
0.0
  0
LINE
  5
    49
  8
0
  6
CONTINUOUS
 62
     3
 10
-428.888861890509
 20
60.2552881240875
 30
0.0
 11
-428.112404734091
 21
63.153065597298
 31
0.0
  0
ENDBLK
  5
    4A
  8
0
  6
CONTINUOUS
 62
     7
  0
BLOCK
  5
    4B
  8
0
  6
CONTINUOUS
 62
     7
  2
*UDIM39
 70
    65
 10
0.0
 20
0.0
 30
0.0
  3
*UDIM39
  0
TEXT
  5
    4C
  8
0
  6
CONTINUOUS
 62
     7
 10
-380.099859654011
 20
87.4058156728847
 30
0.0
 40
3.00000002980232
  1
25
 50
359.999999844103
 41
0.933333333333333
 72
     1
 11
-377.599859625102
 21
88.9058156809961
 31
0.0
 73
     2
  0
LINE
  5
    4D
  8
0
  6
CONTINUOUS
 62
     3
 10
-389.824889414962
 20
65.4552964973246
 30
0.0
 11
-389.824889414962
 21
88.405815666095
 31
0.0
  0
LINE
  5
    4E
  8
0
  6
CONTINUOUS
 62
     3
 10
-364.824829823321
 20
66.027562208642
 30
0.0
 11
-364.824829823321
 21
88.405815666095
 31
0.0
  0
LINE
  5
    4F
  8
0
  6
CONTINUOUS
 62
     3
 10
-389.824889414962
 20
86.405815666095
 30
0.0
 11
-364.824829823321
 21
86.405815666095
 31
0.0
  0
LINE
  5
    50
  8
0
  6
CONTINUOUS
 62
     3
 10
-386.870466137755
 20
86.9267600960467
 30
0.0
 11
-389.824889414962
 21
86.405815666095
 31
0.0
  0
LINE
  5
    51
  8
0
  6
CONTINUOUS
 62
     3
 10
-389.824889414962
 20
86.405815666095
 30
0.0
 11
-386.870466137755
 21
85.8848712361433
 31
0.0
  0
LINE
  5
    52
  8
0
  6
CONTINUOUS
 62
     3
 10
-367.779253100528
 20
85.8848712361433
 30
0.0
 11
-364.824829823321
 21
86.405815666095
 31
0.0
  0
LINE
  5
    53
  8
0
  6
CONTINUOUS
 62
     3
 10
-364.824829823321
 20
86.405815666095
 30
0.0
 11
-367.779253100528
 21
86.9267600960467
 31
0.0
  0
ENDBLK
  5
    54
  8
0
  6
CONTINUOUS
 62
     7
  0
BLOCK
  5
    55
  8
0
  6
CONTINUOUS
 62
     7
  2
*UDIM40
 70
    65
 10
0.0
 20
0.0
 30
0.0
  3
*UDIM40
  0
TEXT
  5
    56
  8
0
  6
CONTINUOUS
 62
     7
 10
-355.099829142935
 20
87.4058156728847
 30
0.0
 40
3.00000002980232
  1
25
 50
359.999999844103
 41
0.933333333333333
 72
     1
 11
-352.599829114026
 21
88.9058156809961
 31
0.0
 73
     2
  0
LINE
  5
    57
  8
0
  6
CONTINUOUS
 62
     3
 10
-339.824829823321
 20
65.4552964973246
 30
0.0
 11
-339.824829823321
 21
88.405815666095
 31
0.0
  0
LINE
  5
    58
  8
0
  6
CONTINUOUS
 62
     3
 10
-364.824829823321
 20
86.405815666095
 30
0.0
 11
-339.824829823321
 21
86.405815666095
 31
0.0
  0
LINE
  5
    59
  8
0
  6
CONTINUOUS
 62
     3
 10
-361.870406546114
 20
86.9267600960467
 30
0.0
 11
-364.824829823321
 21
86.405815666095
 31
0.0
  0
LINE
  5
    5A
  8
0
  6
CONTINUOUS
 62
     3
 10
-364.824829823321
 20
86.405815666095
 30
0.0
 11
-361.870406546114
 21
85.8848712361433
 31
0.0
  0
LINE
  5
    5B
  8
0
  6
CONTINUOUS
 62
     3
 10
-342.779253100528
 20
85.8848712361433
 30
0.0
 11
-339.824829823321
 21
86.405815666095
 31
0.0
  0
LINE
  5
    5C
  8
0
  6
CONTINUOUS
 62
     3
 10
-339.824829823321
 20
86.405815666095
 30
0.0
 11
-342.779253100528
 21
86.9267600960467
 31
0.0
  0
ENDBLK
  5
    5D
  8
0
  6
CONTINUOUS
 62
     7
  0
BLOCK
  5
    5E
  8
0
  6
CONTINUOUS
 62
     7
  2
*UDIM41
 70
    65
 10
0.0
 20
0.0
 30
0.0
  3
*UDIM41
  0
TEXT
  5
    5F
  8
0
  6
CONTINUOUS
 62
     7
 10
-309.936570408946
 20
-1.59468137334191
 30
0.0
 40
3.00000002980232
  1
=
 50
449.999999844103
 41
0.933333333333334
 72
     1
 11
-311.436570420861
 21
-0.494681358342447
 31
0.0
 73
     2
  0
LINE
  5
    60
  8
0
  6
CONTINUOUS
 62
     3
 10
-324.824886322021
 20
10.7553186416576
 30
0.0
 11
-306.93657040596
 21
10.7553186416576
 31
0.0
  0
LINE
  5
    61
  8
0
  6
CONTINUOUS
 62
     3
 10
-310.827509549927
 20
-11.7446813583424
 30
0.0
 11
-306.93657040596
 21
-11.7446813583424
 31
0.0
  0
LINE
  5
    62
  8
0
  6
CONTINUOUS
 62
     3
 10
-308.93657040596
 20
10.7553186416576
 30
0.0
 11
-308.93657040596
 21
-11.7446813583424
 31
0.0
  0
LINE
  5
    63
  8
0
  6
CONTINUOUS
 62
     3
 10
-308.415625976008
 20
7.80089536445059
 30
0.0
 11
-308.93657040596
 21
10.7553186416576
 31
0.0
  0
LINE
  5
    64
  8
0
  6
CONTINUOUS
 62
     3
 10
-308.93657040596
 20
10.7553186416576
 30
0.0
 11
-309.457514835912
 21
7.80089536445059
 31
0.0
  0
LINE
  5
    65
  8
0
  6
CONTINUOUS
 62
     3
 10
-309.457514835912
 20
-8.79025808113548
 30
0.0
 11
-308.93657040596
 21
-11.7446813583424
 31
0.0
  0
LINE
  5
    66
  8
0
  6
CONTINUOUS
 62
     3
 10
-308.93657040596
 20
-11.7446813583424
 30
0.0
 11
-308.415625976008
 21
-8.79025808113548
 31
0.0
  0
ENDBLK
  5
    67
  8
0
  6
CONTINUOUS
 62
     7
  0
BLOCK
  5
    68
  8
0
  6
CONTINUOUS
 62
     7
  2
*UDIM42
 70
    65
 10
0.0
 20
0.0
 30
0.0
  3
*UDIM42
  0
TEXT
  5
    69
  8
0
  6
CONTINUOUS
 62
     7
 10
-309.936570408946
 20
-24.094681373336
 30
0.0
 40
3.00000002980232
  1
=
 50
449.999999844103
 41
0.933333333333334
 72
     1
 11
-311.436570420861
 21
-22.9946813583365
 31
0.0
 73
     2
  0
LINE
  5
    6A
  8
0
  6
CONTINUOUS
 62
     3
 10
-324.824893188475
 20
-34.2446813583306
 30
0.0
 11
-306.93657040596
 21
-34.2446813583306
 31
0.0
  0
LINE
  5
    6B
  8
0
  6
CONTINUOUS
 62
     3
 10
-308.93657040596
 20
-11.7446813583424
 30
0.0
 11
-308.93657040596
 21
-34.2446813583306
 31
0.0
  0
LINE
  5
    6C
  8
0
  6
CONTINUOUS
 62
     3
 10
-308.415625976008
 20
-14.6991046355494
 30
0.0
 11
-308.93657040596
 21
-11.7446813583424
 31
0.0
  0
LINE
  5
    6D
  8
0
  6
CONTINUOUS
 62
     3
 10
-308.93657040596
 20
-11.7446813583424
 30
0.0
 11
-309.457514835912
 21
-14.6991046355494
 31
0.0
  0
LINE
  5
    6E
  8
0
  6
CONTINUOUS
 62
     3
 10
-309.457514835912
 20
-31.2902580811236
 30
0.0
 11
-308.93657040596
 21
-34.2446813583306
 31
0.0
  0
LINE
  5
    6F
  8
0
  6
CONTINUOUS
 62
     3
 10
-308.93657040596
 20
-34.2446813583306
 30
0.0
 11
-308.415625976008
 21
-31.2902580811236
 31
0.0
  0
ENDBLK
  5
    70
  8
0
  6
CONTINUOUS
 62
     7
  0
BLOCK
  5
    71
  8
0
  6
CONTINUOUS
 62
     3
  2
*UDIM43
 70
    65
 10
0.0
 20
0.0
 30
0.0
  3
*UDIM43
  0
TEXT
  5
    72
  8
0
  6
CONTINUOUS
 62
     3
 10
-301.371411807171
 20
-38.5196890226012
 30
0.0
 40
3.00000002980232
  1
48
 50
449.999999844103
 41
0.933333333333333
 72
     1
 11
-302.871411815286
 21
-36.019688993694
 31
0.0
 73
     2
  0
LINE
  5
    73
  8
0
  6
CONTINUOUS
 62
     3
 10
-311.827509549927
 20
-11.7446813583424
 30
0.0
 11
-298.371411800385
 21
-11.7446813583424
 31
0.0
  0
LINE
  5
    74
  8
0
  6
CONTINUOUS
 62
     3
 10
-329.324848403937
 20
-59.7446966171247
 30
0.0
 11
-298.371411800385
 21
-59.7446966171247
 31
0.0
  0
LINE
  5
    75
  8
0
  6
CONTINUOUS
 62
     3
 10
-300.371411800385
 20
-11.7446813583424
 30
0.0
 11
-300.371411800385
 21
-59.7446966171247
 31
0.0
  0
LINE
  5
    76
  8
0
  6
CONTINUOUS
 62
     3
 10
-299.850467370433
 20
-14.6991046355494
 30
0.0
 11
-300.371411800385
 21
-11.7446813583424
 31
0.0
  0
LINE
  5
    77
  8
0
  6
CONTINUOUS
 62
     3
 10
-300.371411800385
 20
-11.7446813583424
 30
0.0
 11
-300.892356230336
 21
-14.6991046355494
 31
0.0
  0
LINE
  5
    78
  8
0
  6
CONTINUOUS
 62
     3
 10
-300.892356230336
 20
-56.7902733399177
 30
0.0
 11
-300.371411800385
 21
-59.7446966171247
 31
0.0
  0
LINE
  5
    79
  8
0
  6
CONTINUOUS
 62
     3
 10
-300.371411800385
 20
-59.7446966171247
 30
0.0
 11
-299.850467370433
 21
-56.7902733399177
 31
0.0
  0
ENDBLK
  5
    7A
  8
0
  6
CONTINUOUS
 62
     3
  0
BLOCK
  5
    7B
  8
0
  6
CONTINUOUS
 62
     7
  2
DIAFRAMMA
 70
    64
 10
0.0
 20
0.0
 30
0.0
  3
DIAFRAMMA
  0
LINE
  5
    7C
  8
0
  6
CONTINUOUS
 62
   210
 10
-0.75
 20
26.7
 30
0.0
 11
0.75
 21
26.7
 31
0.0
  0
LINE
  5
    7D
  8
0
  6
CONTINUOUS
 62
   210
 10
0.75
 20
2.2
 30
0.0
 11
0.75
 21
26.7
 31
0.0
  0
LINE
  5
    7E
  8
0
  6
CONTINUOUS
 62
   210
 10
-0.75
 20
2.2
 30
0.0
 11
-0.75
 21
26.7
 31
0.0
  0
LINE
  5
    7F
  8
0
  6
CONTINUOUS
 62
   210
 10
-1.4
 20
2.2
 30
0.0
 11
-0.75
 21
2.2
 31
0.0
  0
LINE
  5
    80
  8
0
  6
CONTINUOUS
 62
   210
 10
0.75
 20
2.2
 30
0.0
 11
1.4
 21
2.2
 31
0.0
  0
LINE
  5
    81
  8
0
  6
CONTINUOUS
 62
   210
 10
-1.4
 20
-2.1
 30
0.0
 11
-1.4
 21
2.2
 31
0.0
  0
LINE
  5
    82
  8
0
  6
CONTINUOUS
 62
   210
 10
-2.25
 20
0.0
 30
0.0
 11
-1.4
 21
0.0
 31
0.0
  0
LINE
  5
    83
  8
0
  6
CONTINUOUS
 62
   210
 10
-2.25
 20
-1.3
 30
0.0
 11
-2.25
 21
2.22044604925031E-16
 31
0.0
  0
LINE
  5
    84
  8
0
  6
CONTINUOUS
 62
   210
 10
-2.25
 20
-1.3
 30
0.0
 11
2.25
 21
-1.3
 31
0.0
  0
LINE
  5
    85
  8
0
  6
CONTINUOUS
 62
   210
 10
-1.4
 20
-2.1
 30
0.0
 11
1.4
 21
-2.1
 31
0.0
  0
LINE
  5
    86
  8
0
  6
CONTINUOUS
 62
   210
 10
1.4
 20
0.0
 30
0.0
 11
2.25
 21
0.0
 31
0.0
  0
LINE
  5
    87
  8
0
  6
CONTINUOUS
 62
   210
 10
1.4
 20
-2.1
 30
0.0
 11
1.4
 21
2.2
 31
0.0
  0
LINE
  5
    88
  8
0
  6
CONTINUOUS
 62
   210
 10
2.25
 20
-1.3
 30
0.0
 11
2.25
 21
4.44089209850063E-16
 31
0.0
  0
ENDBLK
  5
    89
  8
0
  6
CONTINUOUS
 62
     7
  0
BLOCK
  5
    8A
  8
0
  6
CONTINUOUS
 62
     3
  2
*UDIM44
 70
    65
 10
0.0
 20
0.0
 30
0.0
  3
*UDIM44
  0
TEXT
  5
    8B
  8
0
  6
CONTINUOUS
 62
     3
 10
-367.324830024541
 20
-77.4659995964818
 30
0.0
 40
3.00000002980232
  1
25
 50
359.999999844103
 41
0.933333333333333
 72
     1
 11
-364.824829995632
 21
-75.9659995883703
 31
0.0
 73
     2
  0
TEXT
  5
    8C
  8
0
  6
CONTINUOUS
 62
     3
 10
-370.124830052357
 20
-81.4659996186796
 30
0.0
 40
3.00000002980232
  1
=  =
 50
359.999999844103
 41
0.933333333333333
 72
     1
 11
-364.824829995632
 21
-79.9659996181726
 31
0.0
 73
     2
  0
LINE
  5
    8D
  8
0
  6
CONTINUOUS
 62
     3
 10
-371.074829921126
 20
-93.648681333661
 30
0.0
 11
-371.074829921126
 21
-76.4659996032715
 31
0.0
  0
LINE
  5
    8E
  8
0
  6
CONTINUOUS
 62
     3
 10
-358.574830070138
 20
-143.648670056462
 30
0.0
 11
-358.574830070138
 21
-76.4659996032715
 31
0.0
  0
LINE
  5
    8F
  8
0
  6
CONTINUOUS
 62
     3
 10
-371.074829921126
 20
-78.4659996032715
 30
0.0
 11
-358.574830070138
 21
-78.4659996032715
 31
0.0
  0
LINE
  5
    90
  8
0
  6
CONTINUOUS
 62
     3
 10
-368.120406643919
 20
-77.9450551733198
 30
0.0
 11
-371.074829921126
 21
-78.4659996032715
 31
0.0
  0
LINE
  5
    91
  8
0
  6
CONTINUOUS
 62
     3
 10
-371.074829921126
 20
-78.4659996032715
 30
0.0
 11
-368.120406643919
 21
-78.9869440332232
 31
0.0
  0
LINE
  5
    92
  8
0
  6
CONTINUOUS
 62
     3
 10
-361.529253347345
 20
-78.9869440332232
 30
0.0
 11
-358.574830070138
 21
-78.4659996032715
 31
0.0
  0
LINE
  5
    93
  8
0
  6
CONTINUOUS
 62
     3
 10
-358.574830070138
 20
-78.4659996032715
 30
0.0
 11
-361.529253347345
 21
-77.9450551733198
 31
0.0
  0
ENDBLK
  5
    94
  8
0
  6
CONTINUOUS
 62
     3
  0
BLOCK
  5
    95
  8
0
  6
CONTINUOUS
 62
     3
  2
*UDIM45
 70
    65
 10
0.0
 20
0.0
 30
0.0
  3
*UDIM45
  0
TEXT
  5
    96
  8
0
  6
CONTINUOUS
 62
     3
 10
-402.848657614819
 20
-116.123680522143
 30
0.0
 40
3.00000002980232
  1
62
 50
449.999999844103
 41
0.933333333333333
 72
     1
 11
-404.348657622933
 21
-113.623680493236
 31
0.0
 73
     2
  0
LINE
  5
    97
  8
0
  6
CONTINUOUS
 62
     3
 10
-376.524829849601
 20
-97.8486812621354
 30
0.0
 11
-403.848657608032
 21
-97.8486812621354
 31
0.0
  0
LINE
  5
    98
  8
0
  6
CONTINUOUS
 62
     3
 10
-383.224154652135
 20
-128.848681262135
 30
0.0
 11
-403.848657608032
 21
-128.848681262135
 31
0.0
  0
LINE
  5
    99
  8
0
  6
CONTINUOUS
 62
     3
 10
-401.848657608032
 20
-97.8486812621354
 30
0.0
 11
-401.848657608032
 21
-128.848681262135
 31
0.0
  0
LINE
  5
    9A
  8
0
  6
CONTINUOUS
 62
     3
 10
-401.327713178081
 20
-100.803104539342
 30
0.0
 11
-401.848657608032
 21
-97.8486812621354
 31
0.0
  0
LINE
  5
    9B
  8
0
  6
CONTINUOUS
 62
     3
 10
-401.848657608032
 20
-97.8486812621354
 30
0.0
 11
-402.369602037984
 21
-100.803104539342
 31
0.0
  0
LINE
  5
    9C
  8
0
  6
CONTINUOUS
 62
     3
 10
-402.369602037984
 20
-125.894257984928
 30
0.0
 11
-401.848657608032
 21
-128.848681262135
 31
0.0
  0
LINE
  5
    9D
  8
0
  6
CONTINUOUS
 62
     3
 10
-401.848657608032
 20
-128.848681262135
 30
0.0
 11
-401.327713178081
 21
-125.894257984928
 31
0.0
  0
ENDBLK
  5
    9E
  8
0
  6
CONTINUOUS
 62
     3
  0
BLOCK
  5
    9F
  8
0
  6
CONTINUOUS
 62
     3
  2
*UDIM46
 70
    65
 10
0.0
 20
0.0
 30
0.0
  3
*UDIM46
  0
TEXT
  5
    A0
  8
0
  6
CONTINUOUS
 62
     3
 10
-417.313678752042
 20
-127.023674808044
 30
0.0
 40
3.00000002980232
  1
100
 50
449.999999844103
 41
0.933333333333333
 72
     1
 11
-418.813678756356
 21
-123.123674765229
 31
0.0
 73
     2
  0
LINE
  5
    A1
  8
0
  6
CONTINUOUS
 62
     3
 10
-376.524829849601
 20
-97.8486812621354
 30
0.0
 11
-418.313678741455
 21
-97.8486812621354
 31
0.0
  0
LINE
  5
    A2
  8
0
  6
CONTINUOUS
 62
     3
 10
-365.899829998612
 20
-147.848669984937
 30
0.0
 11
-418.313678741455
 21
-147.848669984937
 31
0.0
  0
LINE
  5
    A3
  8
0
  6
CONTINUOUS
 62
     3
 10
-416.313678741455
 20
-97.8486812621354
 30
0.0
 11
-416.313678741455
 21
-147.848669984937
 31
0.0
  0
LINE
  5
    A4
  8
0
  6
CONTINUOUS
 62
     3
 10
-415.792734311503
 20
-100.803104539342
 30
0.0
 11
-416.313678741455
 21
-97.8486812621354
 31
0.0
  0
LINE
  5
    A5
  8
0
  6
CONTINUOUS
 62
     3
 10
-416.313678741455
 20
-97.8486812621354
 30
0.0
 11
-416.834623171407
 21
-100.803104539342
 31
0.0
  0
LINE
  5
    A6
  8
0
  6
CONTINUOUS
 62
     3
 10
-416.834623171407
 20
-144.89424670773
 30
0.0
 11
-416.313678741455
 21
-147.848669984937
 31
0.0
  0
LINE
  5
    A7
  8
0
  6
CONTINUOUS
 62
     3
 10
-416.313678741455
 20
-147.848669984937
 30
0.0
 11
-415.792734311503
 21
-144.89424670773
 31
0.0
  0
ENDBLK
  5
    A8
  8
0
  6
CONTINUOUS
 62
     3
  0
BLOCK
  5
    A9
  8
0
  6
CONTINUOUS
 62
     7
  2
*UDIM47
 70
    65
 10
0.0
 20
0.0
 30
0.0
  3
*UDIM47
  0
TEXT
  5
    AA
  8
0
  6
CONTINUOUS
 62
     7
 10
-385.726748586722
 20
-107.951781572141
 30
0.0
 40
3.00000002980232
  1
4.5
 50
397.808870350437
 41
0.933333333333333
 72
     1
 11
-383.565058181777
 21
-104.37587679991
 31
0.0
 73
     2
  0
TEXT
  5
    AB
  8
0
  6
CONTINUOUS
 62
     7
 10
-388.886989057941
 20
-110.403899106536
 30
0.0
 40
3.00000002980232
  1
Ø
 50
397.808870350437
 41
1.2
 72
     1
 11
-388.621442946829
 21
-108.299264850357
 31
0.0
 73
     2
  0
TEXT
  5
    AC
  8
0
  6
CONTINUOUS
 62
     7
 10
-398.051686457301
 20
-117.515039944768
 30
0.0
 40
3.00000002980232
  1
M4 o
 50
397.808870350437
 41
0.933333333333333
 72
     1
 11
-394.783911880953
 21
-113.080894038173
 31
0.0
 73
     2
  0
LINE
  5
    AD
  8
0
  6
CONTINUOUS
 62
     7
 10
-371.173587435241
 20
-97.9253099343534
 30
0.0
 11
-397.438657067516
 21
-118.305100066558
 31
0.0
  0
LINE
  5
    AE
  8
0
  6
CONTINUOUS
 62
     3
 10
-373.777074898408
 20
-100.928209862016
 30
0.0
 11
-371.963647548158
 21
-98.5383393120975
 31
0.0
  0
LINE
  5
    AF
  8
0
  6
CONTINUOUS
 62
     3
 10
-371.963647548158
 20
-98.5383393120975
 30
0.0
 11
-374.729056993296
 21
-99.7013142046651
 31
0.0
  0
ENDBLK
  5
    B0
  8
0
  6
CONTINUOUS
 62
     7
  0
BLOCK
  5
    B1
  8
0
  6
CONTINUOUS
 62
     3
  2
*UDIM48
 70
    65
 10
0.0
 20
0.0
 30
0.0
  3
*UDIM48
  0
TEXT
  5
    B2
  8
0
  6
CONTINUOUS
 62
     3
 10
-111.449692984155
 20
107.914634714177
 30
0.0
 40
3.00000002980232
  1
83,5
 50
359.999999896069
 41
0.933333333333333
 72
     1
 11
-106.149692928791
 21
109.414634719491
 31
0.0
 73
     2
  0
LINE
  5
    B3
  8
0
  6
CONTINUOUS
 62
     3
 10
-84.99969342947
 20
89.0006431251763
 30
0.0
 11
-84.99969342947
 21
108.91463470459
 31
0.0
  0
LINE
  5
    B4
  8
0
  6
CONTINUOUS
 62
     3
 10
-126.74969342947
 20
89.0006431251763
 30
0.0
 11
-126.74969342947
 21
108.91463470459
 31
0.0
  0
LINE
  5
    B5
  8
0
  6
CONTINUOUS
 62
     3
 10
-84.99969342947
 20
106.91463470459
 30
0.0
 11
-126.74969342947
 21
106.91463470459
 31
0.0
  0
LINE
  5
    B6
  8
0
  6
CONTINUOUS
 62
     3
 10
-87.9541167066769
 20
106.393690274638
 30
0.0
 11
-84.99969342947
 21
106.91463470459
 31
0.0
  0
LINE
  5
    B7
  8
0
  6
CONTINUOUS
 62
     3
 10
-84.99969342947
 20
106.91463470459
 30
0.0
 11
-87.9541167066769
 21
107.435579134542
 31
0.0
  0
LINE
  5
    B8
  8
0
  6
CONTINUOUS
 62
     3
 10
-123.795270152263
 20
107.435579134542
 30
0.0
 11
-126.74969342947
 21
106.91463470459
 31
0.0
  0
LINE
  5
    B9
  8
0
  6
CONTINUOUS
 62
     3
 10
-126.74969342947
 20
106.91463470459
 30
0.0
 11
-123.795270152263
 21
106.393690274638
 31
0.0
  0
ENDBLK
  5
    BA
  8
0
  6
CONTINUOUS
 62
     3
  0
BLOCK
  5
    BB
  8
0
  6
CONTINUOUS
 62
     3
  2
*UDIM49
 70
    65
 10
0.0
 20
0.0
 30
0.0
  3
*UDIM49
  0
TEXT
  5
    BC
  8
0
  6
CONTINUOUS
 62
     3
 10
-134.371049885149
 20
95.4162426081279
 30
0.0
 40
3.00000002980232
  1
4
 50
307.906099140555
 41
0.933333333333334
 72
     1
 11
-132.511715718045
 21
95.4698758420792
 31
0.0
 73
     2
  0
TEXT
  5
    BD
  8
0
  6
CONTINUOUS
 62
     3
 10
-136.060565195221
 20
97.5860440282581
 30
0.0
 40
3.00000002980232
  1
Ø
 50
307.906099140555
 41
0.933333333333334
 72
     1
 11
-134.201231028118
 21
97.6396772622094
 31
0.0
 73
     2
  0
LINE
  5
    BE
  8
0
  6
CONTINUOUS
 62
     3
 10
-126.135324233353
 20
83.211624436638
 30
0.0
 11
-136.849583883663
 21
96.9716748287765
 31
0.0
  0
LINE
  5
    BF
  8
0
  6
CONTINUOUS
 62
     3
 10
-123.909182688625
 20
81.2005814677202
 30
0.0
 11
-126.135324233353
 21
83.211624436638
 31
0.0
  0
LINE
  5
    C0
  8
0
  6
CONTINUOUS
 62
     3
 10
-126.135324233353
 20
83.211624436638
 30
0.0
 11
-124.731252470468
 21
80.5604770464182
 31
0.0
  0
LINE
  5
    C1
  8
0
  6
CONTINUOUS
 62
     3
 10
-129.590204170315
 20
86.8007047826325
 30
0.0
 11
-127.364062625587
 21
84.7896618137147
 31
0.0
  0
LINE
  5
    C2
  8
0
  6
CONTINUOUS
 62
     3
 10
-127.364062625587
 20
84.7896618137147
 30
0.0
 11
-128.768134388472
 21
87.4408092039345
 31
0.0
  0
ENDBLK
  5
    C3
  8
0
  6
CONTINUOUS
 62
     3
  0
BLOCK
  5
    C4
  8
0
  6
CONTINUOUS
 62
     3
  2
*UDIM50
 70
    65
 10
0.0
 20
0.0
 30
0.0
  3
*UDIM50
  0
TEXT
  5
    C5
  8
0
  6
CONTINUOUS
 62
     3
 10
-156.916492466677
 20
65.2256417803669
 30
0.0
 40
3.00000002980232
  1
64
 50
449.999999896069
 41
0.933333333333333
 72
     1
 11
-158.416492477059
 21
67.7256418079137
 31
0.0
 73
     2
  0
LINE
  5
    C6
  8
0
  6
CONTINUOUS
 62
     3
 10
-131.74969342947
 20
84.0006431251763
 30
0.0
 11
-157.916492462158
 21
84.0006431251763
 31
0.0
  0
LINE
  5
    C7
  8
0
  6
CONTINUOUS
 62
     3
 10
-131.74969342947
 20
52.0006431251763
 30
0.0
 11
-157.916492462158
 21
52.0006431251763
 31
0.0
  0
LINE
  5
    C8
  8
0
  6
CONTINUOUS
 62
     3
 10
-155.916492462158
 20
84.0006431251763
 30
0.0
 11
-155.916492462158
 21
52.0006431251763
 31
0.0
  0
LINE
  5
    C9
  8
0
  6
CONTINUOUS
 62
     3
 10
-155.395548032207
 20
81.0462198479694
 30
0.0
 11
-155.916492462158
 21
84.0006431251763
 31
0.0
  0
LINE
  5
    CA
  8
0
  6
CONTINUOUS
 62
     3
 10
-155.916492462158
 20
84.0006431251763
 30
0.0
 11
-156.43743689211
 21
81.0462198479694
 31
0.0
  0
LINE
  5
    CB
  8
0
  6
CONTINUOUS
 62
     3
 10
-156.43743689211
 20
54.9550664023833
 30
0.0
 11
-155.916492462158
 21
52.0006431251763
 31
0.0
  0
LINE
  5
    CC
  8
0
  6
CONTINUOUS
 62
     3
 10
-155.916492462158
 20
52.0006431251763
 30
0.0
 11
-155.395548032207
 21
54.9550664023833
 31
0.0
  0
ENDBLK
  5
    CD
  8
0
  6
CONTINUOUS
 62
     3
  0
BLOCK
  5
    CE
  8
0
  6
CONTINUOUS
 62
     3
  2
*UDIM51
 70
    65
 10
0.0
 20
0.0
 30
0.0
  3
*UDIM51
  0
TEXT
  5
    CF
  8
0
  6
CONTINUOUS
 62
     3
 10
-104.893436733615
 20
61.4808673903866
 30
0.0
 40
3.00000002980232
  1
85
 50
359.999999896069
 41
0.933333333333333
 72
     1
 11
-102.393436706066
 21
62.9808674007654
 31
0.0
 73
     2
  0
LINE
  5
    D0
  8
0
  6
CONTINUOUS
 62
     3
 10
-84.62469342947
 20
60.4808673858643
 30
0.0
 11
-127.12469342947
 21
60.4808673858643
 31
0.0
  0
LINE
  5
    D1
  8
0
  6
CONTINUOUS
 62
     3
 10
-87.5791167066769
 20
59.9599229559126
 30
0.0
 11
-84.62469342947
 21
60.4808673858643
 31
0.0
  0
LINE
  5
    D2
  8
0
  6
CONTINUOUS
 62
     3
 10
-84.62469342947
 20
60.4808673858643
 30
0.0
 11
-87.5791167066769
 21
61.0018118158159
 31
0.0
  0
LINE
  5
    D3
  8
0
  6
CONTINUOUS
 62
     3
 10
-124.170270152263
 20
61.0018118158159
 30
0.0
 11
-127.12469342947
 21
60.4808673858643
 31
0.0
  0
LINE
  5
    D4
  8
0
  6
CONTINUOUS
 62
     3
 10
-127.12469342947
 20
60.4808673858643
 30
0.0
 11
-124.170270152263
 21
59.9599229559126
 31
0.0
  0
ENDBLK
  5
    D5
  8
0
  6
CONTINUOUS
 62
     3
  0
BLOCK
  5
    D6
  8
0
  6
CONTINUOUS
 62
     3
  2
*UDIM52
 70
    65
 10
0.0
 20
0.0
 30
0.0
  3
*UDIM52
  0
TEXT
  5
    D7
  8
0
  6
CONTINUOUS
 62
     3
 10
-55.3138923690211
 20
65.2256436877156
 30
0.0
 40
3.00000002980232
  1
53
 50
449.999999896069
 41
0.933333333333333
 72
     1
 11
-56.8138923794031
 21
67.7256437152623
 31
0.0
 73
     2
  0
LINE
  5
    D8
  8
0
  6
CONTINUOUS
 62
     3
 10
-85.37469342947
 20
81.2506431251763
 30
0.0
 11
-52.313892364502
 21
81.2506431251763
 31
0.0
  0
LINE
  5
    D9
  8
0
  6
CONTINUOUS
 62
     3
 10
-85.37469342947
 20
54.7506431251763
 30
0.0
 11
-52.313892364502
 21
54.7506431251763
 31
0.0
  0
LINE
  5
    DA
  8
0
  6
CONTINUOUS
 62
     3
 10
-54.313892364502
 20
81.2506431251763
 30
0.0
 11
-54.313892364502
 21
54.7506431251763
 31
0.0
  0
LINE
  5
    DB
  8
0
  6
CONTINUOUS
 62
     3
 10
-53.7929479345503
 20
78.2962198479694
 30
0.0
 11
-54.313892364502
 21
81.2506431251763
 31
0.0
  0
LINE
  5
    DC
  8
0
  6
CONTINUOUS
 62
     3
 10
-54.313892364502
 20
81.2506431251763
 30
0.0
 11
-54.8348367944536
 21
78.2962198479694
 31
0.0
  0
LINE
  5
    DD
  8
0
  6
CONTINUOUS
 62
     3
 10
-54.8348367944536
 20
57.7050664023833
 30
0.0
 11
-54.313892364502
 21
54.7506431251763
 31
0.0
  0
LINE
  5
    DE
  8
0
  6
CONTINUOUS
 62
     3
 10
-54.313892364502
 20
54.7506431251763
 30
0.0
 11
-53.7929479345503
 21
57.7050664023833
 31
0.0
  0
ENDBLK
  5
    DF
  8
0
  6
CONTINUOUS
 62
     3
  0
BLOCK
  5
    E0
  8
0
  6
CONTINUOUS
 62
     7
  2
*UDIM53
 70
    65
 10
0.0
 20
0.0
 30
0.0
  3
*UDIM53
  0
TEXT
  5
    E1
  8
0
  6
CONTINUOUS
 62
     7
 10
-94.26967107631
 20
72.3102905925253
 30
0.0
 40
3.00000002980232
  1
1.5
 50
407.382338703867
 41
0.933333333333333
 72
     1
 11
-92.7328026035908
 21
76.1959096737607
 31
0.0
 73
     2
  0
TEXT
  5
    E2
  8
0
  6
CONTINUOUS
 62
     7
 10
-96.9780824391791
 20
69.3667369361602
 30
0.0
 40
3.00000002980232
  1
R
 50
407.382338703867
 41
1.2
 72
     1
 11
-97.066260793327
 21
71.486223823892
 31
0.0
 73
     2
  0
LINE
  5
    E3
  8
0
  6
CONTINUOUS
 62
     7
 10
-84.8668663021168
 20
81.0525594310817
 30
0.0
 11
-96.2421940274727
 21
68.6896340998488
 31
0.0
  0
LINE
  5
    E4
  8
0
  6
CONTINUOUS
 62
     3
 10
-86.25757382807
 20
78.394377236939
 30
0.0
 11
-84.8668663021168
 21
81.0525594310817
 31
0.0
  0
LINE
  5
    E5
  8
0
  6
CONTINUOUS
 62
     3
 10
-84.8668663021168
 20
81.0525594310817
 30
0.0
 11
-87.4003454693082
 21
79.4458599229572
 31
0.0
  0
ENDBLK
  5
    E6
  8
0
  6
CONTINUOUS
 62
     7
  0
BLOCK
  5
    E7
  8
0
  6
CONTINUOUS
 62
     3
  2
*HATCH25
 70
    65
 10
0.0
 20
0.0
 30
0.0
  3
*HATCH25
  0
LINE
  5
    E8
  8
0
  6
CONTINUOUS
 62
     7
 10
-35.4171371459961
 20
-125.803260803223
 30
0.0
 11
-35.3765678405762
 21
-125.84383392334
 31
0.0
  0
ENDBLK
  5
    E9
  8
0
  6
CONTINUOUS
 62
     3
  0
BLOCK
  5
    EA
  8
0
  6
CONTINUOUS
 62
     7
  2
*HATCH26
 70
    65
 10
0.0
 20
0.0
 30
0.0
  3
*HATCH26
  0
LINE
  5
    EB
  8
0
  6
CONTINUOUS
 62
     7
 10
-53.5225372314453
 20
-125.647422790527
 30
0.0
 11
-53.9999885559082
 21
-126.124870300293
 31
0.0
  0
LINE
  5
    EC
  8
0
  6
CONTINUOUS
 62
     7
 10
-49.2798957824707
 20
-125.647422790527
 30
0.0
 11
-50.479850769043
 21
-126.847373962402
 31
0.0
  0
LINE
  5
    ED
  8
0
  6
CONTINUOUS
 62
     7
 10
-45.0372543334961
 20
-125.647422790527
 30
0.0
 11
-46.2372093200684
 21
-126.847373962402
 31
0.0
  0
LINE
  5
    EE
  8
0
  6
CONTINUOUS
 62
     7
 10
-40.7946128845215
 20
-125.647422790527
 30
0.0
 11
-41.9945678710938
 21
-126.847373962402
 31
0.0
  0
ENDBLK
  5
    EF
  8
0
  6
CONTINUOUS
 62
     7
  0
BLOCK
  5
    F0
  8
0
  6
CONTINUOUS
 62
     7
  2
*HATCH27
 70
    65
 10
0.0
 20
0.0
 30
0.0
  3
*HATCH27
  0
LINE
  5
    F1
  8
0
  6
CONTINUOUS
 62
     7
 10
-28.1726608276367
 20
-125.753387451172
 30
0.0
 11
-29.2666473388672
 21
-126.847373962402
 31
0.0
  0
ENDBLK
  5
    F2
  8
0
  6
CONTINUOUS
 62
     7
  0
BLOCK
  5
    F3
  8
0
  6
CONTINUOUS
 62
     7
  2
*HATCH28
 70
    65
 10
0.0
 20
0.0
 30
0.0
  3
*HATCH28
  0
LINE
  5
    F4
  8
0
  6
CONTINUOUS
 62
     7
 10
-23.8240509033203
 20
-125.647422790527
 30
0.0
 11
-23.9999923706055
 21
-125.823364257813
 31
0.0
  0
LINE
  5
    F5
  8
0
  6
CONTINUOUS
 62
     7
 10
-19.5813617706299
 20
-125.64737701416
 30
0.0
 11
-20.7813663482666
 21
-126.847373962402
 31
0.0
  0
LINE
  5
    F6
  8
0
  6
CONTINUOUS
 62
     7
 10
-16.5611629486084
 20
-126.869819641113
 30
0.0
 11
-17.4396076202393
 21
-127.748260498047
 31
0.0
  0
ENDBLK
  5
    F7
  8
0
  6
CONTINUOUS
 62
     7
  0
BLOCK
  5
    F8
  8
0
  6
CONTINUOUS
 62
     3
  2
*HATCH29
 70
    65
 10
0.0
 20
0.0
 30
0.0
  3
*HATCH29
  0
LINE
  5
    F9
  8
0
  6
CONTINUOUS
 62
     7
 10
-35.4171371459961
 20
-125.803260803223
 30
0.0
 11
-35.3765678405762
 21
-125.84383392334
 31
0.0
  0
ENDBLK
  5
    FA
  8
0
  6
CONTINUOUS
 62
     3
  0
BLOCK
  5
    FB
  8
0
  6
CONTINUOUS
 62
     3
  2
*HATCH30
 70
    65
 10
0.0
 20
0.0
 30
0.0
  3
*HATCH30
  0
LINE
  5
    FC
  8
0
  6
CONTINUOUS
 62
   210
 10
-30.7072048187256
 20
-124.149238586426
 30
0.0
 11
-30.5318412780762
 21
-124.324600219727
 31
0.0
  0
ENDBLK
  5
    FD
  8
0
  6
CONTINUOUS
 62
     3
  0
BLOCK
  5
    FE
  8
0
  6
CONTINUOUS
 62
     3
  2
*HATCH31
 70
    65
 10
0.0
 20
0.0
 30
0.0
  3
*HATCH31
  0
LINE
  5
    FF
  8
0
  6
CONTINUOUS
 62
   210
 10
-35.4136276245117
 20
-123.685455322266
 30
0.0
 11
-34.9064331054688
 21
-124.192649841309
 31
0.0
  0
ENDBLK
  5
   100
  8
0
  6
CONTINUOUS
 62
     3
  0
BLOCK
  5
   101
  8
0
  6
CONTINUOUS
 62
     3
  2
*HATCH32
 70
    65
 10
0.0
 20
0.0
 30
0.0
  3
*HATCH32
  0
LINE
  5
   102
  8
0
  6
CONTINUOUS
 62
   210
 10
-37.1537094116211
 20
-124.066688537598
 30
0.0
 11
-36.8765678405762
 21
-124.34383392334
 31
0.0
  0
ENDBLK
  5
   103
  8
0
  6
CONTINUOUS
 62
     3
  0
BLOCK
  5
   104
  8
0
  6
CONTINUOUS
 62
     3
  2
*HATCH33
 70
    65
 10
0.0
 20
0.0
 30
0.0
  3
*HATCH33
  0
LINE
  5
   105
  8
0
  6
CONTINUOUS
 62
   210
 10
-41.8004341125488
 20
-123.662605285645
 30
0.0
 11
-41.2932434082031
 21
-124.169792175293
 31
0.0
  0
ENDBLK
  5
   106
  8
0
  6
CONTINUOUS
 62
     3
  0
BLOCK
  5
   107
  8
0
  6
CONTINUOUS
 62
     3
  2
*HATCH34
 70
    65
 10
0.0
 20
0.0
 30
0.0
  3
*HATCH34
  0
LINE
  5
   108
  8
0
  6
CONTINUOUS
 62
   210
 10
-43.591236114502
 20
-123.993118286133
 30
0.0
 11
-43.2405242919922
 21
-124.34383392334
 31
0.0
  0
ENDBLK
  5
   109
  8
0
  6
CONTINUOUS
 62
     3
  0
BLOCK
  5
   10A
  8
0
  6
CONTINUOUS
 62
     3
  2
*HATCH35
 70
    65
 10
0.0
 20
0.0
 30
0.0
  3
*HATCH35
  0
LINE
  5
   10B
  8
0
  6
CONTINUOUS
 62
   210
 10
-45.4999885559082
 20
-128.448333740234
 30
0.0
 11
-45.2529640197754
 21
-128.695358276367
 31
0.0
  0
ENDBLK
  5
   10C
  8
0
  6
CONTINUOUS
 62
     3
  0
BLOCK
  5
   10D
  8
0
  6
CONTINUOUS
 62
     3
  2
*HATCH36
 70
    65
 10
0.0
 20
0.0
 30
0.0
  3
*HATCH36
  0
LINE
  5
   10E
  8
0
  6
CONTINUOUS
 62
   210
 10
-41.1738166809082
 20
-128.531860351563
 30
0.0
 11
-40.8618469238281
 21
-128.843826293945
 31
0.0
  0
ENDBLK
  5
   10F
  8
0
  6
CONTINUOUS
 62
     3
  0
BLOCK
  5
   110
  8
0
  6
CONTINUOUS
 62
     3
  2
*HATCH37
 70
    65
 10
0.0
 20
0.0
 30
0.0
  3
*HATCH37
  0
LINE
  5
   111
  8
0
  6
CONTINUOUS
 62
   210
 10
-39.4082412719727
 20
-128.176116943359
 30
0.0
 11
-38.9010467529297
 21
-128.683319091797
 31
0.0
  0
ENDBLK
  5
   112
  8
0
  6
CONTINUOUS
 62
     3
  0
BLOCK
  5
   113
  8
0
  6
CONTINUOUS
 62
     3
  2
*HATCH38
 70
    65
 10
0.0
 20
0.0
 30
0.0
  3
*HATCH38
  0
LINE
  5
   114
  8
0
  6
CONTINUOUS
 62
   210
 10
-34.7245826721191
 20
-128.617141723633
 30
0.0
 11
-34.4978904724121
 21
-128.843826293945
 31
0.0
  0
ENDBLK
  5
   115
  8
0
  6
CONTINUOUS
 62
     3
  0
BLOCK
  5
   116
  8
0
  6
CONTINUOUS
 62
     3
  2
*HATCH39
 70
    65
 10
0.0
 20
0.0
 30
0.0
  3
*HATCH39
  0
LINE
  5
   117
  8
0
  6
CONTINUOUS
 62
   210
 10
-33.0214233398438
 20
-128.198974609375
 30
0.0
 11
-32.5142364501953
 21
-128.706176757813
 31
0.0
  0
ENDBLK
  5
   118
  8
0
  6
CONTINUOUS
 62
     3
  0
BLOCK
  5
   119
  8
0
  6
CONTINUOUS
 62
     7
  2
*HATCH40
 70
    65
 10
0.0
 20
0.0
 30
0.0
  3
*HATCH40
  0
LINE
  5
   11A
  8
0
  6
CONTINUOUS
 62
     7
 10
-57.9999885559082
 20
-124.433601379395
 30
0.0
 11
-57.9861831665039
 21
-124.447410583496
 31
0.0
  0
LINE
  5
   11B
  8
0
  6
CONTINUOUS
 62
     7
 10
-54.9435577392578
 20
-123.24739074707
 30
0.0
 11
-53.7435455322266
 21
-124.447410583496
 31
0.0
  0
LINE
  5
   11C
  8
0
  6
CONTINUOUS
 62
     7
 10
-50.7009201049805
 20
-123.24739074707
 30
0.0
 11
-49.5009078979492
 21
-124.447410583496
 31
0.0
  0
ENDBLK
  5
   11D
  8
0
  6
CONTINUOUS
 62
     7
  0
BLOCK
  5
   11E
  8
0
  6
CONTINUOUS
 62
     7
  2
*HATCH41
 70
    65
 10
0.0
 20
0.0
 30
0.0
  3
*HATCH41
  0
LINE
  5
   11F
  8
0
  6
CONTINUOUS
 62
     7
 10
-46.6999702453613
 20
-127.248344421387
 30
0.0
 11
-45.4999885559082
 21
-128.448333740234
 31
0.0
  0
ENDBLK
  5
   120
  8
0
  6
CONTINUOUS
 62
     7
  0
BLOCK
  5
   121
  8
0
  6
CONTINUOUS
 62
     7
  2
*HATCH42
 70
    65
 10
0.0
 20
0.0
 30
0.0
  3
*HATCH42
  0
LINE
  5
   122
  8
0
  6
CONTINUOUS
 62
     7
 10
-25.4999885559082
 20
-127.235137939453
 30
0.0
 11
-24.299991607666
 21
-128.435134887695
 31
0.0
  0
ENDBLK
  5
   123
  8
0
  6
CONTINUOUS
 62
     7
  0
BLOCK
  5
   124
  8
0
  6
CONTINUOUS
 62
     7
  2
*HATCH43
 70
    65
 10
0.0
 20
0.0
 30
0.0
  3
*HATCH43
  0
LINE
  5
   125
  8
0
  6
CONTINUOUS
 62
     7
 10
-24.6751708984375
 20
-123.817314147949
 30
0.0
 11
-23.8555488586426
 21
-124.636940002441
 31
0.0
  0
LINE
  5
   126
  8
0
  6
CONTINUOUS
 62
     7
 10
-21.0024528503418
 20
-123.24739074707
 30
0.0
 11
-19.8024406433105
 21
-124.447410583496
 31
0.0
  0
LINE
  5
   127
  8
0
  6
CONTINUOUS
 62
     7
 10
-16.7598114013672
 20
-123.24739074707
 30
0.0
 11
-15.5598030090332
 21
-124.447410583496
 31
0.0
  0
LINE
  5
   128
  8
0
  6
CONTINUOUS
 62
     7
 10
-12.5171699523926
 20
-123.24739074707
 30
0.0
 11
-11.3171653747559
 21
-124.447410583496
 31
0.0
  0
LINE
  5
   129
  8
0
  6
CONTINUOUS
 62
     7
 10
-8.27452850341797
 20
-123.24739074707
 30
0.0
 11
-7.07452726364136
 21
-124.447410583496
 31
0.0
  0
LINE
  5
   12A
  8
0
  6
CONTINUOUS
 62
     7
 10
-4.03188753128052
 20
-123.24739074707
 30
0.0
 11
-2.83188915252686
 21
-124.447410583496
 31
0.0
  0
ENDBLK
  5
   12B
  8
0
  6
CONTINUOUS
 62
     7
  0
BLOCK
  5
   12C
  8
0
  6
CONTINUOUS
 62
     3
  2
*HATCH44
 70
    65
 10
0.0
 20
0.0
 30
0.0
  3
*HATCH44
  0
LINE
  5
   12D
  8
0
  6
CONTINUOUS
 62
     7
 10
-35.4171371459961
 20
-125.803260803223
 30
0.0
 11
-35.3765678405762
 21
-125.84383392334
 31
0.0
  0
ENDBLK
  5
   12E
  8
0
  6
CONTINUOUS
 62
     3
  0
BLOCK
  5
   12F
  8
0
  6
CONTINUOUS
 62
     3
  2
*HATCH45
 70
    65
 10
0.0
 20
0.0
 30
0.0
  3
*HATCH45
  0
LINE
  5
   130
  8
0
  6
CONTINUOUS
 62
   210
 10
-30.7072048187256
 20
-124.149238586426
 30
0.0
 11
-30.5318412780762
 21
-124.324600219727
 31
0.0
  0
ENDBLK
  5
   131
  8
0
  6
CONTINUOUS
 62
     3
  0
BLOCK
  5
   132
  8
0
  6
CONTINUOUS
 62
     3
  2
*HATCH46
 70
    65
 10
0.0
 20
0.0
 30
0.0
  3
*HATCH46
  0
LINE
  5
   133
  8
0
  6
CONTINUOUS
 62
   210
 10
-35.4136276245117
 20
-123.685455322266
 30
0.0
 11
-34.9064331054688
 21
-124.192649841309
 31
0.0
  0
ENDBLK
  5
   134
  8
0
  6
CONTINUOUS
 62
     3
  0
BLOCK
  5
   135
  8
0
  6
CONTINUOUS
 62
     3
  2
*HATCH47
 70
    65
 10
0.0
 20
0.0
 30
0.0
  3
*HATCH47
  0
LINE
  5
   136
  8
0
  6
CONTINUOUS
 62
   210
 10
-37.1537094116211
 20
-124.066688537598
 30
0.0
 11
-36.8765678405762
 21
-124.34383392334
 31
0.0
  0
ENDBLK
  5
   137
  8
0
  6
CONTINUOUS
 62
     3
  0
BLOCK
  5
   138
  8
0
  6
CONTINUOUS
 62
     3
  2
*HATCH48
 70
    65
 10
0.0
 20
0.0
 30
0.0
  3
*HATCH48
  0
LINE
  5
   139
  8
0
  6
CONTINUOUS
 62
   210
 10
-41.8004341125488
 20
-123.662605285645
 30
0.0
 11
-41.2932434082031
 21
-124.169792175293
 31
0.0
  0
ENDBLK
  5
   13A
  8
0
  6
CONTINUOUS
 62
     3
  0
BLOCK
  5
   13B
  8
0
  6
CONTINUOUS
 62
     3
  2
*HATCH49
 70
    65
 10
0.0
 20
0.0
 30
0.0
  3
*HATCH49
  0
LINE
  5
   13C
  8
0
  6
CONTINUOUS
 62
   210
 10
-43.591236114502
 20
-123.993118286133
 30
0.0
 11
-43.2405242919922
 21
-124.34383392334
 31
0.0
  0
ENDBLK
  5
   13D
  8
0
  6
CONTINUOUS
 62
     3
  0
BLOCK
  5
   13E
  8
0
  6
CONTINUOUS
 62
     3
  2
*HATCH50
 70
    65
 10
0.0
 20
0.0
 30
0.0
  3
*HATCH50
  0
LINE
  5
   13F
  8
0
  6
CONTINUOUS
 62
   210
 10
-45.4999885559082
 20
-128.448333740234
 30
0.0
 11
-45.2529640197754
 21
-128.695358276367
 31
0.0
  0
ENDBLK
  5
   140
  8
0
  6
CONTINUOUS
 62
     3
  0
BLOCK
  5
   141
  8
0
  6
CONTINUOUS
 62
     3
  2
*HATCH51
 70
    65
 10
0.0
 20
0.0
 30
0.0
  3
*HATCH51
  0
LINE
  5
   142
  8
0
  6
CONTINUOUS
 62
   210
 10
-41.1738166809082
 20
-128.531860351563
 30
0.0
 11
-40.8618469238281
 21
-128.843826293945
 31
0.0
  0
ENDBLK
  5
   143
  8
0
  6
CONTINUOUS
 62
     3
  0
BLOCK
  5
   144
  8
0
  6
CONTINUOUS
 62
     3
  2
*HATCH52
 70
    65
 10
0.0
 20
0.0
 30
0.0
  3
*HATCH52
  0
LINE
  5
   145
  8
0
  6
CONTINUOUS
 62
   210
 10
-39.4082412719727
 20
-128.176116943359
 30
0.0
 11
-38.9010467529297
 21
-128.683319091797
 31
0.0
  0
ENDBLK
  5
   146
  8
0
  6
CONTINUOUS
 62
     3
  0
BLOCK
  5
   147
  8
0
  6
CONTINUOUS
 62
     3
  2
*HATCH53
 70
    65
 10
0.0
 20
0.0
 30
0.0
  3
*HATCH53
  0
LINE
  5
   148
  8
0
  6
CONTINUOUS
 62
   210
 10
-34.7245826721191
 20
-128.617141723633
 30
0.0
 11
-34.4978904724121
 21
-128.843826293945
 31
0.0
  0
ENDBLK
  5
   149
  8
0
  6
CONTINUOUS
 62
     3
  0
BLOCK
  5
   14A
  8
0
  6
CONTINUOUS
 62
     3
  2
*HATCH54
 70
    65
 10
0.0
 20
0.0
 30
0.0
  3
*HATCH54
  0
LINE
  5
   14B
  8
0
  6
CONTINUOUS
 62
   210
 10
-33.0214233398438
 20
-128.198974609375
 30
0.0
 11
-32.5142364501953
 21
-128.706176757813
 31
0.0
  0
ENDBLK
  5
   14C
  8
0
  6
CONTINUOUS
 62
     3
  0
BLOCK
  5
   14D
  8
0
  6
CONTINUOUS
 62
     7
  2
*HATCH55
 70
    65
 10
0.0
 20
0.0
 30
0.0
  3
*HATCH55
  0
LINE
  5
   14E
  8
0
  6
CONTINUOUS
 62
     7
 10
31.3043460845947
 20
-91.7322311401367
 30
0.0
 11
30.5
 21
-92.5365753173828
 31
0.0
  0
LINE
  5
   14F
  8
0
  6
CONTINUOUS
 62
     7
 10
33.4999885559082
 20
-93.7792282104492
 30
0.0
 11
31.5469875335693
 21
-95.7322311401367
 31
0.0
  0
ENDBLK
  5
   150
  8
0
  6
CONTINUOUS
 62
     7
  0
BLOCK
  5
   151
  8
0
  6
CONTINUOUS
 62
     7
  2
*HATCH56
 70
    65
 10
0.0
 20
0.0
 30
0.0
  3
*HATCH56
  0
LINE
  5
   152
  8
0
  6
CONTINUOUS
 62
     7
 10
39.7896270751953
 20
-91.7322311401367
 30
0.0
 11
39.4999885559082
 21
-92.0218734741211
 31
0.0
  0
LINE
  5
   153
  8
0
  6
CONTINUOUS
 62
     7
 10
42.5
 20
-93.2645034790039
 30
0.0
 11
40.0322685241699
 21
-95.7322311401367
 31
0.0
  0
ENDBLK
  5
   154
  8
0
  6
CONTINUOUS
 62
     7
  0
BLOCK
  5
   155
  8
0
  6
CONTINUOUS
 62
     7
  2
*HATCH57
 70
    65
 10
0.0
 20
0.0
 30
0.0
  3
*HATCH57
  0
LINE
  5
   156
  8
0
  6
CONTINUOUS
 62
     7
 10
30.5
 20
-111.110260009766
 30
0.0
 11
30.6219692230225
 21
-111.232231140137
 31
0.0
  0
LINE
  5
   157
  8
0
  6
CONTINUOUS
 62
     7
 10
32.8646087646484
 20
-109.232231140137
 30
0.0
 11
34.8646087646484
 21
-111.232231140137
 31
0.0
  0
LINE
  5
   158
  8
0
  6
CONTINUOUS
 62
     7
 10
37.1072463989258
 20
-109.232231140137
 30
0.0
 11
39.1072463989258
 21
-111.232231140137
 31
0.0
  0
LINE
  5
   159
  8
0
  6
CONTINUOUS
 62
     7
 10
41.3498878479004
 20
-109.232231140137
 30
0.0
 11
42.5
 21
-110.382347106934
 31
0.0
  0
ENDBLK
  5
   15A
  8
0
  6
CONTINUOUS
 62
     7
  0
BLOCK
  5
   15B
  8
0
  6
CONTINUOUS
 62
     7
  2
*HATCH58
 70
    65
 10
0.0
 20
0.0
 30
0.0
  3
*HATCH58
  0
LINE
  5
   15C
  8
0
  6
CONTINUOUS
 62
    52
 10
-50.3687210083008
 20
-48.2473983764648
 30
0.0
 11
-50.5000152587891
 21
-48.3786926269531
 31
0.0
  0
LINE
  5
   15D
  8
0
  6
CONTINUOUS
 62
    52
 10
-48.2474021911621
 20
-48.2473983764648
 30
0.0
 11
-50.5000152587891
 21
-50.5000114440918
 31
0.0
  0
LINE
  5
   15E
  8
0
  6
CONTINUOUS
 62
    52
 10
-46.1260833740234
 20
-48.2473983764648
 30
0.0
 11
-49.1260833740234
 21
-51.2473983764648
 31
0.0
  0
LINE
  5
   15F
  8
0
  6
CONTINUOUS
 62
    52
 10
-44.0047645568848
 20
-48.2473983764648
 30
0.0
 11
-47.0047645568848
 21
-51.2473983764648
 31
0.0
  0
LINE
  5
   160
  8
0
  6
CONTINUOUS
 62
    52
 10
-41.8834457397461
 20
-48.2473983764648
 30
0.0
 11
-44.8834457397461
 21
-51.2473983764648
 31
0.0
  0
LINE
  5
   161
  8
0
  6
CONTINUOUS
 62
    52
 10
-39.7621269226074
 20
-48.2473983764648
 30
0.0
 11
-42.7621269226074
 21
-51.2473983764648
 31
0.0
  0
LINE
  5
   162
  8
0
  6
CONTINUOUS
 62
    52
 10
-37.6408081054688
 20
-48.2473983764648
 30
0.0
 11
-40.6408081054688
 21
-51.2473983764648
 31
0.0
  0
LINE
  5
   163
  8
0
  6
CONTINUOUS
 62
    52
 10
-35.5194892883301
 20
-48.2473983764648
 30
0.0
 11
-38.5194892883301
 21
-51.2473983764648
 31
0.0
  0
LINE
  5
   164
  8
0
  6
CONTINUOUS
 62
    52
 10
-33.3981704711914
 20
-48.2473983764648
 30
0.0
 11
-36.3981704711914
 21
-51.2473983764648
 31
0.0
  0
LINE
  5
   165
  8
0
  6
CONTINUOUS
 62
    52
 10
-31.2768497467041
 20
-48.2473983764648
 30
0.0
 11
-34.2768516540527
 21
-51.2473983764648
 31
0.0
  0
LINE
  5
   166
  8
0
  6
CONTINUOUS
 62
    52
 10
-29.1555290222168
 20
-48.2473983764648
 30
0.0
 11
-32.1555328369141
 21
-51.2473983764648
 31
0.0
  0
LINE
  5
   167
  8
0
  6
CONTINUOUS
 62
    52
 10
-27.0342082977295
 20
-48.2473983764648
 30
0.0
 11
-30.0342121124268
 21
-51.2473983764648
 31
0.0
  0
LINE
  5
   168
  8
0
  6
CONTINUOUS
 62
    52
 10
-26.0000152587891
 20
-49.3345375061035
 30
0.0
 11
-27.912878036499
 21
-51.2473983764648
 31
0.0
  0
LINE
  5
   169
  8
0
  6
CONTINUOUS
 62
    52
 10
-26.0000152587891
 20
-51.4558563232422
 30
0.0
 11
-27.2915573120117
 21
-52.7473983764648
 31
0.0
  0
ENDBLK
  5
   16A
  8
0
  6
CONTINUOUS
 62
     7
  0
BLOCK
  5
   16B
  8
0
  6
CONTINUOUS
 62
     7
  2
*HATCH59
 70
    65
 10
0.0
 20
0.0
 30
0.0
  3
*HATCH59
  0
LINE
  5
   16C
  8
0
  6
CONTINUOUS
 62
    52
 10
21.7561721801758
 20
-48.2473983764648
 30
0.0
 11
20.9999847412109
 21
-49.0035858154297
 31
0.0
  0
LINE
  5
   16D
  8
0
  6
CONTINUOUS
 62
    52
 10
23.8774929046631
 20
-48.2473983764648
 30
0.0
 11
20.9999847412109
 21
-51.1249046325684
 31
0.0
  0
LINE
  5
   16E
  8
0
  6
CONTINUOUS
 62
    52
 10
25.9988136291504
 20
-48.2473983764648
 30
0.0
 11
22.9988117218018
 21
-51.2473983764648
 31
0.0
  0
LINE
  5
   16F
  8
0
  6
CONTINUOUS
 62
    52
 10
22.4999847412109
 20
-51.7462272644043
 30
0.0
 11
21.4988117218018
 21
-52.7473983764648
 31
0.0
  0
LINE
  5
   170
  8
0
  6
CONTINUOUS
 62
    52
 10
28.1201324462891
 20
-48.2473983764648
 30
0.0
 11
25.1201324462891
 21
-51.2473983764648
 31
0.0
  0
LINE
  5
   171
  8
0
  6
CONTINUOUS
 62
    52
 10
30.2414531707764
 20
-48.2473983764648
 30
0.0
 11
27.2414531707764
 21
-51.2473983764648
 31
0.0
  0
LINE
  5
   172
  8
0
  6
CONTINUOUS
 62
    52
 10
32.3627738952637
 20
-48.2473983764648
 30
0.0
 11
29.3627738952637
 21
-51.2473983764648
 31
0.0
  0
LINE
  5
   173
  8
0
  6
CONTINUOUS
 62
    52
 10
34.4840927124023
 20
-48.2473983764648
 30
0.0
 11
31.484094619751
 21
-51.2473983764648
 31
0.0
  0
LINE
  5
   174
  8
0
  6
CONTINUOUS
 62
    52
 10
36.605411529541
 20
-48.2473983764648
 30
0.0
 11
33.6054153442383
 21
-51.2473983764648
 31
0.0
  0
LINE
  5
   175
  8
0
  6
CONTINUOUS
 62
    52
 10
38.7267303466797
 20
-48.2473983764648
 30
0.0
 11
35.726734161377
 21
-51.2473983764648
 31
0.0
  0
LINE
  5
   176
  8
0
  6
CONTINUOUS
 62
    52
 10
40.8480491638184
 20
-48.2473983764648
 30
0.0
 11
37.8480529785156
 21
-51.2473983764648
 31
0.0
  0
LINE
  5
   177
  8
0
  6
CONTINUOUS
 62
    52
 10
42.969367980957
 20
-48.2473983764648
 30
0.0
 11
39.9693717956543
 21
-51.2473983764648
 31
0.0
  0
LINE
  5
   178
  8
0
  6
CONTINUOUS
 62
    52
 10
45.0906867980957
 20
-48.2473983764648
 30
0.0
 11
42.090690612793
 21
-51.2473983764648
 31
0.0
  0
LINE
  5
   179
  8
0
  6
CONTINUOUS
 62
    52
 10
45.4999847412109
 20
-49.9594306945801
 30
0.0
 11
44.2120170593262
 21
-51.2473983764648
 31
0.0
  0
ENDBLK
  5
   17A
  8
0
  6
CONTINUOUS
 62
     7
  0
BLOCK
  5
   17B
  8
0
  6
CONTINUOUS
 62
     3
  2
*UDIM54
 70
    65
 10
0.0
 20
0.0
 30
0.0
  3
*UDIM54
  0
TEXT
  5
   17C
  8
0
  6
CONTINUOUS
 62
     3
 10
-159.846740729443
 20
-14.5196766248334
 30
0.0
 40
3.00000002980232
  1
45
 50
449.999999844103
 41
0.933333333333333
 72
     1
 11
-161.346740737557
 21
-12.0196765959262
 31
0.0
 73
     2
  0
LINE
  5
   17D
  8
0
  6
CONTINUOUS
 62
     3
 10
-187.776595830917
 20
10.7553234100342
 30
0.0
 11
-156.846740722656
 21
10.7553234100342
 31
0.0
  0
LINE
  5
   17E
  8
0
  6
CONTINUOUS
 62
     3
 10
-187.776595830917
 20
-34.2446765899658
 30
0.0
 11
-156.846740722656
 21
-34.2446765899658
 31
0.0
  0
LINE
  5
   17F
  8
0
  6
CONTINUOUS
 62
     3
 10
-158.846740722656
 20
10.7553234100342
 30
0.0
 11
-158.846740722656
 21
-34.2446765899658
 31
0.0
  0
LINE
  5
   180
  8
0
  6
CONTINUOUS
 62
     3
 10
-158.325796292705
 20
7.80090013282727
 30
0.0
 11
-158.846740722656
 21
10.7553234100342
 31
0.0
  0
LINE
  5
   181
  8
0
  6
CONTINUOUS
 62
     3
 10
-158.846740722656
 20
10.7553234100342
 30
0.0
 11
-159.367685152608
 21
7.80090013282727
 31
0.0
  0
LINE
  5
   182
  8
0
  6
CONTINUOUS
 62
     3
 10
-159.367685152608
 20
-31.2902533127588
 30
0.0
 11
-158.846740722656
 21
-34.2446765899658
 31
0.0
  0
LINE
  5
   183
  8
0
  6
CONTINUOUS
 62
     3
 10
-158.846740722656
 20
-34.2446765899658
 30
0.0
 11
-158.325796292705
 21
-31.2902533127588
 31
0.0
  0
ENDBLK
  5
   184
  8
0
  6
CONTINUOUS
 62
     3
  0
BLOCK
  5
   185
  8
0
  6
CONTINUOUS
 62
     7
  2
*UDIM55
 70
    65
 10
0.0
 20
0.0
 30
0.0
  3
*UDIM55
  0
TEXT
  5
   186
  8
0
  6
CONTINUOUS
 62
     7
 10
-287.823776248103
 20
-4.34468989674284
 30
0.0
 40
3.00000002980232
  1
=
 50
449.999999844103
 41
0.933333333333334
 72
     1
 11
-289.323776260018
 21
-3.24468988174337
 31
0.0
 73
     2
  0
LINE
  5
   187
  8
0
  6
CONTINUOUS
 62
     3
 10
-266.77659702301
 20
5.25529682647903
 30
0.0
 11
-288.823776245117
 21
5.25529682647903
 31
0.0
  0
LINE
  5
   188
  8
0
  6
CONTINUOUS
 62
     3
 10
-272.447388810462
 20
-11.7446765899658
 30
0.0
 11
-288.823776245117
 21
-11.7446765899658
 31
0.0
  0
LINE
  5
   189
  8
0
  6
CONTINUOUS
 62
     3
 10
-286.823776245117
 20
5.25529682647903
 30
0.0
 11
-286.823776245117
 21
-11.7446765899658
 31
0.0
  0
LINE
  5
   18A
  8
0
  6
CONTINUOUS
 62
     3
 10
-286.302831815166
 20
2.30087354927206
 30
0.0
 11
-286.823776245117
 21
5.25529682647903
 31
0.0
  0
LINE
  5
   18B
  8
0
  6
CONTINUOUS
 62
     3
 10
-286.823776245117
 20
5.25529682647903
 30
0.0
 11
-287.344720675069
 21
2.30087354927206
 31
0.0
  0
LINE
  5
   18C
  8
0
  6
CONTINUOUS
 62
     3
 10
-287.344720675069
 20
-8.79025331275881
 30
0.0
 11
-286.823776245117
 21
-11.7446765899658
 31
0.0
  0
LINE
  5
   18D
  8
0
  6
CONTINUOUS
 62
     3
 10
-286.823776245117
 20
-11.7446765899658
 30
0.0
 11
-286.302831815166
 21
-8.79025331275881
 31
0.0
  0
ENDBLK
  5
   18E
  8
0
  6
CONTINUOUS
 62
     7
  0
BLOCK
  5
   18F
  8
0
  6
CONTINUOUS
 62
     7
  2
*UDIM56
 70
    65
 10
0.0
 20
0.0
 30
0.0
  3
*UDIM56
  0
TEXT
  5
   190
  8
0
  6
CONTINUOUS
 62
     7
 10
-287.823776248103
 20
-22.0946898967428
 30
0.0
 40
3.00000002980232
  1
=
 50
449.999999844103
 41
0.933333333333334
 72
     1
 11
-289.323776260018
 21
-20.9946898817434
 31
0.0
 73
     2
  0
LINE
  5
   191
  8
0
  6
CONTINUOUS
 62
     3
 10
-266.77659702301
 20
-30.244703173521
 30
0.0
 11
-288.823776245117
 21
-30.244703173521
 31
0.0
  0
LINE
  5
   192
  8
0
  6
CONTINUOUS
 62
     3
 10
-286.823776245117
 20
-11.7446765899658
 30
0.0
 11
-286.823776245117
 21
-30.244703173521
 31
0.0
  0
LINE
  5
   193
  8
0
  6
CONTINUOUS
 62
     3
 10
-286.302831815166
 20
-14.6990998671727
 30
0.0
 11
-286.823776245117
 21
-11.7446765899658
 31
0.0
  0
LINE
  5
   194
  8
0
  6
CONTINUOUS
 62
     3
 10
-286.823776245117
 20
-11.7446765899658
 30
0.0
 11
-287.344720675069
 21
-14.6990998671727
 31
0.0
  0
LINE
  5
   195
  8
0
  6
CONTINUOUS
 62
     3
 10
-287.344720675069
 20
-27.290279896314
 30
0.0
 11
-286.823776245117
 21
-30.244703173521
 31
0.0
  0
LINE
  5
   196
  8
0
  6
CONTINUOUS
 62
     3
 10
-286.823776245117
 20
-30.244703173521
 30
0.0
 11
-286.302831815166
 21
-27.290279896314
 31
0.0
  0
ENDBLK
  5
   197
  8
0
  6
CONTINUOUS
 62
     7
  0
BLOCK
  5
   198
  8
0
  6
CONTINUOUS
 62
     3
  2
*UDIM57
 70
    65
 10
0.0
 20
0.0
 30
0.0
  3
*UDIM57
  0
TEXT
  5
   199
  8
0
  6
CONTINUOUS
 62
     3
 10
-271.526596179705
 20
-86.7873401611971
 30
0.0
 40
3.00000002980232
  1
3
 50
359.999999844103
 41
0.933333333333334
 72
     1
 11
-270.426596164703
 21
-85.2873401492834
 31
0.0
 73
     2
  0
LINE
  5
   19A
  8
0
  6
CONTINUOUS
 62
     3
 10
-265.77659702301
 20
-30.244703173521
 30
0.0
 11
-265.77659702301
 21
-89.7873401641846
 31
0.0
  0
LINE
  5
   19B
  8
0
  6
CONTINUOUS
 62
     3
 10
-262.776582717896
 20
-56.7446917294292
 30
0.0
 11
-262.776582717896
 21
-89.7873401641846
 31
0.0
  0
LINE
  5
   19C
  8
0
  6
CONTINUOUS
 62
     3
 10
-271.526596175631
 20
-87.7873401641846
 30
0.0
 11
-262.776582717896
 21
-87.7873401641846
 31
0.0
  0
LINE
  5
   19D
  8
0
  6
CONTINUOUS
 62
     3
 10
-268.731020300217
 20
-88.3082845941362
 30
0.0
 11
-265.77659702301
 21
-87.7873401641846
 31
0.0
  0
LINE
  5
   19E
  8
0
  6
CONTINUOUS
 62
     3
 10
-265.77659702301
 20
-87.7873401641846
 30
0.0
 11
-268.731020300217
 21
-87.2663957342329
 31
0.0
  0
LINE
  5
   19F
  8
0
  6
CONTINUOUS
 62
     3
 10
-259.822159440689
 20
-87.2663957342329
 30
0.0
 11
-262.776582717896
 21
-87.7873401641846
 31
0.0
  0
LINE
  5
   1A0
  8
0
  6
CONTINUOUS
 62
     3
 10
-262.776582717896
 20
-87.7873401641846
 30
0.0
 11
-259.822159440689
 21
-88.3082845941362
 31
0.0
  0
ENDBLK
  5
   1A1
  8
0
  6
CONTINUOUS
 62
     3
  0
BLOCK
  5
   1A2
  8
0
  6
CONTINUOUS
 62
     3
  2
*UDIM58
 70
    65
 10
0.0
 20
0.0
 30
0.0
  3
*UDIM58
  0
TEXT
  5
   1A3
  8
0
  6
CONTINUOUS
 62
     3
 10
-255.593997255068
 20
-86.7873401497904
 30
0.0
 40
3.00000002980232
  1
25,5
 50
359.999999844103
 41
0.933333333333333
 72
     1
 11
-250.293997198343
 21
-85.2873401492834
 31
0.0
 73
     2
  0
LINE
  5
   1A4
  8
0
  6
CONTINUOUS
 62
     3
 10
-262.776582717896
 20
-56.7446917294292
 30
0.0
 11
-262.776582717896
 21
-89.7873401641846
 31
0.0
  0
LINE
  5
   1A5
  8
0
  6
CONTINUOUS
 62
     3
 10
-237.261421203613
 20
-55.7188106413783
 30
0.0
 11
-237.261421203613
 21
-89.7873401641846
 31
0.0
  0
LINE
  5
   1A6
  8
0
  6
CONTINUOUS
 62
     3
 10
-262.776582717896
 20
-87.7873401641846
 30
0.0
 11
-237.261421203613
 21
-87.7873401641846
 31
0.0
  0
LINE
  5
   1A7
  8
0
  6
CONTINUOUS
 62
     3
 10
-259.822159440689
 20
-87.2663957342329
 30
0.0
 11
-262.776582717896
 21
-87.7873401641846
 31
0.0
  0
LINE
  5
   1A8
  8
0
  6
CONTINUOUS
 62
     3
 10
-262.776582717896
 20
-87.7873401641846
 30
0.0
 11
-259.822159440689
 21
-88.3082845941362
 31
0.0
  0
LINE
  5
   1A9
  8
0
  6
CONTINUOUS
 62
     3
 10
-240.21584448082
 20
-88.3082845941362
 30
0.0
 11
-237.261421203613
 21
-87.7873401641846
 31
0.0
  0
LINE
  5
   1AA
  8
0
  6
CONTINUOUS
 62
     3
 10
-237.261421203613
 20
-87.7873401641846
 30
0.0
 11
-240.21584448082
 21
-87.2663957342329
 31
0.0
  0
ENDBLK
  5
   1AB
  8
0
  6
CONTINUOUS
 62
     3
  0
BLOCK
  5
   1AC
  8
0
  6
CONTINUOUS
 62
     3
  2
*UDIM59
 70
    65
 10
0.0
 20
0.0
 30
0.0
  3
*UDIM59
  0
TEXT
  5
   1AD
  8
0
  6
CONTINUOUS
 62
     3
 10
-228.051588474811
 20
-99.5891895226292
 30
0.0
 40
3.00000002980232
  1
75
 50
359.999999844103
 41
0.933333333333333
 72
     1
 11
-225.551588445902
 21
-98.0891895145178
 31
0.0
 73
     2
  0
LINE
  5
   1AE
  8
0
  6
CONTINUOUS
 62
     3
 10
-262.776582717896
 20
-56.7446917294292
 30
0.0
 11
-262.776582717896
 21
-102.589189529419
 31
0.0
  0
LINE
  5
   1AF
  8
0
  6
CONTINUOUS
 62
     3
 10
-187.776595830917
 20
-34.2446765899658
 30
0.0
 11
-187.776595830917
 21
-102.589189529419
 31
0.0
  0
LINE
  5
   1B0
  8
0
  6
CONTINUOUS
 62
     3
 10
-262.776582717896
 20
-100.589189529419
 30
0.0
 11
-187.776595830917
 21
-100.589189529419
 31
0.0
  0
LINE
  5
   1B1
  8
0
  6
CONTINUOUS
 62
     3
 10
-259.822159440689
 20
-100.068245099467
 30
0.0
 11
-262.776582717896
 21
-100.589189529419
 31
0.0
  0
LINE
  5
   1B2
  8
0
  6
CONTINUOUS
 62
     3
 10
-262.776582717896
 20
-100.589189529419
 30
0.0
 11
-259.822159440689
 21
-101.110133959371
 31
0.0
  0
LINE
  5
   1B3
  8
0
  6
CONTINUOUS
 62
     3
 10
-190.731019108124
 20
-101.110133959371
 30
0.0
 11
-187.776595830917
 21
-100.589189529419
 31
0.0
  0
LINE
  5
   1B4
  8
0
  6
CONTINUOUS
 62
     3
 10
-187.776595830917
 20
-100.589189529419
 30
0.0
 11
-190.731019108124
 21
-100.068245099467
 31
0.0
  0
ENDBLK
  5
   1B5
  8
0
  6
CONTINUOUS
 62
     3
  0
BLOCK
  5
   1B6
  8
0
  6
CONTINUOUS
 62
     7
  2
*UDIM60
 70
    65
 10
0.0
 20
0.0
 30
0.0
  3
*UDIM60
  0
TEXT
  5
   1B7
  8
0
  6
CONTINUOUS
 62
     7
 10
-219.812754907767
 20
-111.519937508469
 30
0.0
 40
3.00000002980232
  1
91
 50
359.999999844103
 41
0.933333333333333
 72
     1
 11
-217.312754878858
 21
-110.019937500358
 31
0.0
 73
     2
  0
LINE
  5
   1B8
  8
0
  6
CONTINUOUS
 62
     7
 10
-262.776582272847
 20
-60.7446918487549
 30
0.0
 11
-262.776582272847
 21
-114.519937515259
 31
0.0
  0
LINE
  5
   1B9
  8
0
  6
CONTINUOUS
 62
     7
 10
-171.848927484868
 20
-30.9816946811597
 30
0.0
 11
-171.848927484868
 21
-114.519937515259
 31
0.0
  0
LINE
  5
   1BA
  8
0
  6
CONTINUOUS
 62
     7
 10
-262.776582272847
 20
-112.519937515259
 30
0.0
 11
-171.848927484868
 21
-112.519937515259
 31
0.0
  0
LINE
  5
   1BB
  8
0
  6
CONTINUOUS
 62
     3
 10
-259.878804799637
 20
-111.74348035884
 30
0.0
 11
-262.776582272847
 21
-112.519937515259
 31
0.0
  0
LINE
  5
   1BC
  8
0
  6
CONTINUOUS
 62
     3
 10
-262.776582272847
 20
-112.519937515259
 30
0.0
 11
-259.878804799637
 21
-113.296394671677
 31
0.0
  0
LINE
  5
   1BD
  8
0
  6
CONTINUOUS
 62
     3
 10
-174.746704958078
 20
-113.296394671677
 30
0.0
 11
-171.848927484868
 21
-112.519937515259
 31
0.0
  0
LINE
  5
   1BE
  8
0
  6
CONTINUOUS
 62
     3
 10
-171.848927484868
 20
-112.519937515259
 30
0.0
 11
-174.746704958078
 21
-111.74348035884
 31
0.0
  0
ENDBLK
  5
   1BF
  8
0
  6
CONTINUOUS
 62
     7
  0
BLOCK
  5
   1C0
  8
0
  6
CONTINUOUS
 62
     7
  2
*UDIM61
 70
    65
 10
0.0
 20
0.0
 30
0.0
  3
*UDIM61
  0
TEXT
  5
   1C1
  8
0
  6
CONTINUOUS
 62
     7
 10
-239.136664256554
 20
-28.9997587060038
 30
0.0
 40
3.00000002980232
  1
10.5
 50
359.999999844103
 41
0.933333333333333
 72
     1
 11
-233.836664199829
 21
-27.4997587054968
 31
0.0
 73
     2
  0
TEXT
  5
   1C2
  8
0
  6
CONTINUOUS
 62
     7
 10
-227.536664151252
 20
-28.999758709806
 30
0.0
 40
3.00000002980232
  1
x11
 50
359.999999844103
 41
0.933333333333333
 72
     1
 11
-223.636664108435
 21
-27.4997587054968
 31
0.0
 73
     2
  0
LINE
  5
   1C3
  8
0
  6
CONTINUOUS
 62
     7
 10
-248.761421203613
 20
-43.7446918487549
 30
0.0
 11
-248.761421203613
 21
-27.9997587203979
 31
0.0
  0
LINE
  5
   1C4
  8
0
  6
CONTINUOUS
 62
     7
 10
-237.261421203613
 20
-43.7446918487549
 30
0.0
 11
-237.261421203613
 21
-27.9997587203979
 31
0.0
  0
LINE
  5
   1C5
  8
0
  6
CONTINUOUS
 62
     7
 10
-248.761421203613
 20
-29.999758720398
 30
0.0
 11
-219.736664069692
 21
-29.999758720398
 31
0.0
  0
LINE
  5
   1C6
  8
0
  6
CONTINUOUS
 62
     3
 10
-245.863643730403
 20
-29.2233015639794
 30
0.0
 11
-248.761421203613
 21
-29.999758720398
 31
0.0
  0
LINE
  5
   1C7
  8
0
  6
CONTINUOUS
 62
     3
 10
-248.761421203613
 20
-29.999758720398
 30
0.0
 11
-245.863643730403
 21
-30.7762158768165
 31
0.0
  0
LINE
  5
   1C8
  8
0
  6
CONTINUOUS
 62
     3
 10
-240.159198676824
 20
-30.7762158768165
 30
0.0
 11
-237.261421203613
 21
-29.999758720398
 31
0.0
  0
LINE
  5
   1C9
  8
0
  6
CONTINUOUS
 62
     3
 10
-237.261421203613
 20
-29.999758720398
 30
0.0
 11
-240.159198676824
 21
-29.2233015639794
 31
0.0
  0
ENDBLK
  5
   1CA
  8
0
  6
CONTINUOUS
 62
     7
  0
BLOCK
  5
   1CB
  8
0
  6
CONTINUOUS
 62
     7
  2
*UDIM62
 70
    65
 10
0.0
 20
0.0
 30
0.0
  3
*UDIM62
  0
TEXT
  5
   1CC
  8
0
  6
CONTINUOUS
 62
     7
 10
-187.389185376069
 20
90.8998088942589
 30
0.0
 40
3.00000002980232
  1
1.5
 50
359.999999844103
 41
0.933333333333333
 72
     1
 11
-183.489185333252
 21
92.3998088985681
 31
0.0
 73
     2
  0
TEXT
  5
   1CD
  8
0
  6
CONTINUOUS
 62
     7
 10
-178.589185298583
 20
90.8998088904567
 30
0.0
 40
3.00000002980232
  1
-2
 50
359.999999844103
 41
0.933333333333333
 72
     1
 11
-176.089185269674
 21
92.3998088985681
 31
0.0
 73
     2
  0
LINE
  5
   1CE
  8
0
  6
CONTINUOUS
 62
     7
 10
-192.276588439941
 20
72.8966619658505
 30
0.0
 11
-192.276588439941
 21
91.899808883667
 31
0.0
  0
LINE
  5
   1CF
  8
0
  6
CONTINUOUS
 62
     7
 10
-190.776588439941
 20
72.8966619658505
 30
0.0
 11
-190.776588439941
 21
91.899808883667
 31
0.0
  0
LINE
  5
   1D0
  8
0
  6
CONTINUOUS
 62
     7
 10
-197.276588439941
 20
89.899808883667
 30
0.0
 11
-173.589185244838
 21
89.899808883667
 31
0.0
  0
LINE
  5
   1D1
  8
0
  6
CONTINUOUS
 62
     3
 10
-195.174365913152
 20
89.1233517272484
 30
0.0
 11
-192.276588439941
 21
89.899808883667
 31
0.0
  0
LINE
  5
   1D2
  8
0
  6
CONTINUOUS
 62
     3
 10
-192.276588439941
 20
89.899808883667
 30
0.0
 11
-195.174365913152
 21
90.6762660400855
 31
0.0
  0
LINE
  5
   1D3
  8
0
  6
CONTINUOUS
 62
     3
 10
-187.878810966731
 20
90.6762660400855
 30
0.0
 11
-190.776588439941
 21
89.899808883667
 31
0.0
  0
LINE
  5
   1D4
  8
0
  6
CONTINUOUS
 62
     3
 10
-190.776588439941
 20
89.899808883667
 30
0.0
 11
-187.878810966731
 21
89.1233517272484
 31
0.0
  0
ENDBLK
  5
   1D5
  8
0
  6
CONTINUOUS
 62
     7
  0
BLOCK
  5
   1D6
  8
0
  6
CONTINUOUS
 62
     7
  2
*UDIM63
 70
    65
 10
0.0
 20
0.0
 30
0.0
  3
*UDIM63
  0
TEXT
  5
   1D7
  8
0
  6
CONTINUOUS
 62
     7
 10
-230.026585385303
 20
90.8998088904567
 30
0.0
 40
3.00000002980232
  1
71
 50
359.999999844103
 41
0.933333333333333
 72
     1
 11
-227.526585356394
 21
92.3998088985681
 31
0.0
 73
     2
  0
LINE
  5
   1D8
  8
0
  6
CONTINUOUS
 62
     7
 10
-262.776582272847
 20
61.2552928924561
 30
0.0
 11
-262.776582272847
 21
91.899808883667
 31
0.0
  0
LINE
  5
   1D9
  8
0
  6
CONTINUOUS
 62
     7
 10
-192.276588439941
 20
72.8966619658505
 30
0.0
 11
-192.276588439941
 21
91.899808883667
 31
0.0
  0
LINE
  5
   1DA
  8
0
  6
CONTINUOUS
 62
     7
 10
-262.776582272847
 20
89.899808883667
 30
0.0
 11
-192.276588439941
 21
89.899808883667
 31
0.0
  0
LINE
  5
   1DB
  8
0
  6
CONTINUOUS
 62
     3
 10
-259.878804799637
 20
90.6762660400855
 30
0.0
 11
-262.776582272847
 21
89.899808883667
 31
0.0
  0
LINE
  5
   1DC
  8
0
  6
CONTINUOUS
 62
     3
 10
-262.776582272847
 20
89.899808883667
 30
0.0
 11
-259.878804799637
 21
89.1233517272484
 31
0.0
  0
LINE
  5
   1DD
  8
0
  6
CONTINUOUS
 62
     3
 10
-195.174365913152
 20
89.1233517272484
 30
0.0
 11
-192.276588439941
 21
89.899808883667
 31
0.0
  0
LINE
  5
   1DE
  8
0
  6
CONTINUOUS
 62
     3
 10
-192.276588439941
 20
89.899808883667
 30
0.0
 11
-195.174365913152
 21
90.6762660400855
 31
0.0
  0
ENDBLK
  5
   1DF
  8
0
  6
CONTINUOUS
 62
     7
  0
BLOCK
  5
   1E0
  8
0
  6
CONTINUOUS
 62
     7
  2
DIA_LATO
 70
    64
 10
0.0
 20
0.0
 30
0.0
  3
DIA_LATO
  0
LINE
  5
   1E1
  8
0
  6
CONTINUOUS
 62
   210
 10
0.0
 20
0.0
 30
0.0
 11
0.0
 21
23.1999950408936
 31
0.0
  0
ARC
  5
   1E2
  8
0
  6
CONTINUOUS
 62
   210
 10
1.5
 20
23.1999950408936
 30
0.0
 40
1.5
 50
90.0
 51
180.0
  0
LINE
  5
   1E3
  8
0
  6
CONTINUOUS
 62
   210
 10
0.0
 20
0.199995040893569
 30
0.0
 11
50.0
 21
0.199995040893569
 31
0.0
  0
LINE
  5
   1E4
  8
0
  6
CONTINUOUS
 62
   210
 10
1.5
 20
24.6999950408936
 30
0.0
 11
48.5
 21
24.6999950408936
 31
0.0
  0
ARC
  5
   1E5
  8
0
  6
CONTINUOUS
 62
   210
 10
48.5
 20
23.1999950408936
 30
0.0
 40
1.5
 50
1.27222187258541E-14
 51
90.0
  0
LINE
  5
   1E6
  8
0
  6
CONTINUOUS
 62
   210
 10
50.0
 20
1.52587890767109E-5
 30
0.0
 11
50.0
 21
23.1999950408936
 31
0.0
  0
ENDBLK
  5
   1E7
  8
0
  6
CONTINUOUS
 62
     7
  0
ENDSEC
  0
SECTION
  2
ENTITIES
  0
LINE
  5
   1E8
  8
0
  6
CONTINUOUS
 62
     7
 10
-319.32496547699
 20
35.0053882598877
 30
0.0
 11
-319.32496547699
 21
-32.180713973242
 31
0.0
  0
LINE
  5
   1E9
  8
0
  6
CONTINUOUS
 62
     7
 10
-409.07496547699
 20
-59.7446117401123
 30
0.0
 11
-395.06434093044
 21
-59.7446117401123
 31
0.0
  0
LINE
  5
   1EA
  8
0
  6
CONTINUOUS
 62
     7
 10
-410.32496547699
 20
35.0053882598877
 30
0.0
 11
-410.32496547699
 21
-58.4946117401123
 31
0.0
  0
LINE
  5
   1EB
  8
0
  6
CONTINUOUS
 62
     7
 10
-409.07496547699
 20
36.2553882598877
 30
0.0
 11
-320.57496547699
 21
36.2553882598877
 31
0.0
  0
LINE
  5
   1EC
  8
0
  6
CONTINUOUS
 62
     7
 10
-405.32496547699
 20
-35.7446117401123
 30
0.0
 11
-395.06434093044
 21
-35.7446117401123
 31
0.0
  0
LINE
  5
   1ED
  8
0
  6
CONTINUOUS
 62
     7
 10
-405.32496547699
 20
12.2553882598877
 30
0.0
 11
-324.32496547699
 21
12.2553882598877
 31
0.0
  0
LINE
  5
   1EE
  8
0
  6
CONTINUOUS
 62
     7
 10
-405.82496547699
 20
36.2553882598877
 30
0.0
 11
-405.82496547699
 21
-59.7446117401123
 31
0.0
  0
LINE
  5
   1EF
  8
0
  6
CONTINUOUS
 62
     7
 10
-404.82496547699
 20
22.7553882598877
 30
0.0
 11
-404.82496547699
 21
12.2553882598877
 31
0.0
  0
LINE
  5
   1F0
  8
0
  6
CONTINUOUS
 62
     7
 10
-404.82496547699
 20
-35.7446117401123
 30
0.0
 11
-404.82496547699
 21
-46.2446117401123
 31
0.0
  0
LINE
  5
   1F1
  8
0
  6
CONTINUOUS
 62
     7
 10
-404.82496547699
 20
-47.2446117401123
 30
0.0
 11
-404.82496547699
 21
-59.7446117401123
 31
0.0
  0
LINE
  5
   1F2
  8
0
  6
CONTINUOUS
 62
     7
 10
-323.82496547699
 20
36.2553882598877
 30
0.0
 11
-323.82496547699
 21
-32.180713973242
 31
0.0
  0
LINE
  5
   1F3
  8
0
  6
CONTINUOUS
 62
     7
 10
-324.82496547699
 20
22.7553882598877
 30
0.0
 11
-324.82496547699
 21
12.2553882598877
 31
0.0
  0
LINE
  5
   1F4
  8
0
  6
CONTINUOUS
 62
     7
 10
-405.82496547699
 20
23.7553882598877
 30
0.0
 11
-323.82496547699
 21
23.7553882598877
 31
0.0
  0
LINE
  5
   1F5
  8
0
  6
CONTINUOUS
 62
     7
 10
-404.82496547699
 20
22.7553882598877
 30
0.0
 11
-324.82496547699
 21
22.7553882598877
 31
0.0
  0
LINE
  5
   1F6
  8
0
  6
CONTINUOUS
 62
     7
 10
-404.82496547699
 20
-47.2446117401123
 30
0.0
 11
-395.06434093044
 21
-47.2446117401123
 31
0.0
  0
LINE
  5
   1F7
  8
0
  6
CONTINUOUS
 62
     7
 10
-404.82496547699
 20
-46.2446117401123
 30
0.0
 11
-395.06434093044
 21
-46.2446117401123
 31
0.0
  0
LINE
  5
   1F8
  8
0
  6
CONTINUOUS
 62
     7
 10
-405.82496547699
 20
30.7553882598877
 30
0.0
 11
-405.524962425232
 21
30.7553882598877
 31
0.0
  0
LINE
  5
   1F9
  8
0
  6
CONTINUOUS
 62
     7
 10
-405.82496547699
 20
29.2553882598877
 30
0.0
 11
-405.524962425232
 21
29.2553882598877
 31
0.0
  0
LINE
  5
   1FA
  8
0
  6
CONTINUOUS
 62
     7
 10
-324.124965667725
 20
30.7553882598877
 30
0.0
 11
-323.82496547699
 21
30.7553882598877
 31
0.0
  0
LINE
  5
   1FB
  8
0
  6
CONTINUOUS
 62
     7
 10
-324.124965667725
 20
29.2553882598877
 30
0.0
 11
-323.82496547699
 21
29.2553882598877
 31
0.0
  0
ARC
  5
   1FC
  8
0
  6
CONTINUOUS
 62
     7
 10
-405.525002367908
 20
30.0053633419333
 30
0.0
 40
0.750043449440929
 50
270.002994716444
 51
449.997011754257
  0
ARC
  5
   1FD
  8
0
  6
CONTINUOUS
 62
     7
 10
-324.124950804607
 20
30.0053827497573
 30
0.0
 40
0.750014940188872
 50
450.001135501493
 51
629.998857587167
  0
ARC
  5
   1FE
  8
0
  6
CONTINUOUS
 62
     7
 10
-320.57496547699
 20
35.0053882598877
 30
0.0
 40
1.25
 50
359.999999844103
 51
449.999999844103
  0
ARC
  5
   1FF
  8
0
  6
CONTINUOUS
 62
     7
 10
-409.07496547699
 20
35.0053882598877
 30
0.0
 40
1.25
 50
449.999999844103
 51
539.999999844103
  0
ARC
  5
   200
  8
0
  6
CONTINUOUS
 62
     7
 10
-409.07496547699
 20
-58.4946117401123
 30
0.0
 40
1.25
 50
539.999999844103
 51
629.999999844103
  0
LINE
  5
   201
  8
0
  6
CONTINUOUS
 62
     7
 10
-324.32496547699
 20
12.2553882598877
 30
0.0
 11
-324.32496547699
 21
-32.180713973242
 31
0.0
  0
LINE
  5
   202
  8
0
  6
CONTINUOUS
 62
     7
 10
-405.32496547699
 20
12.2553882598877
 30
0.0
 11
-405.32496547699
 21
-35.7446117401123
 31
0.0
  0
LINE
  5
   203
  8
0
  6
CONTINUOUS
 62
   130
 10
-375.824873924255
 20
-59.7446966171247
 30
0.0
 11
-362.324873851
 21
-59.7446966171247
 31
0.0
  0
LINE
  5
   204
  8
0
  6
CONTINUOUS
 62
   130
 10
-400.324870834346
 20
60.2552881240875
 30
0.0
 11
-378.82490299832
 21
60.2552881240875
 31
0.0
  0
LINE
  5
   205
  8
0
  6
CONTINUOUS
 62
   130
 10
-375.82487487793
 20
60.2552881240863
 30
0.0
 11
-362.324889414962
 21
60.2552881240863
 31
0.0
  0
LINE
  5
   206
  8
0
  6
CONTINUOUS
 62
   130
 10
-403.824839706417
 20
55.2552914647758
 30
0.0
 11
-403.824836807263
 21
36.2553882598877
 31
0.0
  0
LINE
  5
   207
  8
0
  6
CONTINUOUS
 62
   130
 10
-403.824826049808
 20
-34.2446813583306
 30
0.0
 11
-364.824856567386
 21
-34.2446813583306
 31
0.0
  0
LINE
  5
   208
  8
0
  6
CONTINUOUS
 62
   130
 10
-374.824873924255
 20
-56.2446966171246
 30
0.0
 11
-374.824873924255
 21
-57.7447118759137
 31
0.0
  0
LINE
  5
   209
  8
0
  6
CONTINUOUS
 62
   130
 10
-375.824873924255
 20
-58.4946966171247
 30
0.0
 11
-375.824873924255
 21
-59.7446966171247
 31
0.0
  0
LINE
  5
   20A
  8
0
  6
CONTINUOUS
 62
   130
 10
-378.824873924255
 20
-58.4946813583356
 30
0.0
 11
-378.824873924255
 21
-59.7446966171247
 31
0.0
  0
LINE
  5
   20B
  8
0
  6
CONTINUOUS
 62
   130
 10
-379.824873924255
 20
-56.2446966171246
 30
0.0
 11
-379.824873924255
 21
-57.7447118759137
 31
0.0
  0
LINE
  5
   20C
  8
0
  6
CONTINUOUS
 62
   130
 10
-375.824823478438
 20
56.7552881240863
 30
0.0
 11
-374.82487487793
 21
56.7552881240863
 31
0.0
  0
LINE
  5
   20D
  8
0
  6
CONTINUOUS
 62
   130
 10
-379.82487487793
 20
58.0052881240863
 30
0.0
 11
-379.82487487793
 21
56.7552881240863
 31
0.0
  0
LINE
  5
   20E
  8
0
  6
CONTINUOUS
 62
   130
 10
-378.82487487793
 20
60.2552881240863
 30
0.0
 11
-378.82487487793
 21
59.0052881240863
 31
0.0
  0
LINE
  5
   20F
  8
0
  6
CONTINUOUS
 62
   130
 10
-375.82487487793
 20
60.2552881240863
 30
0.0
 11
-375.82487487793
 21
59.0052881240863
 31
0.0
  0
LINE
  5
   210
  8
0
  6
CONTINUOUS
 62
   130
 10
-374.82487316134
 20
58.0052804947531
 30
0.0
 11
-374.824874115014
 21
56.7552804947527
 31
0.0
  0
LINE
  5
   211
  8
0
  6
CONTINUOUS
 62
   130
 10
-366.07487487793
 20
60.2553033828754
 30
0.0
 11
-363.574875831604
 21
60.2553033828754
 31
0.0
  0
CIRCLE
  5
   212
  8
0
  6
CONTINUOUS
 62
   130
 10
-377.324895759845
 20
50.2553540177666
 30
0.0
 40
4.4999575073053
  0
LINE
  5
   213
  8
0
  6
CONTINUOUS
 62
   130
 10
-403.824832916262
 20
10.7553186416576
 30
0.0
 11
-364.824863433839
 21
10.7553186416576
 31
0.0
  0
CIRCLE
  5
   214
  8
0
  6
CONTINUOUS
 62
   130
 10
-389.824873851
 20
-56.7446966171246
 30
0.0
 40
1.25
  0
ARC
  5
   215
  8
0
  6
CONTINUOUS
 62
   130
 10
-364.824873851
 20
-56.7446966171246
 30
0.0
 40
1.25
 50
449.999999844103
 51
629.999999844103
  0
ARC
  5
   216
  8
0
  6
CONTINUOUS
 62
   130
 10
-364.824889414962
 20
57.2552881240863
 30
0.0
 40
1.25
 50
449.999999844103
 51
629.999999844103
  0
CIRCLE
  5
   217
  8
0
  6
CONTINUOUS
 62
   130
 10
-389.824851643377
 20
57.2552789688206
 30
0.0
 40
1.25
  0
LINE
  5
   218
  8
0
  6
CONTINUOUS
 62
   130
 10
-372.324874558869
 20
2.39132208287283
 30
0.0
 11
-358.18042901348
 21
2.39132208287283
 31
0.0
  0
LINE
  5
   219
  8
0
  6
CONTINUOUS
 62
   130
 10
-375.82490299832
 20
60.2552881240863
 30
0.0
 11
-375.82490299832
 21
58.2552881240863
 31
0.0
  0
LINE
  5
   21A
  8
0
  6
CONTINUOUS
 62
   130
 10
-378.82490299832
 20
60.2552881240863
 30
0.0
 11
-378.82490299832
 21
58.2552881240863
 31
0.0
  0
LINE
  5
   21B
  8
0
  6
CONTINUOUS
 62
   130
 10
-379.824903951984
 20
58.2552881240863
 30
0.0
 11
-379.824902807566
 21
56.755276680058
 31
0.0
  0
LINE
  5
   21C
  8
0
  6
CONTINUOUS
 62
   130
 10
-374.82490299832
 20
58.2552881240863
 30
0.0
 11
-374.82490299832
 21
56.7552881240863
 31
0.0
  0
LINE
  5
   21D
  8
0
  6
CONTINUOUS
 62
   130
 10
-379.82490299832
 20
56.7552881240863
 30
0.0
 11
-378.824823478438
 21
56.7552881240863
 31
0.0
  0
LINE
  5
   21E
  8
0
  6
CONTINUOUS
 62
   130
 10
-375.82490299832
 20
58.2552881240863
 30
0.0
 11
-374.82490299832
 21
58.2552881240863
 31
0.0
  0
LINE
  5
   21F
  8
0
  6
CONTINUOUS
 62
   130
 10
-379.824903951984
 20
58.2552881240863
 30
0.0
 11
-378.82490299832
 21
58.2552881240863
 31
0.0
  0
LINE
  5
   220
  8
0
  6
CONTINUOUS
 62
   130
 10
-378.82490299832
 20
-57.7447118759137
 30
0.0
 11
-378.82490299832
 21
-59.7447118759137
 31
0.0
  0
LINE
  5
   221
  8
0
  6
CONTINUOUS
 62
   130
 10
-375.82490299832
 20
-57.7447118759137
 30
0.0
 11
-375.82490299832
 21
-59.7447118759137
 31
0.0
  0
LINE
  5
   222
  8
0
  6
CONTINUOUS
 62
   130
 10
-379.824903951984
 20
-57.7447118759137
 30
0.0
 11
-378.82490299832
 21
-57.7447118759137
 31
0.0
  0
LINE
  5
   223
  8
0
  6
CONTINUOUS
 62
   130
 10
-375.82490299832
 20
-57.7447118759137
 30
0.0
 11
-374.82490299832
 21
-57.7447118759137
 31
0.0
  0
LINE
  5
   224
  8
0
  6
CONTINUOUS
 62
   130
 10
-372.324874629975
 20
4.25531864165755
 30
0.0
 11
-372.324873603369
 21
-22.6565321529716
 31
0.0
  0
LINE
  5
   225
  8
0
  6
CONTINUOUS
 62
   130
 10
-372.324873603369
 20
-22.6565321529716
 30
0.0
 11
-371.324873603369
 21
-22.6565321529716
 31
0.0
  0
LINE
  5
   226
  8
0
  6
CONTINUOUS
 62
   130
 10
-372.32487361772
 20
-22.2803286677777
 30
0.0
 11
-371.32487361772
 21
-22.2803286677777
 31
0.0
  0
LINE
  5
   227
  8
0
  6
CONTINUOUS
 62
   130
 10
-403.824831695559
 20
2.75531864165755
 30
0.0
 11
-372.324874572755
 21
2.75531864165755
 31
0.0
  0
LINE
  5
   228
  8
0
  6
CONTINUOUS
 62
   130
 10
-403.824827041629
 20
-27.7446813583306
 30
0.0
 11
-390.424857330323
 21
-27.7446813583306
 31
0.0
  0
LINE
  5
   229
  8
0
  6
CONTINUOUS
 62
   130
 10
-403.824827270511
 20
-26.2446813583306
 30
0.0
 11
-371.324873466492
 21
-26.2446813583306
 31
0.0
  0
LINE
  5
   22A
  8
0
  6
CONTINUOUS
 62
   130
 10
-380.424857330323
 20
-27.7446813583306
 30
0.0
 11
-325.824892196654
 21
-27.7446813583306
 31
0.0
  0
LINE
  5
   22B
  8
0
  6
CONTINUOUS
 62
   130
 10
-371.324873801436
 20
-17.4643371027707
 30
0.0
 11
-371.324873480505
 21
-25.8773482990419
 31
0.0
  0
CIRCLE
  5
   22C
  8
0
  6
CONTINUOUS
 62
   130
 10
-364.824889414962
 20
51.4552964973246
 30
0.0
 40
3.0
  0
CIRCLE
  5
   22D
  8
0
  6
CONTINUOUS
 62
   130
 10
-364.824889414962
 20
-50.9447202491521
 30
0.0
 40
3.0
  0
ARC
  5
   22E
  8
0
  6
CONTINUOUS
 62
   130
 10
-400.324870834346
 20
59.255291617359
 30
0.0
 40
1.0
 50
449.999999844103
 51
540.000008586744
  0
LINE
  5
   22F
  8
0
  6
CONTINUOUS
 62
   130
 10
-402.824868774408
 20
45.75527635857
 30
0.0
 11
-402.824868545526
 21
44.25527635857
 31
0.0
  0
LINE
  5
   230
  8
0
  6
CONTINUOUS
 62
   130
 10
-402.824868774408
 20
45.75527635857
 30
0.0
 11
-364.824889414962
 21
45.75527635857
 31
0.0
  0
LINE
  5
   231
  8
0
  6
CONTINUOUS
 62
   130
 10
-403.824838027949
 20
44.25527635857
 30
0.0
 11
-364.824859619141
 21
44.25527635857
 31
0.0
  0
LINE
  5
   232
  8
0
  6
CONTINUOUS
 62
   130
 10
-401.324870834346
 20
59.2552914647712
 30
0.0
 11
-401.324870376583
 21
56.255291617359
 31
0.0
  0
LINE
  5
   233
  8
0
  6
CONTINUOUS
 62
   130
 10
-402.824870223995
 20
56.255291617359
 30
0.0
 11
-401.324870376583
 21
56.255291617359
 31
0.0
  0
ARC
  5
   234
  8
0
  6
CONTINUOUS
 62
   130
 10
-402.824870223995
 20
55.255291617359
 30
0.0
 40
1.0
 50
449.999999844103
 51
540.000008586744
  0
CIRCLE
  5
   235
  8
0
  6
CONTINUOUS
 62
   130
 10
-389.824889414962
 20
51.4552964973246
 30
0.0
 40
3.0
  0
CIRCLE
  5
   236
  8
0
  6
CONTINUOUS
 62
   130
 10
-389.824889414962
 20
-50.9447202491521
 30
0.0
 40
3.0
  0
LINE
  5
   237
  8
0
  6
CONTINUOUS
 62
   130
 10
-367.324845387283
 20
-59.7446966171247
 30
0.0
 11
-353.824845314028
 21
-59.7446966171247
 31
0.0
  0
LINE
  5
   238
  8
0
  6
CONTINUOUS
 62
   130
 10
-350.824845314028
 20
-59.7446966171247
 30
0.0
 11
-329.324848403937
 21
-59.7446966171247
 31
0.0
  0
LINE
  5
   239
  8
0
  6
CONTINUOUS
 62
   130
 10
-350.82485309602
 20
60.2552881240875
 30
0.0
 11
-329.324848403937
 21
60.2552881240875
 31
0.0
  0
LINE
  5
   23A
  8
0
  6
CONTINUOUS
 62
   130
 10
-367.324829823321
 20
60.2552881240863
 30
0.0
 11
-353.824844360353
 21
60.2552881240863
 31
0.0
  0
LINE
  5
   23B
  8
0
  6
CONTINUOUS
 62
   130
 10
-325.824879531866
 20
55.2552914647758
 30
0.0
 11
-325.82488243102
 21
36.2553882598877
 31
0.0
  0
LINE
  5
   23C
  8
0
  6
CONTINUOUS
 62
   130
 10
-354.824845314028
 20
-56.2446966171246
 30
0.0
 11
-354.824845314028
 21
-57.7447118759137
 31
0.0
  0
LINE
  5
   23D
  8
0
  6
CONTINUOUS
 62
   130
 10
-353.824845314028
 20
-58.4946966171247
 30
0.0
 11
-353.824845314028
 21
-59.7446966171247
 31
0.0
  0
LINE
  5
   23E
  8
0
  6
CONTINUOUS
 62
   130
 10
-350.824845314028
 20
-58.4946813583356
 30
0.0
 11
-350.824845314028
 21
-59.7446966171247
 31
0.0
  0
LINE
  5
   23F
  8
0
  6
CONTINUOUS
 62
   130
 10
-349.824845314028
 20
-56.2446966171246
 30
0.0
 11
-349.824845314028
 21
-57.7447118759137
 31
0.0
  0
LINE
  5
   240
  8
0
  6
CONTINUOUS
 62
   130
 10
-349.824844360353
 20
58.0052881240863
 30
0.0
 11
-349.824844360353
 21
56.7552881240863
 31
0.0
  0
LINE
  5
   241
  8
0
  6
CONTINUOUS
 62
   130
 10
-350.824844360353
 20
60.2552881240863
 30
0.0
 11
-350.824844360353
 21
59.0052881240863
 31
0.0
  0
LINE
  5
   242
  8
0
  6
CONTINUOUS
 62
   130
 10
-353.824844360353
 20
60.2552881240863
 30
0.0
 11
-353.824844360353
 21
59.0052881240863
 31
0.0
  0
LINE
  5
   243
  8
0
  6
CONTINUOUS
 62
   130
 10
-354.824846076943
 20
58.0052804947531
 30
0.0
 11
-354.824845123269
 21
56.7552804947527
 31
0.0
  0
LINE
  5
   244
  8
0
  6
CONTINUOUS
 62
   130
 10
-366.074843406679
 20
60.2553033828754
 30
0.0
 11
-363.574844360353
 21
60.2553033828754
 31
0.0
  0
CIRCLE
  5
   245
  8
0
  6
CONTINUOUS
 62
   130
 10
-352.324823478438
 20
50.2553540177666
 30
0.0
 40
4.4999575073053
  0
CIRCLE
  5
   246
  8
0
  6
CONTINUOUS
 62
   130
 10
-339.824845387283
 20
-56.7446966171246
 30
0.0
 40
1.25
  0
ARC
  5
   247
  8
0
  6
CONTINUOUS
 62
   130
 10
-364.824845387283
 20
-56.7446966171246
 30
0.0
 40
1.25
 50
269.999999844103
 51
449.999999844104
  0
ARC
  5
   248
  8
0
  6
CONTINUOUS
 62
   130
 10
-364.824829823321
 20
57.2552881240863
 30
0.0
 40
1.25
 50
269.999999844103
 51
449.999999844103
  0
CIRCLE
  5
   249
  8
0
  6
CONTINUOUS
 62
   130
 10
-339.824867594906
 20
57.2552789688206
 30
0.0
 40
1.25
  0
LINE
  5
   24A
  8
0
  6
CONTINUOUS
 62
   130
 10
-358.324844679414
 20
2.39132208287283
 30
0.0
 11
-357.324844679414
 21
2.39132208287283
 31
0.0
  0
LINE
  5
   24B
  8
0
  6
CONTINUOUS
 62
   130
 10
-353.824816239963
 20
60.2552881240863
 30
0.0
 11
-353.824816239963
 21
58.2552881240863
 31
0.0
  0
LINE
  5
   24C
  8
0
  6
CONTINUOUS
 62
   130
 10
-350.824816239963
 20
60.2552881240863
 30
0.0
 11
-350.824816239963
 21
58.2552881240863
 31
0.0
  0
LINE
  5
   24D
  8
0
  6
CONTINUOUS
 62
   130
 10
-349.824815286299
 20
58.2552881240863
 30
0.0
 11
-349.824816430717
 21
56.755276680058
 31
0.0
  0
LINE
  5
   24E
  8
0
  6
CONTINUOUS
 62
   130
 10
-354.824816239963
 20
58.2552881240863
 30
0.0
 11
-354.824816239963
 21
56.7552881240863
 31
0.0
  0
LINE
  5
   24F
  8
0
  6
CONTINUOUS
 62
   130
 10
-354.824816239963
 20
58.2552881240863
 30
0.0
 11
-353.824816239963
 21
58.2552881240863
 31
0.0
  0
LINE
  5
   250
  8
0
  6
CONTINUOUS
 62
   130
 10
-350.824816239963
 20
58.2552881240863
 30
0.0
 11
-349.824815286299
 21
58.2552881240863
 31
0.0
  0
LINE
  5
   251
  8
0
  6
CONTINUOUS
 62
   130
 10
-350.824816239963
 20
-57.7447118759137
 30
0.0
 11
-350.824816239963
 21
-59.7447118759137
 31
0.0
  0
LINE
  5
   252
  8
0
  6
CONTINUOUS
 62
   130
 10
-353.824816239963
 20
-57.7447118759137
 30
0.0
 11
-353.824816239963
 21
-59.7447118759137
 31
0.0
  0
LINE
  5
   253
  8
0
  6
CONTINUOUS
 62
   130
 10
-350.824816239963
 20
-57.7447118759137
 30
0.0
 11
-349.824815286299
 21
-57.7447118759137
 31
0.0
  0
LINE
  5
   254
  8
0
  6
CONTINUOUS
 62
   130
 10
-354.824816239963
 20
-57.7447118759137
 30
0.0
 11
-353.824816239963
 21
-57.7447118759137
 31
0.0
  0
LINE
  5
   255
  8
0
  6
CONTINUOUS
 62
   130
 10
-357.324844608308
 20
4.25531864165755
 30
0.0
 11
-357.324845634914
 21
-22.6565321529716
 31
0.0
  0
LINE
  5
   256
  8
0
  6
CONTINUOUS
 62
   130
 10
-358.324845634914
 20
-22.6565321529716
 30
0.0
 11
-357.324845634914
 21
-22.6565321529716
 31
0.0
  0
LINE
  5
   257
  8
0
  6
CONTINUOUS
 62
   130
 10
-358.324845620563
 20
-22.2803286677777
 30
0.0
 11
-357.324845620563
 21
-22.2803286677777
 31
0.0
  0
LINE
  5
   258
  8
0
  6
CONTINUOUS
 62
   130
 10
-403.824831924441
 20
4.25531864165755
 30
0.0
 11
-325.824887313842
 21
4.25531864165755
 31
0.0
  0
LINE
  5
   259
  8
0
  6
CONTINUOUS
 62
   130
 10
-357.324844665528
 20
2.75531864165755
 30
0.0
 11
-325.824887542724
 21
2.75531864165755
 31
0.0
  0
LINE
  5
   25A
  8
0
  6
CONTINUOUS
 62
   130
 10
-358.324845436847
 20
-17.4643371027707
 30
0.0
 11
-358.324845757778
 21
-25.8773482990419
 31
0.0
  0
CIRCLE
  5
   25B
  8
0
  6
CONTINUOUS
 62
   130
 10
-364.824829823321
 20
51.4552964973246
 30
0.0
 40
3.0
  0
LINE
  5
   25C
  8
0
  6
CONTINUOUS
 62
   130
 10
-364.824866294863
 20
-45.2446931238519
 30
0.0
 11
-326.824850463875
 21
-45.2446931238519
 31
0.0
  0
ARC
  5
   25D
  8
0
  6
CONTINUOUS
 62
   130
 10
-329.324848403937
 20
59.255291617359
 30
0.0
 40
1.0
 50
359.999991101463
 51
449.999999844103
  0
ARC
  5
   25E
  8
0
  6
CONTINUOUS
 62
   130
 10
-329.324848403937
 20
-58.744708382641
 30
0.0
 40
1.0
 50
269.999999844103
 51
360.000008586744
  0
LINE
  5
   25F
  8
0
  6
CONTINUOUS
 62
   130
 10
-328.324850463875
 20
-45.2446931238519
 30
0.0
 11
-328.324848861703
 21
-55.7446931238519
 31
0.0
  0
LINE
  5
   260
  8
0
  6
CONTINUOUS
 62
   130
 10
-364.824845387283
 20
-43.7446931238519
 30
0.0
 11
-325.824894638061
 21
-43.7446931238519
 31
0.0
  0
LINE
  5
   261
  8
0
  6
CONTINUOUS
 62
   130
 10
-326.824850692757
 20
-43.7446931238519
 30
0.0
 11
-326.824850463875
 21
-45.2446931238519
 31
0.0
  0
LINE
  5
   262
  8
0
  6
CONTINUOUS
 62
   130
 10
-326.824850463875
 20
45.75527635857
 30
0.0
 11
-326.824850692757
 21
44.25527635857
 31
0.0
  0
LINE
  5
   263
  8
0
  6
CONTINUOUS
 62
   130
 10
-364.824829823321
 20
45.75527635857
 30
0.0
 11
-326.824850463875
 21
45.75527635857
 31
0.0
  0
LINE
  5
   264
  8
0
  6
CONTINUOUS
 62
   130
 10
-364.824859619142
 20
44.25527635857
 30
0.0
 11
-325.824881210334
 21
44.25527635857
 31
0.0
  0
LINE
  5
   265
  8
0
  6
CONTINUOUS
 62
   130
 10
-328.324848403937
 20
59.2552914647712
 30
0.0
 11
-328.3248488617
 21
56.255291617359
 31
0.0
  0
LINE
  5
   266
  8
0
  6
CONTINUOUS
 62
   130
 10
-328.3248488617
 20
56.255291617359
 30
0.0
 11
-326.824849014288
 21
56.255291617359
 31
0.0
  0
LINE
  5
   267
  8
0
  6
CONTINUOUS
 62
   130
 10
-328.324848861703
 20
-55.7446931238519
 30
0.0
 11
-326.82486579895
 21
-55.7446931238519
 31
0.0
  0
ARC
  5
   268
  8
0
  6
CONTINUOUS
 62
   130
 10
-326.824849014288
 20
55.255291617359
 30
0.0
 40
1.0
 50
359.999991101463
 51
449.999999844103
  0
ARC
  5
   269
  8
0
  6
CONTINUOUS
 62
   130
 10
-326.82486579895
 20
-54.7446931238519
 30
0.0
 40
1.0
 50
269.999999844103
 51
359.999991101463
  0
CIRCLE
  5
   26A
  8
0
  6
CONTINUOUS
 62
   130
 10
-339.824829823321
 20
51.4552964973246
 30
0.0
 40
3.0
  0
CIRCLE
  5
   26B
  8
0
  6
CONTINUOUS
 62
   130
 10
-339.824829823321
 20
-50.9447202491521
 30
0.0
 40
3.0
  0
LINE
  5
   26C
  8
0
  6
DASHDOT
 62
   130
 10
-391.224842607927
 20
50.2552810877138
 30
0.0
 11
-368.424842607927
 21
50.2552810877138
 31
0.0
  0
LINE
  5
   26D
  8
0
  6
DASHDOT
 62
   130
 10
-361.224876630356
 20
50.2552810877138
 30
0.0
 11
-338.424876630356
 21
50.2552810877138
 31
0.0
  0
LINE
  5
   26E
  8
0
  6
DASHDOT
 62
   130
 10
-364.824829823321
 20
65.027562208642
 30
0.0
 11
-364.824829823321
 21
-39.6073533713962
 31
0.0
  0
LINE
  5
   26F
  8
0
  6
DASHDOT
 62
   130
 10
-377.824829823321
 20
51.4552964973246
 30
0.0
 11
-351.824829823321
 21
51.4552964973246
 31
0.0
  0
LINE
  5
   270
  8
0
  6
DASHDOT
 62
   130
 10
-389.824889414962
 20
64.4552964973246
 30
0.0
 11
-389.824889414962
 21
38.4552964973246
 31
0.0
  0
LINE
  5
   271
  8
0
  6
DASHDOT
 62
   130
 10
-407.824889414962
 20
51.4552964973246
 30
0.0
 11
-381.824889414962
 21
51.4552964973246
 31
0.0
  0
LINE
  5
   272
  8
0
  6
DASHDOT
 62
   130
 10
-339.824829823321
 20
64.4552964973246
 30
0.0
 11
-339.824829823321
 21
38.4552964973246
 31
0.0
  0
LINE
  5
   273
  8
0
  6
DASHDOT
 62
   130
 10
-347.824829823321
 20
51.4552964973246
 30
0.0
 11
-321.824829823321
 21
51.4552964973246
 31
0.0
  0
LINE
  5
   274
  8
0
  6
DASHDOT
 62
   130
 10
-389.824889414962
 20
-37.9447202491521
 30
0.0
 11
-389.824889414962
 21
-63.9447202491521
 31
0.0
  0
LINE
  5
   275
  8
0
  6
DASHDOT
 62
   130
 10
-402.824889414962
 20
-50.9447202491521
 30
0.0
 11
-376.824889414962
 21
-50.9447202491521
 31
0.0
  0
LINE
  5
   276
  8
0
  6
DASHDOT
 62
   130
 10
-377.324777664748
 20
-35.4945972671944
 30
0.0
 11
-377.324777664748
 21
-63.9947307560284
 31
0.0
  0
LINE
  5
   277
  8
0
  6
DASHDOT
 62
   130
 10
-394.074844409165
 20
-49.7446640116114
 30
0.0
 11
-365.574710920331
 21
-49.7446640116114
 31
0.0
  0
LINE
  5
   278
  8
0
  6
DASHDOT
 62
   130
 10
-364.824889414962
 20
-37.9447202491521
 30
0.0
 11
-364.824889414962
 21
-65.5017166348172
 31
0.0
  0
LINE
  5
   279
  8
0
  6
DASHDOT
 62
   130
 10
-377.824889414962
 20
-50.9447202491521
 30
0.0
 11
-351.824889414962
 21
-50.9447202491521
 31
0.0
  0
LINE
  5
   27A
  8
0
  6
DASHDOT
 62
   130
 10
-352.324941573536
 20
-35.4945972671944
 30
0.0
 11
-352.324941573536
 21
-63.9947307560284
 31
0.0
  0
LINE
  5
   27B
  8
0
  6
DASHDOT
 62
   130
 10
-369.075008317953
 20
-49.7446640116114
 30
0.0
 11
-340.574874829118
 21
-49.7446640116114
 31
0.0
  0
LINE
  5
   27C
  8
0
  6
DASHDOT
 62
   130
 10
-339.824829823321
 20
-37.9447202491521
 30
0.0
 11
-339.824829823321
 21
-63.9447202491521
 31
0.0
  0
LINE
  5
   27D
  8
0
  6
DASHDOT
 62
   130
 10
-347.824829823321
 20
-50.9447202491521
 30
0.0
 11
-321.824829823321
 21
-50.9447202491521
 31
0.0
  0
LINE
  5
   27E
  8
0
  6
DASHDOT
 62
   130
 10
-352.324823478438
 20
64.7553115250719
 30
0.0
 11
-352.324823478438
 21
35.7553965104613
 31
0.0
  0
LINE
  5
   27F
  8
0
  6
DASHDOT
 62
   130
 10
-364.324780985743
 20
50.2553540177666
 30
0.0
 11
-335.324865971132
 21
50.2553540177666
 31
0.0
  0
INSERT
  5
   280
  8
255
  6
CONTINUOUS
 62
   130
  2
SSS
 10
-352.324823478438
 20
50.2553540177666
 30
0.0
 50
359.999999792138
  0
INSERT
  5
   281
  8
0
  6
CONTINUOUS
 62
   130
  2
SSS
 10
-377.324777664748
 20
-49.7446640116114
 30
0.0
 50
359.999999792138
  0
LINE
  5
   282
  8
0
  6
DASHDOT
 62
   130
 10
-413.365199841168
 20
-11.7446813583424
 30
0.0
 11
-313.827509549927
 21
-11.7446813583424
 31
0.0
  0
LINE
  5
   283
  8
0
  6
CONTINUOUS
 62
   130
 10
-371.324873801436
 20
-17.4643371027707
 30
0.0
 11
-358.324845436847
 21
-17.4643371027707
 31
0.0
  0
LINE
  5
   284
  8
0
  6
CONTINUOUS
 62
   130
 10
-370.824873572714
 20
-22.9601332595373
 30
0.0
 11
-358.824845665569
 21
-22.9601332595373
 31
0.0
  0
LINE
  5
   285
  8
0
  6
CONTINUOUS
 62
   130
 10
-370.824873480505
 20
-26.3773482799684
 30
0.0
 11
-358.824845757778
 21
-26.3773482799684
 31
0.0
  0
LINE
  5
   286
  8
0
  6
CONTINUOUS
 62
   130
 10
-358.324845771791
 20
-26.2446813583306
 30
0.0
 11
-325.824891967772
 21
-26.2446813583306
 31
0.0
  0
ARC
  5
   287
  8
0
  6
CONTINUOUS
 62
   130
 10
-370.824873480505
 20
-25.8773482799684
 30
0.0
 40
0.5
 50
540.000002029765
 51
629.999999844103
  0
ARC
  5
   288
  8
0
  6
CONTINUOUS
 62
   130
 10
-358.824845757778
 20
-25.8773482799684
 30
0.0
 40
0.5
 50
269.999999844103
 51
359.999997658442
  0
ARC
  5
   289
  8
0
  6
CONTINUOUS
 62
   130
 10
-358.824845665569
 20
-23.4601332595373
 30
0.0
 40
0.5
 50
359.999997658442
 51
449.999999844103
  0
ARC
  5
   28A
  8
0
  6
CONTINUOUS
 62
   130
 10
-370.824873572714
 20
-23.4601332595373
 30
0.0
 40
0.5
 50
449.999999844103
 51
540.000002029765
  0
CIRCLE
  5
   28B
  8
0
  6
CONTINUOUS
 62
   130
 10
-377.324777664748
 20
-49.7446640116114
 30
0.0
 40
4.4999575073053
  0
LINE
  5
   28C
  8
0
  6
CONTINUOUS
 62
   130
 10
-364.824862670897
 20
-34.2446813583306
 30
0.0
 11
-325.824893188475
 21
-34.2446813583306
 31
0.0
  0
LINE
  5
   28D
  8
0
  6
CONTINUOUS
 62
   130
 10
-364.824855804444
 20
10.7553186416576
 30
0.0
 11
-325.824886322021
 21
10.7553186416576
 31
0.0
  0
LINE
  5
   28E
  8
0
  6
DASHDOT
 62
   130
 10
-414.564140205843
 20
-11.7446813583424
 30
0.0
 11
-311.827509549927
 21
-11.7446813583424
 31
0.0
  0
LINE
  5
   28F
  8
0
  6
CONTINUOUS
 62
   130
 10
-378.593566894531
 20
0.611465482835381
 30
0.0
 11
-377.843566894531
 21
0.611465482835381
 31
0.0
  0
LINE
  5
   290
  8
0
  6
CONTINUOUS
 62
   130
 10
-378.593566894531
 20
-3.88853451716462
 30
0.0
 11
-377.843566894531
 21
-3.88853451716462
 31
0.0
  0
CIRCLE
  5
   291
  8
0
  6
CONTINUOUS
 62
   130
 10
-378.218566894531
 20
-18.3885345171646
 30
0.0
 40
2.25
  0
CIRCLE
  5
   292
  8
0
  6
CONTINUOUS
 62
   130
 10
-378.218566894531
 20
-18.3885345171646
 30
0.0
 40
1.5
  0
LINE
  5
   293
  8
0
  6
CONTINUOUS
 62
   130
 10
-378.593566894531
 20
0.611465482835381
 30
0.0
 11
-378.593566894531
 21
-3.88853451716462
 31
0.0
  0
LINE
  5
   294
  8
0
  6
CONTINUOUS
 62
   130
 10
-377.843566894531
 20
0.611465482835381
 30
0.0
 11
-377.843566894531
 21
-3.88853451716462
 31
0.0
  0
LINE
  5
   295
  8
0
  6
CONTINUOUS
 62
   130
 10
-350.043571777344
 20
-16.4635345171646
 30
0.0
 11
-349.818571777344
 21
-16.4635345171646
 31
0.0
  0
LINE
  5
   296
  8
0
  6
CONTINUOUS
 62
   130
 10
-350.693571777344
 20
-20.3135345171646
 30
0.0
 11
-350.293571777344
 21
-20.3135345171646
 31
0.0
  0
LINE
  5
   297
  8
0
  6
CONTINUOUS
 62
   130
 10
-351.293571777344
 20
-18.7635345171646
 30
0.0
 11
-351.293571777344
 21
-19.0135345171646
 31
0.0
  0
ARC
  5
   298
  8
0
  6
CONTINUOUS
 62
   130
 10
-352.593571777344
 20
-18.7635345171646
 30
0.0
 40
1.3
 50
359.999999844103
 51
539.999999844103
  0
ARC
  5
   299
  8
0
  6
CONTINUOUS
 62
   130
 10
-352.593571777344
 20
-19.0135345171646
 30
0.0
 40
1.3
 50
539.999999844103
 51
719.999999844103
  0
ARC
  5
   29A
  8
0
  6
CONTINUOUS
 62
   130
 10
-352.593571777344
 20
-18.7635345171646
 30
0.0
 40
0.900000000000001
 50
359.999999844103
 51
539.999999844103
  0
ARC
  5
   29B
  8
0
  6
CONTINUOUS
 62
   130
 10
-352.593571777344
 20
-19.0135345171646
 30
0.0
 40
0.899999999999999
 50
539.999999844103
 51
719.999999844103
  0
LINE
  5
   29C
  8
0
  6
CONTINUOUS
 62
   130
 10
-351.693571777344
 20
-18.7635345171646
 30
0.0
 11
-351.693571777344
 21
-19.0135345171646
 31
0.0
  0
LINE
  5
   29D
  8
0
  6
CONTINUOUS
 62
   130
 10
-351.168571777344
 20
-17.6635345171646
 30
0.0
 11
-351.168571777344
 21
-18.0635345171646
 31
0.0
  0
LINE
  5
   29E
  8
0
  6
CONTINUOUS
 62
   130
 10
-351.168571777344
 20
-18.0635345171646
 30
0.0
 11
-350.693571777344
 21
-18.0635345171646
 31
0.0
  0
LINE
  5
   29F
  8
0
  6
CONTINUOUS
 62
   130
 10
-349.818571777344
 20
-17.6635345171646
 30
0.0
 11
-349.818571777344
 21
-18.0635345171646
 31
0.0
  0
LINE
  5
   2A0
  8
0
  6
CONTINUOUS
 62
   130
 10
-351.168571777344
 20
-17.6635345171646
 30
0.0
 11
-350.693571777344
 21
-17.6635345171646
 31
0.0
  0
LINE
  5
   2A1
  8
0
  6
CONTINUOUS
 62
   130
 10
-350.693571777344
 20
-18.0635345171646
 30
0.0
 11
-350.693571777344
 21
-20.3135345171646
 31
0.0
  0
LINE
  5
   2A2
  8
0
  6
CONTINUOUS
 62
   130
 10
-350.293571777344
 20
-18.0635345171646
 30
0.0
 11
-350.293571777344
 21
-20.3135345171646
 31
0.0
  0
LINE
  5
   2A3
  8
0
  6
CONTINUOUS
 62
   130
 10
-350.293571777344
 20
-18.0635345171646
 30
0.0
 11
-349.818571777344
 21
-18.0635345171646
 31
0.0
  0
LINE
  5
   2A4
  8
0
  6
CONTINUOUS
 62
   130
 10
-350.293571777344
 20
-17.6635345171646
 30
0.0
 11
-349.818571777344
 21
-17.6635345171646
 31
0.0
  0
LINE
  5
   2A5
  8
0
  6
CONTINUOUS
 62
   130
 10
-350.693571777344
 20
-17.1135345171646
 30
0.0
 11
-350.693571777344
 21
-17.6635345171646
 31
0.0
  0
LINE
  5
   2A6
  8
0
  6
CONTINUOUS
 62
   130
 10
-350.293571777344
 20
-17.1135345171646
 30
0.0
 11
-350.293571777344
 21
-17.6635345171646
 31
0.0
  0
ARC
  5
   2A7
  8
0
  6
CONTINUOUS
 62
   130
 10
-350.043571777344
 20
-17.1135345171646
 30
0.0
 40
0.65
 50
449.999999844103
 51
539.999999844103
  0
ARC
  5
   2A8
  8
0
  6
CONTINUOUS
 62
   130
 10
-350.043571777344
 20
-17.1135345171646
 30
0.0
 40
0.25
 50
449.999999844103
 51
539.999999844103
  0
LINE
  5
   2A9
  8
0
  6
CONTINUOUS
 62
   130
 10
-349.818571777344
 20
-16.4635345171646
 30
0.0
 11
-349.818571777344
 21
-16.8635345171646
 31
0.0
  0
LINE
  5
   2AA
  8
0
  6
CONTINUOUS
 62
   130
 10
-350.043571777344
 20
-16.8635345171646
 30
0.0
 11
-349.818571777344
 21
-16.8635345171646
 31
0.0
  0
LINE
  5
   2AB
  8
0
  6
CONTINUOUS
 62
   130
 10
-349.093571777344
 20
-20.3135345171646
 30
0.0
 11
-348.693571777344
 21
-20.3135345171646
 31
0.0
  0
LINE
  5
   2AC
  8
0
  6
CONTINUOUS
 62
   130
 10
-349.568571777344
 20
-17.6635345171646
 30
0.0
 11
-349.568571777344
 21
-18.0635345171646
 31
0.0
  0
LINE
  5
   2AD
  8
0
  6
CONTINUOUS
 62
   130
 10
-349.568571777344
 20
-18.0635345171646
 30
0.0
 11
-349.093571777344
 21
-18.0635345171646
 31
0.0
  0
LINE
  5
   2AE
  8
0
  6
CONTINUOUS
 62
   130
 10
-348.218571777344
 20
-17.6635345171646
 30
0.0
 11
-348.218571777344
 21
-18.0635345171646
 31
0.0
  0
LINE
  5
   2AF
  8
0
  6
CONTINUOUS
 62
   130
 10
-349.568571777344
 20
-17.6635345171646
 30
0.0
 11
-349.093571777344
 21
-17.6635345171646
 31
0.0
  0
LINE
  5
   2B0
  8
0
  6
CONTINUOUS
 62
   130
 10
-349.093571777344
 20
-18.0635345171646
 30
0.0
 11
-349.093571777344
 21
-20.3135345171646
 31
0.0
  0
LINE
  5
   2B1
  8
0
  6
CONTINUOUS
 62
   130
 10
-348.693571777344
 20
-18.0635345171646
 30
0.0
 11
-348.693571777344
 21
-20.3135345171646
 31
0.0
  0
LINE
  5
   2B2
  8
0
  6
CONTINUOUS
 62
   130
 10
-348.693571777344
 20
-18.0635345171646
 30
0.0
 11
-348.218571777344
 21
-18.0635345171646
 31
0.0
  0
LINE
  5
   2B3
  8
0
  6
CONTINUOUS
 62
   130
 10
-348.693571777344
 20
-17.6635345171646
 30
0.0
 11
-348.218571777344
 21
-17.6635345171646
 31
0.0
  0
LINE
  5
   2B4
  8
0
  6
CONTINUOUS
 62
   130
 10
-349.093571777344
 20
-17.1135345171646
 30
0.0
 11
-349.093571777344
 21
-17.6635345171646
 31
0.0
  0
LINE
  5
   2B5
  8
0
  6
CONTINUOUS
 62
   130
 10
-348.693571777344
 20
-17.1135345171646
 30
0.0
 11
-348.693571777344
 21
-17.6635345171646
 31
0.0
  0
ARC
  5
   2B6
  8
0
  6
CONTINUOUS
 62
   130
 10
-348.443571777344
 20
-17.1135345171646
 30
0.0
 40
0.65
 50
449.999999844103
 51
539.999999844103
  0
ARC
  5
   2B7
  8
0
  6
CONTINUOUS
 62
   130
 10
-348.443571777344
 20
-17.1135345171646
 30
0.0
 40
0.25
 50
449.999999844103
 51
539.999999844103
  0
LINE
  5
   2B8
  8
0
  6
CONTINUOUS
 62
   130
 10
-348.218571777344
 20
-16.4635345171646
 30
0.0
 11
-348.218571777344
 21
-16.8635345171646
 31
0.0
  0
LINE
  5
   2B9
  8
0
  6
CONTINUOUS
 62
   130
 10
-350.893571777344
 20
-3.06353451716462
 30
0.0
 11
-350.493571777344
 21
-3.06353451716462
 31
0.0
  0
ARC
  5
   2BA
  8
0
  6
CONTINUOUS
 62
   130
 10
-352.593571777344
 20
-1.51353451716462
 30
0.0
 40
1.3
 50
359.999999844103
 51
539.999999844103
  0
ARC
  5
   2BB
  8
0
  6
CONTINUOUS
 62
   130
 10
-352.593571777344
 20
-1.51353451716462
 30
0.0
 40
0.900000000000001
 50
359.999999844103
 51
539.999999844103
  0
ARC
  5
   2BC
  8
0
  6
CONTINUOUS
 62
   130
 10
-352.593571777344
 20
-1.76353451716462
 30
0.0
 40
1.3
 50
539.999999844103
 51
719.999999844103
  0
ARC
  5
   2BD
  8
0
  6
CONTINUOUS
 62
   130
 10
-352.593571777344
 20
-1.76353451716462
 30
0.0
 40
0.899999999999999
 50
539.999999844103
 51
719.999999844103
  0
LINE
  5
   2BE
  8
0
  6
CONTINUOUS
 62
   130
 10
-350.893571777344
 20
-0.213534517164595
 30
0.0
 11
-350.893571777344
 21
-3.06353451716459
 31
0.0
  0
LINE
  5
   2BF
  8
0
  6
CONTINUOUS
 62
   130
 10
-350.493571777344
 20
-1.3135345171646
 30
0.0
 11
-350.493571777344
 21
-3.06353451716459
 31
0.0
  0
LINE
  5
   2C0
  8
0
  6
CONTINUOUS
 62
   130
 10
-349.093571777344
 20
-1.3135345171646
 30
0.0
 11
-349.093571777344
 21
-3.06353451716459
 31
0.0
  0
LINE
  5
   2C1
  8
0
  6
CONTINUOUS
 62
   130
 10
-348.693571777344
 20
-1.2135345171646
 30
0.0
 11
-348.693571777344
 21
-3.06353451716459
 31
0.0
  0
LINE
  5
   2C2
  8
0
  6
CONTINUOUS
 62
   130
 10
-350.893571777344
 20
-0.213534517164618
 30
0.0
 11
-350.493571777344
 21
-0.213534517164618
 31
0.0
  0
ARC
  5
   2C3
  8
0
  6
CONTINUOUS
 62
   130
 10
-349.793571777344
 20
-1.31353451716463
 30
0.0
 40
0.699999999999999
 50
359.999999844103
 51
539.999999844103
  0
LINE
  5
   2C4
  8
0
  6
CONTINUOUS
 62
   130
 10
-350.493571777344
 20
-0.213534517164595
 30
0.0
 11
-350.493571777344
 21
-0.613534517164586
 31
0.0
  0
ARC
  5
   2C5
  8
0
  6
CONTINUOUS
 62
   130
 10
-349.693571777344
 20
-1.21353451716463
 30
0.0
 40
1.0
 50
359.999999844103
 51
503.130102198259
  0
LINE
  5
   2C6
  8
0
  6
CONTINUOUS
 62
   130
 10
-349.093571777344
 20
-3.06353451716462
 30
0.0
 11
-348.693571777344
 21
-3.06353451716462
 31
0.0
  0
LINE
  5
   2C7
  8
0
  6
CONTINUOUS
 62
   130
 10
-350.425246983246
 20
9.41442791455051
 30
0.0
 11
-350.659278677292
 21
9.37316243124432
 31
0.0
  0
LINE
  5
   2C8
  8
0
  6
CONTINUOUS
 62
   130
 10
-350.659264222403
 20
9.37317028684226
 30
0.0
 11
-350.865067122718
 21
9.25435154366922
 31
0.0
  0
LINE
  5
   2C9
  8
0
  6
CONTINUOUS
 62
   130
 10
-350.865075588421
 20
9.25434286772791
 30
0.0
 11
-351.017823713414
 21
9.07230215652593
 31
0.0
  0
LINE
  5
   2CA
  8
0
  6
CONTINUOUS
 62
   130
 10
-351.01782086264
 20
9.07230327098702
 30
0.0
 11
-351.099096798124
 21
8.84899709674495
 31
0.0
  0
LINE
  5
   2CB
  8
0
  6
CONTINUOUS
 62
   130
 10
-351.099104064202
 20
8.84899750301005
 30
0.0
 11
-351.099104064202
 21
8.61135998317363
 31
0.0
  0
LINE
  5
   2CC
  8
0
  6
CONTINUOUS
 62
   130
 10
-351.099097460404
 20
8.61136240449387
 30
0.0
 11
-351.01782152492
 21
8.38805623025179
 31
0.0
  0
LINE
  5
   2CD
  8
0
  6
CONTINUOUS
 62
   130
 10
-351.017825084836
 20
8.3880552770984
 30
0.0
 11
-350.865076959843
 21
8.2060145658964
 31
0.0
  0
LINE
  5
   2CE
  8
0
  6
CONTINUOUS
 62
   130
 10
-350.865063787244
 20
8.20600996550939
 30
0.0
 11
-350.659260886929
 21
8.08719122233636
 31
0.0
  0
LINE
  5
   2CF
  8
0
  6
CONTINUOUS
 62
   130
 10
-350.659277050624
 20
8.08719414995092
 30
0.0
 11
-350.425245356578
 21
8.04592866664473
 31
0.0
  0
LINE
  5
   2D0
  8
0
  6
CONTINUOUS
 62
   130
 10
-350.425245421623
 20
8.04592886516215
 30
0.0
 11
-350.195821898674
 21
8.04592886516215
 31
0.0
  0
LINE
  5
   2D1
  8
0
  6
CONTINUOUS
 62
   130
 10
-350.195809691829
 20
8.04593373148859
 30
0.0
 11
-350.108277663343
 21
8.01749135387595
 31
0.0
  0
LINE
  5
   2D2
  8
0
  6
CONTINUOUS
 62
   130
 10
-350.108278628587
 20
8.01749112452882
 30
0.0
 11
-350.054178601196
 21
7.94302872018518
 31
0.0
  0
LINE
  5
   2D3
  8
0
  6
CONTINUOUS
 62
   130
 10
-350.054189818596
 20
7.94302406856181
 30
0.0
 11
-350.054189818596
 21
7.85098352977397
 31
0.0
  0
LINE
  5
   2D4
  8
0
  6
CONTINUOUS
 62
   130
 10
-350.054182599758
 20
7.85098681119291
 30
0.0
 11
-350.108282627149
 21
7.77652440684928
 31
0.0
  0
LINE
  5
   2D5
  8
0
  6
CONTINUOUS
 62
   130
 10
-350.108280125846
 20
7.77652440895234
 30
0.0
 11
-350.195812154332
 21
7.7480820313397
 31
0.0
  0
LINE
  5
   2D6
  8
0
  6
CONTINUOUS
 62
   130
 10
-351.028997557854
 20
7.74807873317363
 30
0.0
 11
-350.195821898674
 21
7.74807873317363
 31
0.0
  0
LINE
  5
   2D7
  8
0
  6
CONTINUOUS
 62
   130
 10
-351.028997557854
 20
7.74807873317363
 30
0.0
 11
-351.028997557854
 21
7.2006792122996
 31
0.0
  0
LINE
  5
   2D8
  8
0
  6
CONTINUOUS
 62
   130
 10
-351.028997557854
 20
7.2006792122996
 30
0.0
 11
-350.195821898674
 21
7.2006792122996
 31
0.0
  0
LINE
  5
   2D9
  8
0
  6
CONTINUOUS
 62
   130
 10
-349.95766512544
 20
7.24267357376466
 30
0.0
 11
-350.195816662177
 21
7.20068043677946
 31
0.0
  0
LINE
  5
   2DA
  8
0
  6
CONTINUOUS
 62
   130
 10
-349.748232667598
 20
7.36359051466845
 30
0.0
 11
-349.957667206509
 21
7.24267460618638
 31
0.0
  0
LINE
  5
   2DB
  8
0
  6
CONTINUOUS
 62
   130
 10
-349.592775180929
 20
7.54884500033238
 30
0.0
 11
-349.748224093716
 21
7.36359186951116
 31
0.0
  0
LINE
  5
   2DC
  8
0
  6
CONTINUOUS
 62
   130
 10
-349.510072486973
 20
7.7760856819518
 30
0.0
 11
-349.59278275634
 21
7.54883888901507
 31
0.0
  0
LINE
  5
   2DD
  8
0
  6
CONTINUOUS
 62
   130
 10
-349.510076659416
 20
8.0179194504893
 30
0.0
 11
-349.510076659416
 21
7.77608814784648
 31
0.0
  0
LINE
  5
   2DE
  8
0
  6
CONTINUOUS
 62
   130
 10
-349.592782946127
 20
8.24516765506246
 30
0.0
 11
-349.51007267676
 21
8.01792086212574
 31
0.0
  0
LINE
  5
   2DF
  8
0
  6
CONTINUOUS
 62
   130
 10
-349.748229225201
 20
8.43042571808078
 30
0.0
 11
-349.59278030199
 21
8.24517208377214
 31
0.0
  0
LINE
  5
   2E0
  8
0
  6
CONTINUOUS
 62
   130
 10
-349.957671548551
 20
8.5513362091304
 30
0.0
 11
-349.748237019003
 21
8.43042078292276
 31
0.0
  0
LINE
  5
   2E1
  8
0
  6
CONTINUOUS
 62
   130
 10
-350.195809614827
 20
8.5933274583778
 30
0.0
 11
-349.957658081521
 21
8.55133384550233
 31
0.0
  0
LINE
  5
   2E2
  8
0
  6
CONTINUOUS
 62
   130
 10
-350.425245421623
 20
8.59332886287334
 30
0.0
 11
-350.195821898674
 21
8.59332886287334
 31
0.0
  0
LINE
  5
   2E3
  8
0
  6
CONTINUOUS
 62
   130
 10
-350.505681325589
 20
8.61946714461325
 30
0.0
 11
-350.425236990816
 21
8.59333122418168
 31
0.0
  0
LINE
  5
   2E4
  8
0
  6
CONTINUOUS
 62
   130
 10
-350.555399952719
 20
8.68788857895388
 30
0.0
 11
-350.505686817927
 21
8.61946339799228
 31
0.0
  0
LINE
  5
   2E5
  8
0
  6
CONTINUOUS
 62
   130
 10
-350.555402892327
 20
8.77246752330424
 30
0.0
 11
-350.555402892327
 21
8.68788996287944
 31
0.0
  0
LINE
  5
   2E6
  8
0
  6
CONTINUOUS
 62
   130
 10
-350.50567943399
 20
8.8408903958106
 30
0.0
 11
-350.555392568782
 21
8.77246521484901
 31
0.0
  0
LINE
  5
   2E7
  8
0
  6
CONTINUOUS
 62
   130
 10
-350.425233885522
 20
8.8670323624001
 30
0.0
 11
-350.505678220295
 21
8.84089644196852
 31
0.0
  0
LINE
  5
   2E8
  8
0
  6
CONTINUOUS
 62
   130
 10
-350.425245421623
 20
8.86702862331035
 30
0.0
 11
-349.580000060295
 21
8.86702862331035
 31
0.0
  0
LINE
  5
   2E9
  8
0
  6
CONTINUOUS
 62
   130
 10
-349.580000060295
 20
9.41442862102153
 30
0.0
 11
-349.580000060295
 21
8.86702862331035
 31
0.0
  0
LINE
  5
   2EA
  8
0
  6
CONTINUOUS
 62
   130
 10
-350.425245421623
 20
9.41442862102153
 30
0.0
 11
-349.580000060295
 21
9.41442862102153
 31
0.0
  0
LINE
  5
   2EB
  8
0
  6
CONTINUOUS
 62
   130
 10
-349.499502318596
 20
7.2006792122996
 30
0.0
 11
-348.929403441643
 21
7.2006792122996
 31
0.0
  0
LINE
  5
   2EC
  8
0
  6
CONTINUOUS
 62
   130
 10
-348.800598061756
 20
7.64343029212685
 30
0.0
 11
-348.929397496305
 21
7.20068079639564
 31
0.0
  0
LINE
  5
   2ED
  8
0
  6
CONTINUOUS
 62
   130
 10
-348.800604003166
 20
7.64342871257426
 30
0.0
 11
-348.185888426995
 21
7.64342871257426
 31
0.0
  0
LINE
  5
   2EE
  8
0
  6
CONTINUOUS
 62
   130
 10
-348.185883712609
 20
7.64342989295901
 30
0.0
 11
-348.057084278061
 21
7.20068039722777
 31
0.0
  0
LINE
  5
   2EF
  8
0
  6
CONTINUOUS
 62
   130
 10
-348.057088988518
 20
7.2006792122996
 30
0.0
 11
-347.486997740959
 21
7.2006792122996
 31
0.0
  0
LINE
  5
   2F0
  8
0
  6
CONTINUOUS
 62
   130
 10
-348.130997124901
 20
9.41442895934737
 30
0.0
 11
-347.486992134181
 21
7.20067898980888
 31
0.0
  0
LINE
  5
   2F1
  8
0
  6
CONTINUOUS
 62
   130
 10
-348.855497496819
 20
9.41442862102153
 30
0.0
 11
-348.131002562737
 21
9.41442862102153
 31
0.0
  0
LINE
  5
   2F2
  8
0
  6
CONTINUOUS
 62
   130
 10
-348.855494430172
 20
9.41442018801443
 30
0.0
 11
-349.499499420892
 21
7.20067021847596
 31
0.0
  0
LINE
  5
   2F3
  8
0
  6
CONTINUOUS
 62
   130
 10
-348.493241833134
 20
8.69997094794337
 30
0.0
 11
-348.345132321649
 21
8.19082877665987
 31
0.0
  0
LINE
  5
   2F4
  8
0
  6
CONTINUOUS
 62
   130
 10
-348.64136328051
 20
8.19082871028544
 30
0.0
 11
-348.345136779045
 21
8.19082871028544
 31
0.0
  0
LINE
  5
   2F5
  8
0
  6
CONTINUOUS
 62
   130
 10
-348.493237292419
 20
8.69997144641511
 30
0.0
 11
-348.641354346734
 21
8.19082955529163
 31
0.0
  0
LINE
  5
   2F6
  8
0
  6
CONTINUOUS
 62
   130
 10
-345.61962735472
 20
9.1118128514516
 30
0.0
 11
-345.423841839157
 21
8.86497951842928
 31
0.0
  0
LINE
  5
   2F7
  8
0
  6
CONTINUOUS
 62
   130
 10
-345.877009510993
 20
9.29348634014635
 30
0.0
 11
-345.619624272963
 21
9.11180853575608
 31
0.0
  0
LINE
  5
   2F8
  8
0
  6
CONTINUOUS
 62
   130
 10
-346.175162298449
 20
9.39528563626019
 30
0.0
 11
-345.877013192111
 21
9.29348234385141
 31
0.0
  0
LINE
  5
   2F9
  8
0
  6
CONTINUOUS
 62
   130
 10
-346.4899123244
 20
9.40896891221314
 30
0.0
 11
-346.175161644614
 21
9.39528702324059
 31
0.0
  0
LINE
  5
   2FA
  8
0
  6
CONTINUOUS
 62
   130
 10
-346.489917914891
 20
9.40896948675713
 30
0.0
 11
-346.795780341405
 21
9.33342131881226
 31
0.0
  0
LINE
  5
   2FB
  8
0
  6
CONTINUOUS
 62
   130
 10
-346.795775543894
 20
9.3334248564568
 30
0.0
 11
-347.067954177767
 21
9.17476683095968
 31
0.0
  0
LINE
  5
   2FC
  8
0
  6
CONTINUOUS
 62
   130
 10
-347.06795842352
 20
9.17476201713234
 30
0.0
 11
-347.284419602871
 21
8.94584775842952
 31
0.0
  0
LINE
  5
   2FD
  8
0
  6
CONTINUOUS
 62
   130
 10
-347.284414343558
 20
8.94585225391141
 30
0.0
 11
-347.427610433147
 21
8.66522739189375
 31
0.0
  0
LINE
  5
   2FE
  8
0
  6
CONTINUOUS
 62
   130
 10
-347.427612926486
 20
8.66522275226373
 30
0.0
 11
-347.485947277051
 21
8.35562143734249
 31
0.0
  0
LINE
  5
   2FF
  8
0
  6
CONTINUOUS
 62
   130
 10
-347.485946655208
 20
8.35562332530409
 30
0.0
 11
-347.454696670161
 21
8.04212769369549
 31
0.0
  0
LINE
  5
   300
  8
0
  6
CONTINUOUS
 62
   130
 10
-347.454699098322
 20
8.04212842952301
 30
0.0
 11
-347.33639009186
 21
7.75013625712687
 31
0.0
  0
LINE
  5
   301
  8
0
  6
CONTINUOUS
 62
   130
 10
-347.336389508843
 20
7.75013879940046
 30
0.0
 11
-347.160356483297
 21
7.5224418944094
 31
0.0
  0
LINE
  5
   302
  8
0
  6
CONTINUOUS
 62
   130
 10
-347.160353463687
 20
7.52243667570522
 30
0.0
 11
-346.931563182156
 21
7.34782224073877
 31
0.0
  0
LINE
  5
   303
  8
0
  6
CONTINUOUS
 62
   130
 10
-346.93156784873
 20
7.34782476912099
 30
0.0
 11
-346.665492719352
 21
7.23809881911248
 31
0.0
  0
LINE
  5
   304
  8
0
  6
CONTINUOUS
 62
   130
 10
-346.665489877355
 20
7.23809748850539
 30
0.0
 11
-346.380120010181
 21
7.20067912458585
 31
0.0
  0
LINE
  5
   305
  8
0
  6
CONTINUOUS
 62
   130
 10
-346.094746029958
 20
7.23809855786849
 30
0.0
 11
-346.380115897132
 21
7.20068019394896
 31
0.0
  0
LINE
  5
   306
  8
0
  6
CONTINUOUS
 62
   130
 10
-345.828679976651
 20
7.34782360289284
 30
0.0
 11
-346.094755106029
 21
7.23809765288433
 31
0.0
  0
LINE
  5
   307
  8
0
  6
CONTINUOUS
 62
   130
 10
-345.599882026493
 20
7.5224438020549
 30
0.0
 11
-345.828672308024
 21
7.34782936708844
 31
0.0
  0
LINE
  5
   308
  8
0
  6
CONTINUOUS
 62
   130
 10
-345.42384326686
 20
7.75013551033533
 30
0.0
 11
-345.599883914394
 21
7.52243862061581
 31
0.0
  0
LINE
  5
   309
  8
0
  6
CONTINUOUS
 62
   130
 10
-345.896764954704
 20
8.02580624755329
 30
0.0
 11
-345.423841727748
 21
7.75013718741764
 31
0.0
  0
LINE
  5
   30A
  8
0
  6
CONTINUOUS
 62
   130
 10
-345.896773472604
 20
8.02580079589361
 30
0.0
 11
-346.021689557492
 21
7.87797268164352
 31
0.0
  0
LINE
  5
   30B
  8
0
  6
CONTINUOUS
 62
   130
 10
-346.021687207214
 20
7.87797671935473
 30
0.0
 11
-346.189503401849
 21
7.78155545967782
 31
0.0
  0
LINE
  5
   30C
  8
0
  6
CONTINUOUS
 62
   130
 10
-346.189498813549
 20
7.78155472892202
 30
0.0
 11
-346.380119259571
 21
7.74807885377474
 31
0.0
  0
LINE
  5
   30D
  8
0
  6
CONTINUOUS
 62
   130
 10
-346.57074919701
 20
7.78155494310909
 30
0.0
 11
-346.380128750989
 21
7.74807906796181
 31
0.0
  0
LINE
  5
   30E
  8
0
  6
CONTINUOUS
 62
   130
 10
-346.73856180882
 20
7.87797803619574
 30
0.0
 11
-346.570745614185
 21
7.78155677651881
 31
0.0
  0
LINE
  5
   30F
  8
0
  6
CONTINUOUS
 62
   130
 10
-346.863477255301
 20
8.02580708998197
 30
0.0
 11
-346.738561170413
 21
7.87797897573187
 31
0.0
  0
LINE
  5
   310
  8
0
  6
CONTINUOUS
 62
   130
 10
-346.934500564091
 20
8.23222342839416
 30
0.0
 11
-346.863470901111
 21
8.02580586136509
 31
0.0
  0
LINE
  5
   311
  8
0
  6
CONTINUOUS
 62
   130
 10
-346.921123920681
 20
8.45010564693874
 30
0.0
 11
-346.934498250857
 21
8.23221917654742
 31
0.0
  0
LINE
  5
   312
  8
0
  6
CONTINUOUS
 62
   130
 10
-346.825390587114
 20
8.64629377541406
 30
0.0
 11
-346.9211242344
 21
8.45011008427697
 31
0.0
  0
LINE
  5
   313
  8
0
  6
CONTINUOUS
 62
   130
 10
-346.66186951843
 20
8.79090813764319
 30
0.0
 11
-346.825397973659
 21
8.64629389622491
 31
0.0
  0
LINE
  5
   314
  8
0
  6
CONTINUOUS
 62
   130
 10
-346.45545469243
 20
8.86193471004191
 30
0.0
 11
-346.661867961462
 21
8.79090696113985
 31
0.0
  0
LINE
  5
   315
  8
0
  6
CONTINUOUS
 62
   130
 10
-346.45545830309
 20
8.8619326675689
 30
0.0
 11
-346.237570357924
 21
8.84856167351088
 31
0.0
  0
LINE
  5
   316
  8
0
  6
CONTINUOUS
 62
   130
 10
-346.237564363539
 20
8.84855982585811
 30
0.0
 11
-346.041382088153
 21
8.7528247389092
 31
0.0
  0
LINE
  5
   317
  8
0
  6
CONTINUOUS
 62
   130
 10
-346.041379462402
 20
8.7528363947106
 30
0.0
 11
-345.896764278026
 21
8.58931271582368
 31
0.0
  0
LINE
  5
   318
  8
0
  6
CONTINUOUS
 62
   130
 10
-345.423838189748
 20
8.86497965328969
 30
0.0
 11
-345.896761416705
 21
8.58931059315404
 31
0.0
  0
LINE
  5
   319
  8
0
  6
CONTINUOUS
 62
   130
 10
-345.222601073479
 20
9.41442814418437
 30
0.0
 11
-345.222601073479
 21
7.2006792122996
 31
0.0
  0
LINE
  5
   31A
  8
0
  6
CONTINUOUS
 62
   130
 10
-345.222601073479
 20
7.2006792122996
 30
0.0
 11
-343.77360357592
 21
7.2006792122996
 31
0.0
  0
LINE
  5
   31B
  8
0
  6
CONTINUOUS
 62
   130
 10
-343.77360357592
 20
7.74807873317363
 30
0.0
 11
-343.77360357592
 21
7.2006792122996
 31
0.0
  0
LINE
  5
   31C
  8
0
  6
CONTINUOUS
 62
   130
 10
-344.675199645256
 20
7.74807873317363
 30
0.0
 11
-343.77360357592
 21
7.74807873317363
 31
0.0
  0
LINE
  5
   31D
  8
0
  6
CONTINUOUS
 62
   130
 10
-344.675199645256
 20
8.03385391780498
 30
0.0
 11
-344.675199645256
 21
7.74807873317363
 31
0.0
  0
LINE
  5
   31E
  8
0
  6
CONTINUOUS
 62
   130
 10
-344.675199645256
 20
8.03385391780498
 30
0.0
 11
-343.894354003166
 21
8.03385391780498
 31
0.0
  0
LINE
  5
   31F
  8
0
  6
CONTINUOUS
 62
   130
 10
-343.894354003166
 20
8.58125391551616
 30
0.0
 11
-343.894354003166
 21
8.03385391780498
 31
0.0
  0
LINE
  5
   320
  8
0
  6
CONTINUOUS
 62
   130
 10
-344.675199645256
 20
8.58125391551616
 30
0.0
 11
-343.894354003166
 21
8.58125391551616
 31
0.0
  0
LINE
  5
   321
  8
0
  6
CONTINUOUS
 62
   130
 10
-344.675199645256
 20
8.86702859350802
 30
0.0
 11
-344.675199645256
 21
8.58125391551616
 31
0.0
  0
LINE
  5
   322
  8
0
  6
CONTINUOUS
 62
   130
 10
-344.675199645256
 20
8.86702862331035
 30
0.0
 11
-343.77360357592
 21
8.86702862331035
 31
0.0
  0
LINE
  5
   323
  8
0
  6
CONTINUOUS
 62
   130
 10
-343.77360357592
 20
9.41442862102153
 30
0.0
 11
-343.77360357592
 21
8.86702862331035
 31
0.0
  0
LINE
  5
   324
  8
0
  6
CONTINUOUS
 62
   130
 10
-345.222601073479
 20
9.41442862102153
 30
0.0
 11
-343.77360357592
 21
9.41442862102153
 31
0.0
  0
LINE
  5
   325
  8
0
  6
CONTINUOUS
 62
   130
 10
-400.131301897193
 20
9.61920470294313
 30
0.0
 11
-400.58515920991
 21
8.32245206952118
 31
0.0
  0
LINE
  5
   326
  8
0
  6
CONTINUOUS
 62
   130
 10
-400.585166931152
 20
8.32245589792728
 30
0.0
 11
-399.765556335449
 21
8.32245589792728
 31
0.0
  0
LINE
  5
   327
  8
0
  6
CONTINUOUS
 62
   130
 10
-400.131309509277
 20
9.61920882761478
 30
0.0
 11
-399.765556335449
 21
9.61920882761478
 31
0.0
  0
LINE
  5
   328
  8
0
  6
CONTINUOUS
 62
   130
 10
-401.062309265137
 20
6.95921231806278
 30
0.0
 11
-400.397308349609
 21
6.95921231806278
 31
0.0
  0
LINE
  5
   329
  8
0
  6
CONTINUOUS
 62
   130
 10
-400.211099739503
 20
7.49121042868241
 30
0.0
 11
-400.397302735163
 21
6.95921081574321
 31
0.0
  0
LINE
  5
   32A
  8
0
  6
CONTINUOUS
 62
   130
 10
-400.21110534668
 20
7.49121190607548
 30
0.0
 11
-399.765556335449
 21
7.49121190607548
 31
0.0
  0
LINE
  5
   32B
  8
0
  6
CONTINUOUS
 62
   130
 10
-400.608444213867
 20
8.25595809519291
 30
0.0
 11
-399.765556335449
 21
8.25595809519291
 31
0.0
  0
LINE
  5
   32C
  8
0
  6
CONTINUOUS
 62
   130
 10
-400.608438907165
 20
8.25595539759966
 30
0.0
 11
-401.062303822806
 21
6.95920989011604
 31
0.0
  0
LINE
  5
   32D
  8
0
  6
CONTINUOUS
 62
   130
 10
-398.856156438179
 20
8.25595521887789
 30
0.0
 11
-398.402291522538
 21
6.95920971139427
 31
0.0
  0
LINE
  5
   32E
  8
0
  6
CONTINUOUS
 62
   130
 10
-399.699058532715
 20
8.25595809519291
 30
0.0
 11
-398.856170654297
 21
8.25595809519291
 31
0.0
  0
LINE
  5
   32F
  8
0
  6
CONTINUOUS
 62
   130
 10
-399.699058532715
 20
8.25595809519291
 30
0.0
 11
-399.699058532715
 21
7.49121190607548
 31
0.0
  0
LINE
  5
   330
  8
0
  6
CONTINUOUS
 62
   130
 10
-399.699058532715
 20
7.49121190607548
 30
0.0
 11
-399.253509521484
 21
7.49121190607548
 31
0.0
  0
LINE
  5
   331
  8
0
  6
CONTINUOUS
 62
   130
 10
-399.253497938509
 20
7.49121274594344
 30
0.0
 11
-399.067294942849
 21
6.95921313300422
 31
0.0
  0
LINE
  5
   332
  8
0
  6
CONTINUOUS
 62
   130
 10
-399.067306518555
 20
6.95921231806278
 30
0.0
 11
-398.402305603027
 21
6.95921231806278
 31
0.0
  0
LINE
  5
   333
  8
0
  6
CONTINUOUS
 62
   130
 10
-399.699058532715
 20
9.61920882761478
 30
0.0
 11
-399.333305358887
 21
9.61920882761478
 31
0.0
  0
LINE
  5
   334
  8
0
  6
CONTINUOUS
 62
   130
 10
-399.699058532715
 20
9.61920882761478
 30
0.0
 11
-399.699058532715
 21
8.32245589792728
 31
0.0
  0
LINE
  5
   335
  8
0
  6
CONTINUOUS
 62
   130
 10
-399.699058532715
 20
8.32245589792728
 30
0.0
 11
-398.879440307617
 21
8.32245589792728
 31
0.0
  0
LINE
  5
   336
  8
0
  6
CONTINUOUS
 62
   130
 10
-399.333297721938
 20
9.61920619674082
 30
0.0
 11
-398.879432772406
 21
8.32245337446812
 31
0.0
  0
LINE
  5
   337
  8
0
  6
CONTINUOUS
 62
   130
 10
-398.236053466797
 20
8.32245589792728
 30
0.0
 11
-397.471305847168
 21
8.32245589792728
 31
0.0
  0
LINE
  5
   338
  8
0
  6
CONTINUOUS
 62
   130
 10
-397.471305847168
 20
9.61920882761478
 30
0.0
 11
-397.471305847168
 21
8.32245589792728
 31
0.0
  0
LINE
  5
   339
  8
0
  6
CONTINUOUS
 62
   130
 10
-398.236053466797
 20
9.61920882761478
 30
0.0
 11
-397.471305847168
 21
9.61920882761478
 31
0.0
  0
LINE
  5
   33A
  8
0
  6
CONTINUOUS
 62
   130
 10
-398.236053466797
 20
6.95921231806278
 30
0.0
 11
-397.471305847168
 21
6.95921231806278
 31
0.0
  0
LINE
  5
   33B
  8
0
  6
CONTINUOUS
 62
   130
 10
-397.471305847168
 20
8.25595809519291
 30
0.0
 11
-397.471305847168
 21
6.95921231806278
 31
0.0
  0
LINE
  5
   33C
  8
0
  6
CONTINUOUS
 62
   130
 10
-398.236053466797
 20
8.25595809519291
 30
0.0
 11
-397.471305847168
 21
8.25595809519291
 31
0.0
  0
LINE
  5
   33D
  8
0
  6
CONTINUOUS
 62
   130
 10
-396.174560546875
 20
9.61920882761478
 30
0.0
 11
-396.174560546875
 21
8.32245589792728
 31
0.0
  0
LINE
  5
   33E
  8
0
  6
CONTINUOUS
 62
   130
 10
-396.174560546875
 20
8.32245589792728
 30
0.0
 11
-395.409805297852
 21
8.32245589792728
 31
0.0
  0
LINE
  5
   33F
  8
0
  6
CONTINUOUS
 62
   130
 10
-395.409805297852
 20
9.61920882761478
 30
0.0
 11
-395.409805297852
 21
8.32245589792728
 31
0.0
  0
LINE
  5
   340
  8
0
  6
CONTINUOUS
 62
   130
 10
-396.174560546875
 20
9.61920882761478
 30
0.0
 11
-395.409805297852
 21
9.61920882761478
 31
0.0
  0
LINE
  5
   341
  8
0
  6
CONTINUOUS
 62
   130
 10
-396.174560546875
 20
6.95921231806278
 30
0.0
 11
-395.409805297852
 21
6.95921231806278
 31
0.0
  0
LINE
  5
   342
  8
0
  6
CONTINUOUS
 62
   130
 10
-395.409805297852
 20
8.25595809519291
 30
0.0
 11
-395.409805297852
 21
6.95921231806278
 31
0.0
  0
LINE
  5
   343
  8
0
  6
CONTINUOUS
 62
   130
 10
-396.174560546875
 20
8.25595809519291
 30
0.0
 11
-395.409805297852
 21
8.25595809519291
 31
0.0
  0
LINE
  5
   344
  8
0
  6
CONTINUOUS
 62
   130
 10
-396.174560546875
 20
8.25595809519291
 30
0.0
 11
-396.174560546875
 21
6.95921231806278
 31
0.0
  0
LINE
  5
   345
  8
0
  6
CONTINUOUS
 62
   130
 10
-395.343307495117
 20
9.61920882761478
 30
0.0
 11
-395.129570007324
 21
9.61920882761478
 31
0.0
  0
LINE
  5
   346
  8
0
  6
CONTINUOUS
 62
   130
 10
-395.343307495117
 20
9.61920882761478
 30
0.0
 11
-395.343307495117
 21
8.32245589792728
 31
0.0
  0
LINE
  5
   347
  8
0
  6
CONTINUOUS
 62
   130
 10
-395.343307495117
 20
8.32245589792728
 30
0.0
 11
-394.569129943848
 21
8.32245589792728
 31
0.0
  0
LINE
  5
   348
  8
0
  6
CONTINUOUS
 62
   130
 10
-394.68334504646
 20
8.40859411984136
 30
0.0
 11
-394.569132994705
 21
8.32245824264554
 31
0.0
  0
LINE
  5
   349
  8
0
  6
CONTINUOUS
 62
   130
 10
-394.811307530325
 20
8.47251855452099
 30
0.0
 11
-394.683339677134
 21
8.4085918518755
 31
0.0
  0
LINE
  5
   34A
  8
0
  6
CONTINUOUS
 62
   130
 10
-394.658985122693
 20
8.6018481928098
 30
0.0
 11
-394.811305970266
 21
8.47251471525466
 31
0.0
  0
LINE
  5
   34B
  8
0
  6
CONTINUOUS
 62
   130
 10
-394.555937985567
 20
8.77305034814446
 30
0.0
 11
-394.65898057667
 21
8.60184674057708
 31
0.0
  0
LINE
  5
   34C
  8
0
  6
CONTINUOUS
 62
   130
 10
-394.512963966945
 20
8.96818796225685
 30
0.0
 11
-394.555940341206
 21
8.77305096163479
 31
0.0
  0
LINE
  5
   34D
  8
0
  6
CONTINUOUS
 62
   130
 10
-394.534549094003
 20
9.16684469127094
 30
0.0
 11
-394.51296554327
 21
8.96819047454714
 31
0.0
  0
LINE
  5
   34E
  8
0
  6
CONTINUOUS
 62
   130
 10
-394.618439746057
 20
9.34819980761115
 30
0.0
 11
-394.534554540072
 21
9.16684907760154
 31
0.0
  0
LINE
  5
   34F
  8
0
  6
CONTINUOUS
 62
   130
 10
-394.75584810371
 20
9.4932820053786
 30
0.0
 11
-394.618442695161
 21
9.34820142986874
 31
0.0
  0
LINE
  5
   350
  8
0
  6
CONTINUOUS
 62
   130
 10
-394.932377207595
 20
9.58686652767254
 30
0.0
 11
-394.755840640035
 21
9.49326910789321
 31
0.0
  0
LINE
  5
   351
  8
0
  6
CONTINUOUS
 62
   130
 10
-395.343307495117
 20
8.25595809519291
 30
0.0
 11
-394.504150390625
 21
8.25595809519291
 31
0.0
  0
LINE
  5
   352
  8
0
  6
CONTINUOUS
 62
   130
 10
-395.343307495117
 20
8.25595809519291
 30
0.0
 11
-395.343307495117
 21
6.95921231806278
 31
0.0
  0
LINE
  5
   353
  8
0
  6
CONTINUOUS
 62
   130
 10
-395.343307495117
 20
6.95921231806278
 30
0.0
 11
-395.095993041992
 21
6.95921231806278
 31
0.0
  0
LINE
  5
   354
  8
0
  6
CONTINUOUS
 62
   130
 10
-394.875225638755
 20
6.9909581974441
 30
0.0
 11
-395.095989822734
 21
6.95921085900436
 31
0.0
  0
LINE
  5
   355
  8
0
  6
CONTINUOUS
 62
   130
 10
-394.67235361164
 20
7.08362770515801
 30
0.0
 11
-394.875226854243
 21
6.99095869349225
 31
0.0
  0
LINE
  5
   356
  8
0
  6
CONTINUOUS
 62
   130
 10
-394.503822161383
 20
7.2297075785825
 30
0.0
 11
-394.672355502172
 21
7.08362707991631
 31
0.0
  0
LINE
  5
   357
  8
0
  6
CONTINUOUS
 62
   130
 10
-394.383276406714
 20
7.41736076858438
 30
0.0
 11
-394.503820839734
 21
7.229708182933
 31
0.0
  0
LINE
  5
   358
  8
0
  6
CONTINUOUS
 62
   130
 10
-394.320493305492
 20
7.63137368997137
 30
0.0
 11
-394.383267961977
 21
7.41735821672281
 31
0.0
  0
LINE
  5
   359
  8
0
  6
CONTINUOUS
 62
   130
 10
-394.320568556519
 20
7.85441149977847
 30
0.0
 11
-394.320499891972
 21
7.63137806101657
 31
0.0
  0
LINE
  5
   35A
  8
0
  6
CONTINUOUS
 62
   130
 10
-394.383479082665
 20
8.0683889333189
 30
0.0
 11
-394.320567100058
 21
7.85441301608984
 31
0.0
  0
LINE
  5
   35B
  8
0
  6
CONTINUOUS
 62
   130
 10
-394.504148555002
 20
8.2559552957708
 30
0.0
 11
-394.383482052389
 21
8.06838377316165
 31
0.0
  0
LINE
  5
   35C
  8
0
  6
CONTINUOUS
 62
   130
 10
-397.404808044434
 20
9.61920882761478
 30
0.0
 11
-397.191062927246
 21
9.61920882761478
 31
0.0
  0
LINE
  5
   35D
  8
0
  6
CONTINUOUS
 62
   130
 10
-397.404808044434
 20
9.61920882761478
 30
0.0
 11
-397.404808044434
 21
8.32245589792728
 31
0.0
  0
LINE
  5
   35E
  8
0
  6
CONTINUOUS
 62
   130
 10
-397.404808044434
 20
8.32245589792728
 30
0.0
 11
-396.630630493164
 21
8.32245589792728
 31
0.0
  0
LINE
  5
   35F
  8
0
  6
CONTINUOUS
 62
   130
 10
-396.744840635753
 20
8.4085902380868
 30
0.0
 11
-396.630628583998
 21
8.32245436089099
 31
0.0
  0
LINE
  5
   360
  8
0
  6
CONTINUOUS
 62
   130
 10
-396.872809558
 20
8.47251870329546
 30
0.0
 11
-396.744841704808
 21
8.40859200064996
 31
0.0
  0
LINE
  5
   361
  8
0
  6
CONTINUOUS
 62
   130
 10
-396.720486801881
 20
8.60185218140224
 30
0.0
 11
-396.872807649454
 21
8.47251870384709
 31
0.0
  0
LINE
  5
   362
  8
0
  6
CONTINUOUS
 62
   130
 10
-396.617441627701
 20
8.77305262594975
 30
0.0
 11
-396.720484218804
 21
8.60184901838237
 31
0.0
  0
LINE
  5
   363
  8
0
  6
CONTINUOUS
 62
   130
 10
-396.574458140404
 20
8.96818880106749
 30
0.0
 11
-396.61744214561
 21
8.77305178905731
 31
0.0
  0
LINE
  5
   364
  8
0
  6
CONTINUOUS
 62
   130
 10
-396.596041136863
 20
9.16684799124144
 30
0.0
 11
-396.57445758613
 21
8.96819377451763
 31
0.0
  0
LINE
  5
   365
  8
0
  6
CONTINUOUS
 62
   130
 10
-396.679937261633
 20
9.34819374224027
 30
0.0
 11
-396.59604443341
 21
9.16684302086536
 31
0.0
  0
LINE
  5
   366
  8
0
  6
CONTINUOUS
 62
   130
 10
-396.817345564084
 20
9.49328548284326
 30
0.0
 11
-396.679940155535
 21
9.3482049073334
 31
0.0
  0
LINE
  5
   367
  8
0
  6
CONTINUOUS
 62
   130
 10
-396.993882740168
 20
9.58686894101574
 30
0.0
 11
-396.817346172607
 21
9.49327152123641
 31
0.0
  0
LINE
  5
   368
  8
0
  6
CONTINUOUS
 62
   130
 10
-397.191063552451
 20
9.61920932828328
 30
0.0
 11
-396.993881809078
 21
9.58687595528531
 31
0.0
  0
LINE
  5
   369
  8
0
  6
CONTINUOUS
 62
   130
 10
-397.404808044434
 20
8.25595809519291
 30
0.0
 11
-396.565650939941
 21
8.25595809519291
 31
0.0
  0
LINE
  5
   36A
  8
0
  6
CONTINUOUS
 62
   130
 10
-397.404808044434
 20
8.25595809519291
 30
0.0
 11
-397.404808044434
 21
6.95921231806278
 31
0.0
  0
LINE
  5
   36B
  8
0
  6
CONTINUOUS
 62
   130
 10
-397.404808044434
 20
6.95921231806278
 30
0.0
 11
-397.157493591309
 21
6.95921231806278
 31
0.0
  0
LINE
  5
   36C
  8
0
  6
CONTINUOUS
 62
   130
 10
-396.936728773273
 20
6.99095329135625
 30
0.0
 11
-397.157492957251
 21
6.95920595291651
 31
0.0
  0
LINE
  5
   36D
  8
0
  6
CONTINUOUS
 62
   130
 10
-396.733853946503
 20
7.08362639781221
 30
0.0
 11
-396.936727189107
 21
6.99095738614645
 31
0.0
  0
LINE
  5
   36E
  8
0
  6
CONTINUOUS
 62
   130
 10
-396.565322134964
 20
7.22970660421287
 30
0.0
 11
-396.733855475753
 21
7.08362610554669
 31
0.0
  0
LINE
  5
   36F
  8
0
  6
CONTINUOUS
 62
   130
 10
-396.444777989648
 20
7.41736102496107
 30
0.0
 11
-396.565322422668
 21
7.22970843930967
 31
0.0
  0
LINE
  5
   370
  8
0
  6
CONTINUOUS
 62
   130
 10
-396.381990467847
 20
7.63137651948529
 30
0.0
 11
-396.444772760159
 21
7.41736102315559
 31
0.0
  0
LINE
  5
   371
  8
0
  6
CONTINUOUS
 62
   130
 10
-396.382071451178
 20
7.85441173152406
 30
0.0
 11
-396.38199515727
 21
7.63137829028285
 31
0.0
  0
LINE
  5
   372
  8
0
  6
CONTINUOUS
 62
   130
 10
-396.444977769057
 20
8.06838883126528
 30
0.0
 11
-396.38206578645
 21
7.85441291403623
 31
0.0
  0
LINE
  5
   373
  8
0
  6
CONTINUOUS
 62
   130
 10
-396.565647107009
 20
8.25595580580111
 30
0.0
 11
-396.444980604396
 21
8.06838428319197
 31
0.0
  0
LINE
  5
   374
  8
0
  6
CONTINUOUS
 62
   130
 10
-398.236053466797
 20
9.61920882761478
 30
0.0
 11
-398.236053466797
 21
6.95921231806278
 31
0.0
  0
LINE
  5
   375
  8
0
  6
CONTINUOUS
 62
   130
 10
-403.824832077029
 20
5.25531864165755
 30
0.0
 11
-375.824874668122
 21
5.25531864165755
 31
0.0
  0
LINE
  5
   376
  8
0
  6
CONTINUOUS
 62
   130
 10
-375.324874744416
 20
7.25531864165756
 30
0.0
 11
-375.324874629975
 21
4.25531864165756
 31
0.0
  0
LINE
  5
   377
  8
0
  6
CONTINUOUS
 62
   130
 10
-354.324844493867
 20
7.25531864165756
 30
0.0
 11
-354.324844608308
 21
4.25531864165756
 31
0.0
  0
LINE
  5
   378
  8
0
  6
CONTINUOUS
 62
   130
 10
-375.324874744416
 20
7.25531864165755
 30
0.0
 11
-354.324844493867
 21
7.25531864165755
 31
0.0
  0
LINE
  5
   379
  8
0
  6
CONTINUOUS
 62
   130
 10
-353.824844570161
 20
5.25531864165755
 30
0.0
 11
-325.824887161254
 21
5.25531864165755
 31
0.0
  0
LINE
  5
   37A
  8
0
  6
CONTINUOUS
 62
   130
 10
-375.82487476349
 20
7.75531864165755
 30
0.0
 11
-353.824844474793
 21
7.75531864165755
 31
0.0
  0
LINE
  5
   37B
  8
0
  6
CONTINUOUS
 62
   130
 10
-353.824844474793
 20
7.75531864165756
 30
0.0
 11
-353.824844608308
 21
4.25531864165756
 31
0.0
  0
LINE
  5
   37C
  8
0
  6
CONTINUOUS
 62
   130
 10
-375.82487476349
 20
7.75531864165756
 30
0.0
 11
-375.824874629975
 21
4.25531864165756
 31
0.0
  0
LINE
  5
   37D
  8
0
  6
CONTINUOUS
 62
   130
 10
-328.3248488617
 20
56.255291617359
 30
0.0
 11
-328.324850463875
 21
45.75527635857
 31
0.0
  0
LINE
  5
   37E
  8
0
  6
CONTINUOUS
 62
   130
 10
-401.324870376583
 20
56.255291617359
 30
0.0
 11
-401.324868774408
 21
45.75527635857
 31
0.0
  0
LINE
  5
   37F
  8
0
  6
CONTINUOUS
 62
   130
 10
-328.324848861703
 20
-55.7446931238519
 30
0.0
 11
-328.324848403937
 21
-58.7447082300531
 31
0.0
  0
INSERT
  5
   380
  8
0
  6
CONTINUOUS
 62
   130
  2
SSS
 10
-352.324777664748
 20
-49.7446640116114
 30
0.0
 50
359.999999792138
  0
INSERT
  5
   381
  8
0
  6
CONTINUOUS
 62
   130
  2
SSS
 10
-377.324823478438
 20
50.2553540177666
 30
0.0
 50
359.999999792138
  0
CIRCLE
  5
   382
  8
0
  6
CONTINUOUS
 62
   130
 10
-352.324777664748
 20
-49.7446640116114
 30
0.0
 40
4.4999575073053
  0
LINE
  5
   383
  8
0
  6
CONTINUOUS
 62
   130
 10
-354.324845596767
 20
-21.6565321529716
 30
0.0
 11
-354.324845711208
 21
-24.6565321529716
 31
0.0
  0
LINE
  5
   384
  8
0
  6
CONTINUOUS
 62
   130
 10
-375.324873641516
 20
-21.6565321529716
 30
0.0
 11
-375.324873527075
 21
-24.6565321529716
 31
0.0
  0
LINE
  5
   385
  8
0
  6
CONTINUOUS
 62
   130
 10
-375.324873641516
 20
-21.6565321529716
 30
0.0
 11
-372.324873641516
 21
-21.6565321529716
 31
0.0
  0
LINE
  5
   386
  8
0
  6
CONTINUOUS
 62
   130
 10
-357.324845596767
 20
-21.6565321529716
 30
0.0
 11
-354.324845596767
 21
-21.6565321529716
 31
0.0
  0
LINE
  5
   387
  8
0
  6
CONTINUOUS
 62
   130
 10
-375.324873527075
 20
-24.6565321529716
 30
0.0
 11
-371.324873527075
 21
-24.6565321529716
 31
0.0
  0
LINE
  5
   388
  8
0
  6
CONTINUOUS
 62
   130
 10
-358.324845711208
 20
-24.6565321529716
 30
0.0
 11
-354.324845711208
 21
-24.6565321529716
 31
0.0
  0
LINE
  5
   389
  8
0
  6
CONTINUOUS
 62
   130
 10
-378.824823478438
 20
55.7552881240863
 30
0.0
 11
-375.824823478438
 21
55.7552881240863
 31
0.0
  0
LINE
  5
   38A
  8
0
  6
CONTINUOUS
 62
   130
 10
-375.824823478438
 20
56.7552881240863
 30
0.0
 11
-375.824823478438
 21
55.7552881240863
 31
0.0
  0
LINE
  5
   38B
  8
0
  6
CONTINUOUS
 62
   130
 10
-378.824823478438
 20
56.7552881240863
 30
0.0
 11
-378.824823478438
 21
55.7552881240863
 31
0.0
  0
LINE
  5
   38C
  8
0
  6
CONTINUOUS
 62
   130
 10
-350.824836168204
 20
56.7552881240863
 30
0.0
 11
-350.824836168204
 21
55.7552881240863
 31
0.0
  0
LINE
  5
   38D
  8
0
  6
CONTINUOUS
 62
   130
 10
-353.824836168204
 20
56.7552881240863
 30
0.0
 11
-353.824836168204
 21
55.7552881240863
 31
0.0
  0
LINE
  5
   38E
  8
0
  6
CONTINUOUS
 62
   130
 10
-353.824836168204
 20
55.7552881240863
 30
0.0
 11
-350.824836168204
 21
55.7552881240863
 31
0.0
  0
LINE
  5
   38F
  8
0
  6
CONTINUOUS
 62
   130
 10
-350.824836168204
 20
56.7552881240863
 30
0.0
 11
-349.824756648322
 21
56.7552881240863
 31
0.0
  0
LINE
  5
   390
  8
0
  6
CONTINUOUS
 62
   130
 10
-354.824784768712
 20
56.7552881240863
 30
0.0
 11
-353.824836168204
 21
56.7552881240863
 31
0.0
  0
LINE
  5
   391
  8
0
  6
CONTINUOUS
 62
   130
 10
-378.824823478438
 20
-55.2446813583356
 30
0.0
 11
-378.824823478438
 21
-56.2446813583356
 31
0.0
  0
LINE
  5
   392
  8
0
  6
CONTINUOUS
 62
   130
 10
-375.824823478438
 20
-55.2446813583356
 30
0.0
 11
-375.824823478438
 21
-56.2446813583356
 31
0.0
  0
LINE
  5
   393
  8
0
  6
CONTINUOUS
 62
   130
 10
-378.824823478438
 20
-55.2446813583356
 30
0.0
 11
-375.824823478438
 21
-55.2446813583356
 31
0.0
  0
LINE
  5
   394
  8
0
  6
CONTINUOUS
 62
   130
 10
-353.824836168204
 20
-55.2446813583356
 30
0.0
 11
-353.824836168204
 21
-56.2446813583356
 31
0.0
  0
LINE
  5
   395
  8
0
  6
CONTINUOUS
 62
   130
 10
-350.824836168204
 20
-55.2446813583356
 30
0.0
 11
-350.824836168204
 21
-56.2446813583356
 31
0.0
  0
LINE
  5
   396
  8
0
  6
CONTINUOUS
 62
   130
 10
-353.824836168204
 20
-55.2446813583356
 30
0.0
 11
-350.824836168204
 21
-55.2446813583356
 31
0.0
  0
LINE
  5
   397
  8
0
  6
CONTINUOUS
 62
   130
 10
-379.82490299832
 20
-56.2446813583356
 30
0.0
 11
-378.824823478438
 21
-56.2446813583356
 31
0.0
  0
LINE
  5
   398
  8
0
  6
CONTINUOUS
 62
   130
 10
-375.824823478438
 20
-56.2446813583356
 30
0.0
 11
-374.82487487793
 21
-56.2446813583356
 31
0.0
  0
LINE
  5
   399
  8
0
  6
CONTINUOUS
 62
   130
 10
-354.824784768712
 20
-56.2446813583356
 30
0.0
 11
-353.824836168204
 21
-56.2446813583356
 31
0.0
  0
LINE
  5
   39A
  8
0
  6
CONTINUOUS
 62
   130
 10
-350.824836168204
 20
-56.2446813583356
 30
0.0
 11
-349.824756648322
 21
-56.2446813583356
 31
0.0
  0
LINE
  5
   39B
  8
0
  6
CONTINUOUS
 62
   130
 10
-380.424857330323
 20
-26.9946966171246
 30
0.0
 11
-380.424857330323
 21
-31.4946966171246
 31
0.0
  0
LINE
  5
   39C
  8
0
  6
CONTINUOUS
 62
   130
 10
-390.424857330323
 20
-26.9946966171246
 30
0.0
 11
-390.424857330323
 21
-31.4946966171246
 31
0.0
  0
LINE
  5
   39D
  8
0
  6
CONTINUOUS
 62
   130
 10
-390.424857330323
 20
-26.9946966171246
 30
0.0
 11
-380.424857330323
 21
-26.9946966171246
 31
0.0
  0
LINE
  5
   39E
  8
0
  6
CONTINUOUS
 62
   130
 10
-390.424857330323
 20
-31.4946966171246
 30
0.0
 11
-380.424857330323
 21
-31.4946966171246
 31
0.0
  0
LINE
  5
   39F
  8
0
  6
CONTINUOUS
 62
   130
 10
-395.06434093044
 20
-34.8320554292647
 30
0.0
 11
-395.06434093044
 21
-60.49851369104
 31
0.0
  0
LINE
  5
   3A0
  8
0
  6
CONTINUOUS
 62
   130
 10
-325.061561654063
 20
-32.180713973242
 30
0.0
 11
-318.838274069787
 21
-32.180713973242
 31
0.0
  0
LINE
  5
   3A1
  8
0
  6
CONTINUOUS
 62
   130
 10
-395.06434093044
 20
-43.7446931238519
 30
0.0
 11
-364.824873851
 21
-43.7446931238519
 31
0.0
  0
LINE
  5
   3A2
  8
0
  6
CONTINUOUS
 62
   130
 10
-395.06434093044
 20
-45.2446931238519
 30
0.0
 11
-364.82485294342
 21
-45.2446931238519
 31
0.0
  0
LINE
  5
   3A3
  8
0
  6
CONTINUOUS
 62
   130
 10
-395.06434093044
 20
-59.7446966171247
 30
0.0
 11
-378.82490299832
 21
-59.7446966171247
 31
0.0
  0
LINE
  5
   3A4
  8
0
  6
CONTINUOUS
 62
   130
 10
-403.824833145154
 20
12.2553882598877
 30
0.0
 11
-403.824825820937
 21
-35.7446117401123
 31
0.0
  0
LINE
  5
   3A5
  8
0
  6
CONTINUOUS
 62
   130
 10
-325.824886093129
 20
12.2553882598877
 30
0.0
 11
-325.824896316528
 21
-54.7446932764351
 31
0.0
  0
INSERT
  5
   3A6
  8
0
  6
CONTINUOUS
 62
     3
  2
*UDIM34
 10
0.0
 20
0.0
 30
0.0
  0
INSERT
  5
   3A7
  8
0
  6
CONTINUOUS
 62
     3
  2
*UDIM35
 10
0.0
 20
0.0
 30
0.0
  0
INSERT
  5
   3A8
  8
0
  6
CONTINUOUS
 62
     3
  2
*UDIM36
 10
0.0
 20
0.0
 30
0.0
  0
INSERT
  5
   3A9
  8
0
  6
CONTINUOUS
 62
     7
  2
*UDIM37
 10
0.0
 20
0.0
 30
0.0
  0
INSERT
  5
   3AA
  8
0
  6
CONTINUOUS
 62
     7
  2
*UDIM38
 10
0.0
 20
0.0
 30
0.0
  0
TEXT
  5
   3AB
  8
0
  6
CONTINUOUS
 62
     2
 10
-296.79224647989
 20
-13.1346330761837
 30
0.0
 40
3.00000002980232
  1
X
 50
359.999999844103
 41
0.916666674282816
 72
     1
 11
-295.692246437073
 21
-11.63463306427
 31
0.0
 73
     2
  0
TEXT
  5
   3AC
  8
0
  6
CONTINUOUS
 62
     2
 10
-419.612786908051
 20
-13.1166663288998
 30
0.0
 40
3.00000002980232
  1
X
 50
359.999999844103
 41
0.916666674282816
 72
     1
 11
-418.512786865234
 21
-11.6166663169861
 31
0.0
 73
     2
  0
TEXT
  5
   3AD
  8
0
  6
CONTINUOUS
 62
     2
 10
-365.758841818101
 20
90.6669696201928
 30
0.0
 40
3.00000002980232
  1
Y
 50
359.999999844103
 41
0.916666674282816
 72
     1
 11
-364.658841775284
 21
92.1669696321065
 31
0.0
 73
     2
  0
TEXT
  5
   3AE
  8
0
  6
CONTINUOUS
 62
     2
 10
-365.80087437143
 20
-68.3658666729855
 30
0.0
 40
3.00000002980232
  1
Y
 50
359.999999844103
 41
0.916666674282816
 72
     1
 11
-364.700874328613
 21
-66.8658666610718
 31
0.0
 73
     2
  0
INSERT
  5
   3AF
  8
0
  6
CONTINUOUS
 62
     7
  2
*UDIM39
 10
0.0
 20
0.0
 30
0.0
  0
INSERT
  5
   3B0
  8
0
  6
CONTINUOUS
 62
     7
  2
*UDIM40
 10
0.0
 20
0.0
 30
0.0
  0
INSERT
  5
   3B1
  8
0
  6
CONTINUOUS
 62
     7
  2
*UDIM41
 10
0.0
 20
0.0
 30
0.0
  0
INSERT
  5
   3B2
  8
0
  6
CONTINUOUS
 62
     7
  2
*UDIM42
 10
0.0
 20
0.0
 30
0.0
  0
INSERT
  5
   3B3
  8
0
  6
CONTINUOUS
 62
     3
  2
*UDIM43
 10
0.0
 20
0.0
 30
0.0
  0
INSERT
  5
   3B4
  8
255
  6
CONTINUOUS
 62
     7
  2
DIAFRAMMA
 10
-377.324823478438
 20
58.2552881240863
 30
0.0
 50
359.999999792138
  0
INSERT
  5
   3B5
  8
255
  6
CONTINUOUS
 62
     7
  2
DIAFRAMMA
 10
-352.324823478438
 20
58.2552881240863
 30
0.0
 50
359.999999792138
  0
LINE
  5
   3B6
  8
0
  6
CONTINUOUS
 62
   130
 10
-378.474829763174
 20
-95.9937358598494
 30
0.0
 11
-378.474829763174
 21
-149.645232351157
 31
0.0
  0
LINE
  5
   3B7
  8
0
  6
CONTINUOUS
 62
   130
 10
-351.174835568666
 20
-95.9937358598494
 30
0.0
 11
-351.174835568666
 21
-149.645232351157
 31
0.0
  0
CIRCLE
  5
   3B8
  8
0
  6
CONTINUOUS
 62
   130
 10
-371.074829921126
 20
-97.8486812621354
 30
0.0
 40
1.125
  0
CIRCLE
  5
   3B9
  8
0
  6
CONTINUOUS
 62
   130
 10
-358.574830070138
 20
-147.848669984937
 30
0.0
 40
1.125
  0
LINE
  5
   3BA
  8
0
  6
DASHDOT
 62
   130
 10
-371.074829921126
 20
-93.648681333661
 30
0.0
 11
-371.074829921126
 21
-102.04868119061
 31
0.0
  0
LINE
  5
   3BB
  8
0
  6
DASHDOT
 62
   130
 10
-376.524829849601
 20
-97.8486812621354
 30
0.0
 11
-368.124829992652
 21
-97.8486812621354
 31
0.0
  0
LINE
  5
   3BC
  8
0
  6
CONTINUOUS
 62
   130
 10
-358.574830070138
 20
-143.648670056462
 30
0.0
 11
-358.574830070138
 21
-152.048669913411
 31
0.0
  0
LINE
  5
   3BD
  8
0
  6
DASHDOT
 62
   130
 10
-365.899829998612
 20
-147.848669984937
 30
0.0
 11
-357.499830141664
 21
-147.848669984937
 31
0.0
  0
LINE
  5
   3BE
  8
0
  6
DASHDOT
 62
   130
 10
-364.824835336208
 20
-90.9715508468254
 30
0.0
 11
-364.824835336208
 21
-155.879355181473
 31
0.0
  0
LINE
  5
   3BF
  8
0
  6
CONTINUOUS
 62
   130
 10
-378.474829763174
 20
-95.9937358598494
 30
0.0
 11
-351.174835568666
 21
-95.9937358598494
 31
0.0
  0
LINE
  5
   3C0
  8
0
  6
CONTINUOUS
 62
   130
 10
-378.474829763174
 20
-149.645232351157
 30
0.0
 11
-351.174835568666
 21
-149.645232351157
 31
0.0
  0
LINE
  5
   3C1
  8
0
  6
DASHDOT
 62
   130
 10
-383.224154652135
 20
-128.848681262135
 30
0.0
 11
-345.963984818175
 21
-128.848681262135
 31
0.0
  0
TEXT
  5
   3C2
  8
0
  6
CONTINUOUS
 62
     2
 10
-365.800872464082
 20
-88.4496803402828
 30
0.0
 40
3.00000002980232
  1
Y
 50
359.999999844103
 41
0.916666674282816
 72
     1
 11
-364.700872421265
 21
-86.9496803283691
 31
0.0
 73
     2
  0
TEXT
  5
   3C3
  8
0
  6
CONTINUOUS
 62
     2
 10
-344.288269047043
 20
-130.502434134077
 30
0.0
 40
3.00000002980232
  1
X
 50
359.999999844103
 41
0.916666674282816
 11
-344.288269042969
 21
-129.002434119176
 31
0.0
 73
     2
  0
TEXT
  5
   3C4
  8
0
  6
CONTINUOUS
 62
     2
 10
-408.391323093674
 20
-130.337437033247
 30
0.0
 40
3.00000002980232
  1
X
 50
359.999999844103
 41
0.916666674282816
 11
-408.3913230896
 21
-128.837437018346
 31
0.0
 73
     2
  0
TEXT
  5
   3C5
  8
0
  6
CONTINUOUS
 62
     2
 10
-365.566554073593
 20
-159.630127310347
 30
0.0
 40
3.00000002980232
  1
Y
 50
359.999999844103
 41
0.916666674282816
 11
-365.566554069519
 21
-158.130127295446
 31
0.0
 73
     2
  0
INSERT
  5
   3C6
  8
0
  6
CONTINUOUS
 62
     3
  2
*UDIM44
 10
0.0
 20
0.0
 30
0.0
  0
INSERT
  5
   3C7
  8
0
  6
CONTINUOUS
 62
     3
  2
*UDIM45
 10
0.0
 20
0.0
 30
0.0
  0
INSERT
  5
   3C8
  8
0
  6
CONTINUOUS
 62
     3
  2
*UDIM46
 10
0.0
 20
0.0
 30
0.0
  0
INSERT
  5
   3C9
  8
0
  6
CONTINUOUS
 62
     7
  2
*UDIM47
 10
0.0
 20
0.0
 30
0.0
  0
LINE
  5
   3CA
  8
0
  6
CONTINUOUS
 62
   130
 10
-74.6174309611323
 20
88.7100099137241
 30
0.0
 11
-137.304141599293
 21
88.7100099137241
 31
0.0
  0
LINE
  5
   3CB
  8
0
  6
DASHDOT
 62
   130
 10
-105.87469342947
 20
91.2594685263783
 30
0.0
 11
-105.87469342947
 21
39.966603373779
 31
0.0
  0
LINE
  5
   3CC
  8
0
  6
CONTINUOUS
 62
   130
 10
-137.304141599293
 20
88.7100099137241
 30
0.0
 11
-137.304141599293
 21
43.4336055996778
 31
0.0
  0
LINE
  5
   3CD
  8
0
  6
CONTINUOUS
 62
   130
 10
-74.6174309611323
 20
88.7100099137241
 30
0.0
 11
-74.6174309611323
 21
43.4336055996778
 31
0.0
  0
LINE
  5
   3CE
  8
0
  6
DASHDOT
 62
   130
 10
-67.3398663005301
 20
68.0006431251763
 30
0.0
 11
-146.721685352627
 21
68.0006431251763
 31
0.0
  0
LINE
  5
   3CF
  8
0
  6
CONTINUOUS
 62
   130
 10
-74.6174309611323
 20
43.4336055996778
 30
0.0
 11
-137.304141599293
 21
43.4336055996778
 31
0.0
  0
LINE
  5
   3D0
  8
0
  6
CONTINUOUS
 62
   130
 10
-84.62469342947
 20
80.5006431251763
 30
0.0
 11
-84.62469342947
 21
55.5006431251763
 31
0.0
  0
LINE
  5
   3D1
  8
0
  6
CONTINUOUS
 62
   130
 10
-127.12469342947
 20
80.5006431251763
 30
0.0
 11
-127.12469342947
 21
55.5006431251763
 31
0.0
  0
LINE
  5
   3D2
  8
0
  6
CONTINUOUS
 62
   130
 10
-85.37469342947
 20
81.2506431251763
 30
0.0
 11
-126.37469342947
 21
81.2506431251763
 31
0.0
  0
LINE
  5
   3D3
  8
0
  6
CONTINUOUS
 62
   130
 10
-85.37469342947
 20
54.7506431251763
 30
0.0
 11
-126.37469342947
 21
54.7506431251763
 31
0.0
  0
ARC
  5
   3D4
  8
0
  6
CONTINUOUS
 62
   130
 10
-126.37469342947
 20
80.5006431251763
 30
0.0
 40
0.75
 50
449.999999896069
 51
539.999999896069
  0
ARC
  5
   3D5
  8
0
  6
CONTINUOUS
 62
   130
 10
-126.37469342947
 20
55.5006431251763
 30
0.0
 40
0.75
 50
179.999999896069
 51
269.999999896069
  0
ARC
  5
   3D6
  8
0
  6
CONTINUOUS
 62
   130
 10
-85.37469342947
 20
55.5006431251763
 30
0.0
 40
0.75
 50
269.999999896069
 51
359.999999896069
  0
ARC
  5
   3D7
  8
0
  6
CONTINUOUS
 62
   130
 10
-85.37469342947
 20
80.5006431251763
 30
0.0
 40
0.75
 50
359.999999896069
 51
449.999999896069
  0
CIRCLE
  5
   3D8
  8
0
  6
CONTINUOUS
 62
   130
 10
-126.74969342947
 20
84.0006431251763
 30
0.0
 40
1.0
  0
CIRCLE
  5
   3D9
  8
0
  6
CONTINUOUS
 62
   130
 10
-84.99969342947
 20
84.0006431251763
 30
0.0
 40
1.0
  0
CIRCLE
  5
   3DA
  8
0
  6
CONTINUOUS
 62
   130
 10
-84.99969342947
 20
52.0006431251763
 30
0.0
 40
1.0
  0
CIRCLE
  5
   3DB
  8
0
  6
CONTINUOUS
 62
   130
 10
-126.74969342947
 20
52.0006431251763
 30
0.0
 40
1.0
  0
LINE
  5
   3DC
  8
0
  6
DASHDOT
 62
   130
 10
-84.99969342947
 20
89.0006431251763
 30
0.0
 11
-84.99969342947
 21
79.0006431251763
 31
0.0
  0
LINE
  5
   3DD
  8
0
  6
DASHDOT
 62
   130
 10
-79.99969342947
 20
84.0006431251763
 30
0.0
 11
-89.99969342947
 21
84.0006431251763
 31
0.0
  0
LINE
  5
   3DE
  8
0
  6
DASHDOT
 62
   130
 10
-126.74969342947
 20
89.0006431251763
 30
0.0
 11
-126.74969342947
 21
79.0006431251763
 31
0.0
  0
LINE
  5
   3DF
  8
0
  6
DASHDOT
 62
   130
 10
-121.74969342947
 20
84.0006431251763
 30
0.0
 11
-131.74969342947
 21
84.0006431251763
 31
0.0
  0
LINE
  5
   3E0
  8
0
  6
DASHDOT
 62
   130
 10
-126.74969342947
 20
57.0006431251763
 30
0.0
 11
-126.74969342947
 21
47.0006431251763
 31
0.0
  0
LINE
  5
   3E1
  8
0
  6
DASHDOT
 62
   130
 10
-121.74969342947
 20
52.0006431251763
 30
0.0
 11
-131.74969342947
 21
52.0006431251763
 31
0.0
  0
LINE
  5
   3E2
  8
0
  6
DASHDOT
 62
   130
 10
-84.99969342947
 20
57.0006431251763
 30
0.0
 11
-84.99969342947
 21
47.0006431251763
 31
0.0
  0
LINE
  5
   3E3
  8
0
  6
DASHDOT
 62
   130
 10
-79.99969342947
 20
52.0006431251763
 30
0.0
 11
-89.99969342947
 21
52.0006431251763
 31
0.0
  0
TEXT
  5
   3E4
  8
0
  6
CONTINUOUS
 62
     2
 10
-106.904801982374
 20
35.8406066765418
 30
0.0
 40
3.00000002980232
  1
Y
 50
359.999999896069
 41
0.916666674282816
 72
     1
 11
-105.804801940918
 21
37.3406066894531
 31
0.0
 73
     2
  0
TEXT
  5
   3E5
  8
0
  6
CONTINUOUS
 62
     2
 10
-65.0684372362806
 20
67.1029453148474
 30
0.0
 40
3.00000002980232
  1
X
 50
359.999999896069
 41
0.916666674282816
 72
     1
 11
-63.9684371948242
 21
68.6029453277588
 31
0.0
 73
     2
  0
TEXT
  5
   3E6
  8
0
  6
CONTINUOUS
 62
     2
 10
-151.193112987013
 20
66.7964520325293
 30
0.0
 40
3.00000002980232
  1
X
 50
359.999999896069
 41
0.916666674282816
 72
     1
 11
-150.093112945557
 21
68.2964520454407
 31
0.0
 73
     2
  0
TEXT
  5
   3E7
  8
0
  6
CONTINUOUS
 62
     2
 10
-106.598308223219
 20
95.300348268949
 30
0.0
 40
3.00000002980232
  1
Y
 50
359.999999896069
 41
0.916666674282816
 72
     1
 11
-105.498308181763
 21
96.8003482818604
 31
0.0
 73
     2
  0
INSERT
  5
   3E8
  8
0
  6
CONTINUOUS
 62
     3
  2
*UDIM48
 10
0.0
 20
0.0
 30
0.0
  0
INSERT
  5
   3E9
  8
0
  6
CONTINUOUS
 62
     3
  2
*UDIM49
 10
0.0
 20
0.0
 30
0.0
  0
INSERT
  5
   3EA
  8
0
  6
CONTINUOUS
 62
     3
  2
*UDIM50
 10
0.0
 20
0.0
 30
0.0
  0
INSERT
  5
   3EB
  8
0
  6
CONTINUOUS
 62
     3
  2
*UDIM51
 10
0.0
 20
0.0
 30
0.0
  0
INSERT
  5
   3EC
  8
0
  6
CONTINUOUS
 62
     3
  2
*UDIM52
 10
0.0
 20
0.0
 30
0.0
  0
INSERT
  5
   3ED
  8
0
  6
CONTINUOUS
 62
     7
  2
*UDIM53
 10
0.0
 20
0.0
 30
0.0
  0
LINE
  5
   3EE
  8
0
  6
CONTINUOUS
 62
   130
 10
-262.776582272847
 20
-59.7446918487549
 30
0.0
 11
-250.761421203613
 21
-59.7446918487549
 31
0.0
  0
LINE
  5
   3EF
  8
0
  6
CONTINUOUS
 62
   130
 10
-262.776582272847
 20
60.2552928924561
 30
0.0
 11
-217.276596069336
 21
60.2552928924561
 31
0.0
  0
LINE
  5
   3F0
  8
0
  6
DOT
 62
   130
 10
-250.276596641541
 20
45.255292892449
 30
0.0
 11
-237.776596045494
 21
45.255292892449
 31
0.0
  0
LINE
  5
   3F1
  8
0
  6
CONTINUOUS
 62
   130
 10
-262.776582272847
 20
60.2552928924561
 30
0.0
 11
-262.776582272847
 21
38.7553081512451
 31
0.0
  0
LINE
  5
   3F2
  8
0
  6
CONTINUOUS
 62
   130
 10
-237.261421203613
 20
-44.2446765899658
 30
0.0
 11
-237.261421203613
 21
-55.7188106413783
 31
0.0
  0
LINE
  5
   3F3
  8
0
  6
CONTINUOUS
 62
   130
 10
-235.261421203613
 20
-44.2446765899658
 30
0.0
 11
-235.261421203613
 21
-56.7446918487549
 31
0.0
  0
LINE
  5
   3F4
  8
0
  6
CONTINUOUS
 62
   130
 10
-237.261421203613
 20
-55.7188106413783
 30
0.0
 11
-235.261421203613
 21
-55.7188106413783
 31
0.0
  0
LINE
  5
   3F5
  8
0
  6
DASHDOT
 62
   130
 10
-239.306843184573
 20
51.2552962066853
 30
0.0
 11
-214.27583170744
 21
51.2552962066853
 31
0.0
  0
LINE
  5
   3F6
  8
0
  6
DASHDOT
 62
   130
 10
-236.921419145285
 20
-50.7446765899541
 30
0.0
 11
-221.887176714812
 21
-50.7446765899541
 31
0.0
  0
LINE
  5
   3F7
  8
0
  6
CONTINUOUS
 62
   130
 10
-187.776595830917
 20
-18.068698281979
 30
0.0
 11
-172.411863348775
 21
-22.7116588349192
 31
0.0
  0
LINE
  5
   3F8
  8
0
  6
CONTINUOUS
 62
   130
 10
-172.411863348775
 20
-22.7116588349192
 30
0.0
 11
-172.242834113426
 21
-23.0089520782989
 31
0.0
  0
LINE
  5
   3F9
  8
0
  6
CONTINUOUS
 62
   130
 10
-172.24281348322
 20
-23.0089647031977
 30
0.0
 11
-172.240287886788
 21
-23.2597050834824
 31
0.0
  0
LINE
  5
   3FA
  8
0
  6
CONTINUOUS
 62
   130
 10
-172.240297147821
 20
-23.259696710031
 30
0.0
 11
-172.969220290079
 21
-26.1949636241626
 31
0.0
  0
LINE
  5
   3FB
  8
0
  6
CONTINUOUS
 62
   130
 10
-172.969214126895
 20
-26.1949587873533
 30
0.0
 11
-173.094477581557
 21
-26.4214454606467
 31
0.0
  0
LINE
  5
   3FC
  8
0
  6
CONTINUOUS
 62
   130
 10
-173.094471171316
 20
-26.4214533467943
 30
0.0
 11
-173.316197903553
 21
-26.5549636705165
 31
0.0
  0
LINE
  5
   3FD
  8
0
  6
CONTINUOUS
 62
   130
 10
-173.316174737463
 20
-26.5549636858046
 30
0.0
 11
-173.574950036136
 21
-26.5597244895309
 31
0.0
  0
LINE
  5
   3FE
  8
0
  6
CONTINUOUS
 62
   130
 10
-187.776595830917
 20
-23.0330709267229
 30
0.0
 11
-173.574975659186
 21
-26.559723399031
 31
0.0
  0
LINE
  5
   3FF
  8
0
  6
DOT
 62
   130
 10
-230.776596641541
 20
57.2552962066853
 30
0.0
 11
-230.776596641541
 21
54.2552962066853
 31
0.0
  0
LINE
  5
   400
  8
0
  6
DOT
 62
   130
 10
-248.276596641541
 20
57.2552962066853
 30
0.0
 11
-248.276596641541
 21
45.2552962066853
 31
0.0
  0
LINE
  5
   401
  8
0
  6
DOT
 62
   130
 10
-250.276596641541
 20
57.2552962066853
 30
0.0
 11
-250.276596641541
 21
45.2552962066853
 31
0.0
  0
LINE
  5
   402
  8
0
  6
DOT
 62
   130
 10
-250.276596641541
 20
57.2552962066853
 30
0.0
 11
-230.776596641541
 21
57.2552962066853
 31
0.0
  0
LINE
  5
   403
  8
0
  6
DOT
 62
   130
 10
-234.776596641541
 20
45.2552962066853
 30
0.0
 11
-230.776596641541
 21
45.2552962066853
 31
0.0
  0
LINE
  5
   404
  8
0
  6
CONTINUOUS
 62
   130
 10
-234.276596641541
 20
54.2552962066853
 30
0.0
 11
-234.776596641541
 21
53.7552962066853
 31
0.0
  0
LINE
  5
   405
  8
0
  6
CONTINUOUS
 62
   130
 10
-234.77659664154
 20
48.7552962066853
 30
0.0
 11
-234.276596641541
 21
48.2552962066853
 31
0.0
  0
LINE
  5
   406
  8
0
  6
DOT
 62
   130
 10
-234.276596641541
 20
54.2552962066853
 30
0.0
 11
-234.276596641541
 21
48.2552962066853
 31
0.0
  0
LINE
  5
   407
  8
0
  6
DOT
 62
   130
 10
-220.276596641541
 20
54.2552962066853
 30
0.0
 11
-220.276596641541
 21
48.2552962066853
 31
0.0
  0
LINE
  5
   408
  8
0
  6
DOT
 62
   130
 10
-230.776596641541
 20
48.2552962066853
 30
0.0
 11
-230.776596641541
 21
45.2552962066853
 31
0.0
  0
LINE
  5
   409
  8
0
  6
CONTINUOUS
 62
   130
 10
-231.261421203613
 20
-44.7446918487549
 30
0.0
 11
-231.261421203613
 21
-47.744679904195
 31
0.0
  0
LINE
  5
   40A
  8
0
  6
CONTINUOUS
 62
   130
 10
-248.761421203613
 20
-44.7446918487549
 30
0.0
 11
-248.761421203613
 21
-56.7446918487549
 31
0.0
  0
LINE
  5
   40B
  8
0
  6
CONTINUOUS
 62
   130
 10
-250.761421203613
 20
-44.7446918487549
 30
0.0
 11
-250.761421203613
 21
-56.7446918487549
 31
0.0
  0
LINE
  5
   40C
  8
0
  6
CONTINUOUS
 62
   130
 10
-250.761421203613
 20
-44.7446918487549
 30
0.0
 11
-235.261421203613
 21
-44.7446918487549
 31
0.0
  0
LINE
  5
   40D
  8
0
  6
CONTINUOUS
 62
   130
 10
-250.761421203613
 20
-56.7446918487549
 30
0.0
 11
-231.261421203613
 21
-56.7446918487549
 31
0.0
  0
LINE
  5
   40E
  8
0
  6
CONTINUOUS
 62
   130
 10
-235.261421203613
 20
-44.7446918487549
 30
0.0
 11
-231.261421203613
 21
-44.7446918487549
 31
0.0
  0
LINE
  5
   40F
  8
0
  6
CONTINUOUS
 62
   130
 10
-262.776582272847
 20
-18.9446918487549
 30
0.0
 11
-262.776582272847
 21
-59.7446918487549
 31
0.0
  0
INSERT
  5
   410
  8
0
  6
CONTINUOUS
 62
     3
  2
*HATCH25
 10
-139.529190063477
 20
-14.2446918487549
 30
0.0
 50
269.999999844103
  0
LINE
  5
   411
  8
0
  6
DOT
 62
   130
 10
-237.776583838461
 20
56.505291506992
 30
0.0
 11
-237.776583838461
 21
44.8053005218506
 31
0.0
  0
LINE
  5
   412
  8
0
  6
DOT
 62
   130
 10
-234.776584434508
 20
56.5052852630615
 30
0.0
 11
-234.776584434508
 21
44.3053005218506
 31
0.0
  0
LINE
  5
   413
  8
0
  6
DOT
 62
   130
 10
-237.776583837749
 20
56.5052984428086
 30
0.0
 11
-234.776584433982
 21
56.505277635363
 31
0.0
  0
LINE
  5
   414
  8
0
  6
CONTINUOUS
 62
   130
 10
-263.97659778595
 20
43.755296826479
 30
0.0
 11
-262.776582717896
 21
43.755296826479
 31
0.0
  0
LINE
  5
   415
  8
0
  6
CONTINUOUS
 62
   130
 10
-263.97659778595
 20
55.255296826479
 30
0.0
 11
-262.776582717896
 21
55.255296826479
 31
0.0
  0
LINE
  5
   416
  8
0
  6
CONTINUOUS
 62
   130
 10
-263.97659778595
 20
-56.7446917294292
 30
0.0
 11
-262.776582717896
 21
-56.7446917294292
 31
0.0
  0
LINE
  5
   417
  8
0
  6
DOT
 62
   130
 10
-263.044531941414
 20
11.755296826479
 30
0.0
 11
-262.776582717896
 21
11.755296826479
 31
0.0
  0
LINE
  5
   418
  8
0
  6
CONTINUOUS
 62
   130
 10
-263.97659778595
 20
55.255296826479
 30
0.0
 11
-263.97659778595
 21
33.4552189513803
 31
0.0
  0
LINE
  5
   419
  8
0
  6
CONTINUOUS
 62
   130
 10
-263.97659778595
 20
-36.2446726559429
 30
0.0
 11
-263.97659778595
 21
-56.7446879147319
 31
0.0
  0
LINE
  5
   41A
  8
0
  6
CONTINUOUS
 62
   130
 10
-262.776582717896
 20
55.2552930117818
 30
0.0
 11
-262.776582717896
 21
-56.7446917294292
 31
0.0
  0
LINE
  5
   41B
  8
0
  6
CONTINUOUS
 62
   130
 10
-265.176613426209
 20
32.4552785159322
 30
0.0
 11
-264.97659778595
 21
32.4552785159322
 31
0.0
  0
LINE
  5
   41C
  8
0
  6
CONTINUOUS
 62
   130
 10
-265.176613426209
 20
31.255296826479
 30
0.0
 11
-264.976597976685
 21
31.255296826479
 31
0.0
  0
LINE
  5
   41D
  8
0
  6
CONTINUOUS
 62
   130
 10
-270.77659702301
 20
32.4552785159322
 30
0.0
 11
-270.77659702301
 21
31.255296826479
 31
0.0
  0
LINE
  5
   41E
  8
0
  6
CONTINUOUS
 62
   130
 10
-270.77659702301
 20
11.255296826479
 30
0.0
 11
-270.77659702301
 21
10.0552998782368
 31
0.0
  0
LINE
  5
   41F
  8
0
  6
CONTINUOUS
 62
   130
 10
-270.77659702301
 20
-27.744703173521
 30
0.0
 11
-270.77659702301
 21
-32.744703173521
 31
0.0
  0
LINE
  5
   420
  8
0
  6
CONTINUOUS
 62
   130
 10
-270.77659702301
 20
-27.744703173521
 30
0.0
 11
-267.446455001831
 21
-27.744703173521
 31
0.0
  0
LINE
  5
   421
  8
0
  6
CONTINUOUS
 62
   130
 10
-267.446484443941
 20
-27.7447054558945
 30
0.0
 11
-266.776611906196
 21
-30.2447029374644
 31
0.0
  0
LINE
  5
   422
  8
0
  6
CONTINUOUS
 62
   130
 10
-266.77659702301
 20
-30.244703173521
 30
0.0
 11
-265.77659702301
 21
-30.244703173521
 31
0.0
  0
LINE
  5
   423
  8
0
  6
CONTINUOUS
 62
   130
 10
-265.77659702301
 20
5.25529682647903
 30
0.0
 11
-265.77659702301
 21
-30.244703173521
 31
0.0
  0
LINE
  5
   424
  8
0
  6
CONTINUOUS
 62
   130
 10
-266.77659702301
 20
5.25529682647903
 30
0.0
 11
-265.77659702301
 21
5.25529682647903
 31
0.0
  0
LINE
  5
   425
  8
0
  6
CONTINUOUS
 62
   130
 10
-270.776612619404
 20
6.32711325670601
 30
0.0
 11
-267.785981182609
 21
5.52576783846676
 31
0.0
  0
LINE
  5
   426
  8
0
  6
CONTINUOUS
 62
   130
 10
-270.77659702301
 20
8.25529682647903
 30
0.0
 11
-270.77659702301
 21
6.32710468780715
 31
0.0
  0
LINE
  5
   427
  8
0
  6
DOT
 62
   130
 10
-263.97659778595
 20
11.755296826479
 30
0.0
 11
-263.044531881809
 21
11.755296826479
 31
0.0
  0
LINE
  5
   428
  8
0
  6
CONTINUOUS
 62
   130
 10
-267.276582717896
 20
-36.2446926831035
 30
0.0
 11
-262.776582717896
 21
-36.2446926831035
 31
0.0
  0
LINE
  5
   429
  8
0
  6
CONTINUOUS
 62
   130
 10
-266.376567459106
 20
59.755296826479
 30
0.0
 11
-265.176613426209
 21
59.755296826479
 31
0.0
  0
LINE
  5
   42A
  8
0
  6
CONTINUOUS
 62
   130
 10
-265.176613426209
 20
5.25528156768996
 30
0.0
 11
-265.176613426209
 21
4.43376362335403
 31
0.0
  0
LINE
  5
   42B
  8
0
  6
CONTINUOUS
 62
   130
 10
-265.176613426209
 20
31.2552663089009
 30
0.0
 11
-265.176613426209
 21
5.25529682647903
 31
0.0
  0
LINE
  5
   42C
  8
0
  6
CONTINUOUS
 62
   130
 10
-265.176613426209
 20
59.755296826479
 30
0.0
 11
-265.176613426209
 21
31.255296826479
 31
0.0
  0
LINE
  5
   42D
  8
0
  6
CONTINUOUS
 62
   130
 10
-265.17654396407
 20
4.43376399308748
 30
0.0
 11
-267.337314067523
 21
0.69119379740382
 31
0.0
  0
LINE
  5
   42E
  8
0
  6
CONTINUOUS
 62
   130
 10
-268.376584622926
 20
1.29117489874159
 30
0.0
 11
-267.337393713533
 21
0.691191612186323
 31
0.0
  0
LINE
  5
   42F
  8
0
  6
CONTINUOUS
 62
   130
 10
-266.376597386551
 20
4.75528199886443
 30
0.0
 11
-268.376597336243
 21
1.29118609307255
 31
0.0
  0
LINE
  5
   430
  8
0
  6
CONTINUOUS
 62
   130
 10
-266.376567459106
 20
59.755296826479
 30
0.0
 11
-266.376567459106
 21
31.255296826479
 31
0.0
  0
LINE
  5
   431
  8
0
  6
CONTINUOUS
 62
   130
 10
-266.376567459106
 20
31.255296826479
 30
0.0
 11
-266.376567459106
 21
14.8263646383445
 31
0.0
  0
LINE
  5
   432
  8
0
  6
CONTINUOUS
 62
   130
 10
-266.376567459106
 20
5.55008137237746
 30
0.0
 11
-266.376567459106
 21
4.75529682647903
 31
0.0
  0
LINE
  5
   433
  8
0
  6
CONTINUOUS
 62
   130
 10
-265.176612854004
 20
-53.2446917294292
 30
0.0
 11
-264.97659778595
 21
-53.2446917294292
 31
0.0
  0
LINE
  5
   434
  8
0
  6
CONTINUOUS
 62
   130
 10
-265.176612854004
 20
-48.2446926831035
 30
0.0
 11
-264.97659778595
 21
-48.2446926831035
 31
0.0
  0
ARC
  5
   435
  8
0
  6
CONTINUOUS
 62
   130
 10
-267.276645935182
 20
8.25530451022751
 30
0.0
 40
3.49996037873244
 50
509.049876306511
 51
539.99994520259
  0
LINE
  5
   436
  8
0
  6
CONTINUOUS
 62
   130
 10
-266.476597976685
 20
32.4552785159322
 30
0.0
 11
-266.476597976685
 21
31.255296826479
 31
0.0
  0
LINE
  5
   437
  8
0
  6
CONTINUOUS
 62
   130
 10
-266.476597976685
 20
11.255296826479
 30
0.0
 11
-266.476597976685
 21
10.0552998782368
 31
0.0
  0
LINE
  5
   438
  8
0
  6
CONTINUOUS
 62
   130
 10
-265.07658290863
 20
32.4552785159322
 30
0.0
 11
-265.07658290863
 21
31.255296826479
 31
0.0
  0
LINE
  5
   439
  8
0
  6
CONTINUOUS
 62
   130
 10
-265.07658290863
 20
11.255296826479
 30
0.0
 11
-265.07658290863
 21
10.0552998782368
 31
0.0
  0
LINE
  5
   43A
  8
0
  6
CONTINUOUS
 62
   130
 10
-270.776596069336
 20
32.4552785159322
 30
0.0
 11
-266.476597976685
 21
32.4552785159322
 31
0.0
  0
LINE
  5
   43B
  8
0
  6
CONTINUOUS
 62
   130
 10
-270.776596069336
 20
31.255296826479
 30
0.0
 11
-266.476597976685
 21
31.255296826479
 31
0.0
  0
LINE
  5
   43C
  8
0
  6
CONTINUOUS
 62
   130
 10
-270.77659702301
 20
11.255296826479
 30
0.0
 11
-266.476597976685
 21
11.255296826479
 31
0.0
  0
LINE
  5
   43D
  8
0
  6
CONTINUOUS
 62
   130
 10
-270.77659702301
 20
10.0552998782368
 30
0.0
 11
-266.476597976685
 21
10.0552998782368
 31
0.0
  0
LINE
  5
   43E
  8
0
  6
CONTINUOUS
 62
   130
 10
-266.386618425521
 20
14.6849368083511
 30
0.0
 11
-266.852324258113
 21
11.4249959802078
 31
0.0
  0
LINE
  5
   43F
  8
0
  6
CONTINUOUS
 62
   130
 10
-265.186618616256
 20
14.5996540989685
 30
0.0
 11
-265.66438486572
 21
11.255290352723
 31
0.0
  0
LINE
  5
   440
  8
0
  6
CONTINUOUS
 62
   130
 10
-266.852324258113
 20
11.4249959802078
 30
0.0
 11
-265.664384865719
 21
11.255290352723
 31
0.0
  0
ARC
  5
   441
  8
0
  6
CONTINUOUS
 62
   130
 10
-267.376567459107
 20
14.8263646383445
 30
0.0
 40
1.0
 50
351.869897489947
 51
359.999999844103
  0
ARC
  5
   442
  8
0
  6
CONTINUOUS
 62
   130
 10
-266.176613426209
 20
14.7410819289619
 30
0.0
 40
1.0
 50
351.869897489947
 51
359.999999844103
  0
LINE
  5
   443
  8
0
  6
CONTINUOUS
 62
   130
 10
-265.176613426209
 20
11.255296826479
 30
0.0
 11
-264.976597976685
 21
11.255296826479
 31
0.0
  0
LINE
  5
   444
  8
0
  6
CONTINUOUS
 62
   130
 10
-265.176613426209
 20
10.0552998782368
 30
0.0
 11
-264.97659778595
 21
10.0552998782368
 31
0.0
  0
LINE
  5
   445
  8
0
  6
DOT
 62
   130
 10
-266.376567459106
 20
14.8263646383445
 30
0.0
 11
-266.376567459106
 21
11.3570372626879
 31
0.0
  0
LINE
  5
   446
  8
0
  6
CONTINUOUS
 62
   130
 10
-266.376567459106
 20
11.3570372626879
 30
0.0
 11
-266.376567459106
 21
5.55005265549163
 31
0.0
  0
LINE
  5
   447
  8
0
  6
CONTINUOUS
 62
   130
 10
-266.376567459106
 20
57.755296826479
 30
0.0
 11
-265.176613426209
 21
57.755296826479
 31
0.0
  0
LINE
  5
   448
  8
0
  6
CONTINUOUS
 62
   130
 10
-266.376567459106
 20
39.755296826479
 30
0.0
 11
-265.176613426209
 21
39.755296826479
 31
0.0
  0
LINE
  5
   449
  8
0
  6
CONTINUOUS
 62
   130
 10
-266.376567459106
 20
24.255296826479
 30
0.0
 11
-265.176613426209
 21
24.255296826479
 31
0.0
  0
LINE
  5
   44A
  8
0
  6
CONTINUOUS
 62
   130
 10
-266.376567459106
 20
17.255296826479
 30
0.0
 11
-265.176613426209
 21
17.255296826479
 31
0.0
  0
LINE
  5
   44B
  8
0
  6
CONTINUOUS
 62
   130
 10
-266.376567459106
 20
9.75529987823684
 30
0.0
 11
-265.176613426209
 21
9.75529987823684
 31
0.0
  0
INSERT
  5
   44C
  8
0
  6
CONTINUOUS
 62
     7
  2
*HATCH26
 10
-139.529190063477
 20
-14.2446918487549
 30
0.0
 50
269.999999844103
  0
INSERT
  5
   44D
  8
0
  6
CONTINUOUS
 62
     7
  2
*HATCH27
 10
-139.529190063477
 20
-14.2446918487549
 30
0.0
 50
269.999999844103
  0
INSERT
  5
   44E
  8
0
  6
CONTINUOUS
 62
     7
  2
*HATCH28
 10
-139.529190063477
 20
-14.2446918487549
 30
0.0
 50
269.999999844103
  0
ARC
  5
   44F
  8
0
  6
CONTINUOUS
 62
   130
 10
-264.97659778595
 20
9.05529987823684
 30
0.0
 40
1.0
 50
359.999999844103
 51
449.999999844103
  0
ARC
  5
   450
  8
0
  6
CONTINUOUS
 62
   130
 10
-264.976597976685
 20
9.05529682647902
 30
0.0
 40
2.19999904632568
 50
359.999999844103
 51
449.999999844103
  0
LINE
  5
   451
  8
0
  6
CONTINUOUS
 62
   130
 10
-265.176613426209
 20
11.755296826479
 30
0.0
 11
-263.97659778595
 21
11.755296826479
 31
0.0
  0
ARC
  5
   452
  8
0
  6
CONTINUOUS
 62
   130
 10
-267.276645935182
 20
8.25530451022751
 30
0.0
 40
3.49996037873244
 50
467.486019062348
 51
481.001855151888
  0
ARC
  5
   453
  8
0
  6
DOT
 62
   130
 10
-267.276645935182
 20
8.25530451022751
 30
0.0
 40
3.49996037873244
 50
481.001855151888
 51
509.049876306511
  0
ARC
  5
   454
  8
0
  6
CONTINUOUS
 62
   130
 10
-267.276645935182
 20
8.25530451022751
 30
0.0
 40
3.49996037873244
 50
449.999999844103
 51
467.486019062348
  0
LINE
  5
   455
  8
0
  6
CONTINUOUS
 62
   130
 10
-267.276595175266
 20
11.755296826479
 30
0.0
 11
-266.805154146467
 21
11.755296826479
 31
0.0
  0
LINE
  5
   456
  8
0
  6
CONTINUOUS
 62
   130
 10
-267.785981182609
 20
5.52576783846676
 30
0.0
 11
-266.776611086081
 21
5.25530518893763
 31
0.0
  0
ARC
  5
   457
  8
0
  6
CONTINUOUS
 62
   130
 10
-267.27665151822
 20
-32.7447212960424
 30
0.0
 40
3.49994520846391
 50
540.000159625357
 51
630.000829476908
  0
ARC
  5
   458
  8
0
  6
CONTINUOUS
 62
   130
 10
-264.976597976685
 20
33.45528156769
 30
0.0
 40
2.19999904632568
 50
269.999999844103
 51
359.999999844103
  0
LINE
  5
   459
  8
0
  6
DOT
 62
   130
 10
-263.97659778595
 20
11.0148885233716
 30
0.0
 11
-263.97659778595
 21
9.05529987823684
 31
0.0
  0
LINE
  5
   45A
  8
0
  6
CONTINUOUS
 62
   130
 10
-263.97659778595
 20
9.05529987823684
 30
0.0
 11
-263.97659778595
 21
-12.1435851610675
 31
0.0
  0
LINE
  5
   45B
  8
0
  6
CONTINUOUS
 62
   130
 10
-263.97659778595
 20
31.4957051295863
 30
0.0
 11
-263.97659778595
 21
11.0148885233716
 31
0.0
  0
LINE
  5
   45C
  8
0
  6
DOT
 62
   130
 10
-263.97659778595
 20
33.4552189513803
 30
0.0
 11
-263.97659778595
 21
31.4957051295863
 31
0.0
  0
LINE
  5
   45D
  8
0
  6
CONTINUOUS
 62
   130
 10
-263.97659778595
 20
-45.2446917294292
 30
0.0
 11
-262.776582717896
 21
-45.2446917294292
 31
0.0
  0
ARC
  5
   45E
  8
0
  6
CONTINUOUS
 62
   130
 10
-264.976598235119
 20
33.4553063495221
 30
0.0
 40
1.00003107655773
 50
270.00070276675
 51
359.997118270512
  0
ARC
  5
   45F
  8
0
  6
CONTINUOUS
 62
   130
 10
-264.976597833561
 20
-47.2446938268192
 30
0.0
 40
0.999999854264095
 50
270.000056701202
 51
359.999980612941
  0
ARC
  5
   460
  8
0
  6
CONTINUOUS
 62
   130
 10
-264.976596676039
 20
-54.2446901756531
 30
0.0
 40
0.999999781581745
 50
359.999963768781
 51
449.999994616734
  0
LINE
  5
   461
  8
0
  6
DASHDOT
 62
   130
 10
-266.488071713192
 20
-50.7446917294292
 30
0.0
 11
-261.524455549053
 21
-50.7446917294292
 31
0.0
  0
LINE
  5
   462
  8
0
  6
DOT
 62
   130
 10
-265.176612854004
 20
-49.2446917294292
 30
0.0
 11
-262.776582717896
 21
-49.2446917294292
 31
0.0
  0
LINE
  5
   463
  8
0
  6
DOT
 62
   130
 10
-265.176612854004
 20
-52.2446917294292
 30
0.0
 11
-262.776582717896
 21
-52.2446917294292
 31
0.0
  0
LINE
  5
   464
  8
0
  6
DOT
 62
   130
 10
-265.176612854004
 20
-48.7446917294292
 30
0.0
 11
-262.776582717896
 21
-48.7446917294292
 31
0.0
  0
LINE
  5
   465
  8
0
  6
DOT
 62
   130
 10
-265.176612854004
 20
-52.7446917294292
 30
0.0
 11
-262.776582717896
 21
-52.7446917294292
 31
0.0
  0
LINE
  5
   466
  8
0
  6
CONTINUOUS
 62
   130
 10
-265.176612854004
 20
-48.2446926831035
 30
0.0
 11
-265.176612854004
 21
-53.2446917294292
 31
0.0
  0
ARC
  5
   467
  8
0
  6
CONTINUOUS
 62
   130
 10
-264.976596676039
 20
52.7552914580057
 30
0.0
 40
0.999999781581745
 50
270.000005071472
 51
360.000035919426
  0
LINE
  5
   468
  8
0
  6
CONTINUOUS
 62
   130
 10
-265.176612854004
 20
51.7552930117818
 30
0.0
 11
-264.97659778595
 21
51.7552930117818
 31
0.0
  0
LINE
  5
   469
  8
0
  6
CONTINUOUS
 62
   130
 10
-265.176612854004
 20
51.7552930117818
 30
0.0
 11
-265.176612854004
 21
46.7552939654561
 31
0.0
  0
LINE
  5
   46A
  8
0
  6
CONTINUOUS
 62
   130
 10
-265.176612854004
 20
46.7552939654561
 30
0.0
 11
-264.97659778595
 21
46.7552939654561
 31
0.0
  0
ARC
  5
   46B
  8
0
  6
CONTINUOUS
 62
   130
 10
-264.976597833561
 20
45.7552951091718
 30
0.0
 40
0.999999854264095
 50
360.000019075265
 51
449.999888345491
  0
LINE
  5
   46C
  8
0
  6
DOT
 62
   130
 10
-265.176612854004
 20
47.2552930117818
 30
0.0
 11
-262.776582717896
 21
47.2552930117818
 31
0.0
  0
LINE
  5
   46D
  8
0
  6
DOT
 62
   130
 10
-265.176612854004
 20
47.7552930117818
 30
0.0
 11
-262.776582717896
 21
47.7552930117818
 31
0.0
  0
LINE
  5
   46E
  8
0
  6
DASHDOT
 62
   130
 10
-266.488071713192
 20
49.2552930117818
 30
0.0
 11
-261.524455549053
 21
49.2552930117818
 31
0.0
  0
LINE
  5
   46F
  8
0
  6
DOT
 62
   130
 10
-265.176612854004
 20
50.7552930117818
 30
0.0
 11
-262.776582717896
 21
50.7552930117818
 31
0.0
  0
LINE
  5
   470
  8
0
  6
DOT
 62
   130
 10
-265.176612854004
 20
51.2552930117818
 30
0.0
 11
-262.776582717896
 21
51.2552930117818
 31
0.0
  0
LINE
  5
   471
  8
0
  6
CONTINUOUS
 62
   130
 10
-265.176613426209
 20
15.755296826479
 30
0.0
 11
-263.456037174844
 21
15.755296826479
 31
0.0
  0
LINE
  5
   472
  8
0
  6
DASHDOT
 62
   130
 10
-268.026582813263
 20
33.8552090791503
 30
0.0
 11
-268.026582813263
 21
13.689675335532
 31
0.0
  0
LINE
  5
   473
  8
0
  6
DASHDOT
 62
   130
 10
-263.526582813263
 20
33.9817065065263
 30
0.0
 11
-263.526582813263
 21
14.1751309917469
 31
0.0
  0
CIRCLE
  5
   474
  8
0
  6
CONTINUOUS
 62
   130
 10
-268.026582813263
 20
16.949026826479
 30
0.0
 40
0.39999988079071
  0
CIRCLE
  5
   475
  8
0
  6
CONTINUOUS
 62
   130
 10
-268.026582813263
 20
18.549026826479
 30
0.0
 40
0.39999988079071
  0
CIRCLE
  5
   476
  8
0
  6
CONTINUOUS
 62
   130
 10
-268.026582813263
 20
20.149026826479
 30
0.0
 40
0.39999988079071
  0
CIRCLE
  5
   477
  8
0
  6
CONTINUOUS
 62
   130
 10
-268.026582813263
 20
21.7490115676899
 30
0.0
 40
0.39999988079071
  0
CIRCLE
  5
   478
  8
0
  6
CONTINUOUS
 62
   130
 10
-268.026582813263
 20
23.34901156769
 30
0.0
 40
0.39999988079071
  0
CIRCLE
  5
   479
  8
0
  6
CONTINUOUS
 62
   130
 10
-268.026582813263
 20
24.949026826479
 30
0.0
 40
0.39999988079071
  0
CIRCLE
  5
   47A
  8
0
  6
CONTINUOUS
 62
   130
 10
-268.026582813263
 20
26.549026826479
 30
0.0
 40
0.39999988079071
  0
CIRCLE
  5
   47B
  8
0
  6
CONTINUOUS
 62
   130
 10
-268.026582813263
 20
28.149026826479
 30
0.0
 40
0.39999988079071
  0
CIRCLE
  5
   47C
  8
0
  6
CONTINUOUS
 62
   130
 10
-268.026582813263
 20
29.7490115676899
 30
0.0
 40
0.39999988079071
  0
ARC
  5
   47D
  8
0
  6
CONTINUOUS
 62
   130
 10
-268.026582813263
 20
31.3490115676899
 30
0.0
 40
0.39999988079071
 50
553.551673104685
 51
629.99994520259
  0
CIRCLE
  5
   47E
  8
0
  6
CONTINUOUS
 62
   130
 10
-263.526582813263
 20
17.74901156769
 30
0.0
 40
0.39999988079071
  0
ARC
  5
   47F
  8
0
  6
CONTINUOUS
 62
   130
 10
-263.526582813263
 20
16.149026826479
 30
0.0
 40
0.39999988079071
 50
280.158049687986
 51
619.841895358707
  0
CIRCLE
  5
   480
  8
0
  6
CONTINUOUS
 62
   130
 10
-263.526582813263
 20
19.34901156769
 30
0.0
 40
0.39999988079071
  0
CIRCLE
  5
   481
  8
0
  6
CONTINUOUS
 62
   130
 10
-263.526582813263
 20
20.949026826479
 30
0.0
 40
0.39999988079071
  0
CIRCLE
  5
   482
  8
0
  6
CONTINUOUS
 62
   130
 10
-263.526582813263
 20
22.549026826479
 30
0.0
 40
0.39999988079071
  0
CIRCLE
  5
   483
  8
0
  6
CONTINUOUS
 62
   130
 10
-263.526582813263
 20
24.149026826479
 30
0.0
 40
0.39999988079071
  0
CIRCLE
  5
   484
  8
0
  6
CONTINUOUS
 62
   130
 10
-263.526582813263
 20
25.7490115676899
 30
0.0
 40
0.39999988079071
  0
CIRCLE
  5
   485
  8
0
  6
CONTINUOUS
 62
   130
 10
-263.526582813263
 20
27.3490115676899
 30
0.0
 40
0.39999988079071
  0
LINE
  5
   486
  8
0
  6
CONTINUOUS
 62
   130
 10
-263.596578924236
 20
16.5428448187519
 30
0.0
 11
-265.17659573218
 21
16.2619529417842
 31
0.0
  0
LINE
  5
   487
  8
0
  6
CONTINUOUS
 62
   130
 10
-263.456567279694
 20
17.3551921417265
 30
0.0
 11
-265.176610755412
 21
17.0494066349322
 31
0.0
  0
LINE
  5
   488
  8
0
  6
CONTINUOUS
 62
   130
 10
-263.596596618265
 20
18.1428571711868
 30
0.0
 11
-265.176568356513
 21
17.8619733066093
 31
0.0
  0
LINE
  5
   489
  8
0
  6
CONTINUOUS
 62
   130
 10
-263.456599996954
 20
18.9552018233646
 30
0.0
 11
-265.176583379745
 21
18.6494269997573
 31
0.0
  0
LINE
  5
   48A
  8
0
  6
CONTINUOUS
 62
   130
 10
-263.596623993931
 20
19.7428368063618
 30
0.0
 11
-265.176580708948
 21
19.4619556125809
 31
0.0
  0
LINE
  5
   48B
  8
0
  6
CONTINUOUS
 62
   130
 10
-263.456567279694
 20
20.5551921417265
 30
0.0
 11
-265.17659573218
 21
20.249409305729
 31
0.0
  0
LINE
  5
   48C
  8
0
  6
CONTINUOUS
 62
   130
 10
-263.596593947468
 20
21.3428421479552
 30
0.0
 11
-265.176610755412
 21
21.0619502709874
 31
0.0
  0
LINE
  5
   48D
  8
0
  6
CONTINUOUS
 62
   130
 10
-263.456584973722
 20
22.1552044941614
 30
0.0
 11
-265.176568356513
 21
21.849429670554
 31
0.0
  0
LINE
  5
   48E
  8
0
  6
CONTINUOUS
 62
   130
 10
-263.596611641496
 20
22.9428545003901
 30
0.0
 11
-265.176583379745
 21
22.6619706358125
 31
0.0
  0
LINE
  5
   48F
  8
0
  6
CONTINUOUS
 62
   130
 10
-263.456554927259
 20
23.7552098357548
 30
0.0
 11
-265.176583379745
 21
23.4494269997573
 31
0.0
  0
LINE
  5
   490
  8
0
  6
CONTINUOUS
 62
   130
 10
-263.596578924236
 20
24.5428448187519
 30
0.0
 11
-265.17659573218
 21
24.2619529417842
 31
0.0
  0
LINE
  5
   491
  8
0
  6
CONTINUOUS
 62
   130
 10
-263.456567279694
 20
25.3551921417265
 30
0.0
 11
-265.176610755412
 21
25.0494066349322
 31
0.0
  0
LINE
  5
   492
  8
0
  6
CONTINUOUS
 62
   130
 10
-263.596596618265
 20
26.1428571711868
 30
0.0
 11
-265.176568356514
 21
25.8619733066092
 31
0.0
  0
LINE
  5
   493
  8
0
  6
CONTINUOUS
 62
   130
 10
-263.456599996954
 20
26.9552018233646
 30
0.0
 11
-265.176583379745
 21
26.6494269997573
 31
0.0
  0
LINE
  5
   494
  8
0
  6
CONTINUOUS
 62
   130
 10
-263.596623993931
 20
27.7428368063617
 30
0.0
 11
-265.176580708948
 21
27.4619556125809
 31
0.0
  0
LINE
  5
   495
  8
0
  6
CONTINUOUS
 62
   130
 10
-263.456552256462
 20
28.5551948125232
 30
0.0
 11
-265.17659573218
 21
28.249409305729
 31
0.0
  0
LINE
  5
   496
  8
0
  6
CONTINUOUS
 62
   130
 10
-263.596581595033
 20
29.3428598419835
 30
0.0
 11
-265.176613426208
 21
29.061965294219
 31
0.0
  0
LINE
  5
   497
  8
0
  6
CONTINUOUS
 62
   130
 10
-263.456584973722
 20
30.1552044941614
 30
0.0
 11
-265.176568356513
 21
29.849429670554
 31
0.0
  0
LINE
  5
   498
  8
0
  6
CONTINUOUS
 62
   130
 10
-263.5966089707
 20
30.9428394771585
 30
0.0
 11
-265.176565685717
 21
30.6619582833776
 31
0.0
  0
LINE
  5
   499
  8
0
  6
CONTINUOUS
 62
   130
 10
-266.376580518213
 20
31.2360786771008
 30
0.0
 11
-267.956552256462
 21
30.9551948125232
 31
0.0
  0
CIRCLE
  5
   49A
  8
0
  6
CONTINUOUS
 62
   130
 10
-263.526582813263
 20
28.949026826479
 30
0.0
 40
0.39999988079071
  0
CIRCLE
  5
   49B
  8
0
  6
CONTINUOUS
 62
   130
 10
-263.526582813263
 20
30.549026826479
 30
0.0
 40
0.39999988079071
  0
ARC
  5
   49C
  8
0
  6
CONTINUOUS
 62
   130
 10
-268.026582813263
 20
31.3490115676899
 30
0.0
 40
0.39999988079071
 50
269.999999844103
 51
346.448162658981
  0
LINE
  5
   49D
  8
0
  6
CONTINUOUS
 62
   130
 10
-266.376565494982
 20
30.4486249839527
 30
0.0
 11
-268.0966089707
 21
30.1428394771585
 31
0.0
  0
LINE
  5
   49E
  8
0
  6
CONTINUOUS
 62
   130
 10
-266.376568165779
 20
29.6360963711291
 30
0.0
 11
-267.956584973722
 21
29.3552044941614
 31
0.0
  0
LINE
  5
   49F
  8
0
  6
CONTINUOUS
 62
   130
 10
-266.376613235473
 20
28.8486319947941
 30
0.0
 11
-268.096581595033
 21
28.5428598419836
 31
0.0
  0
LINE
  5
   4A0
  8
0
  6
CONTINUOUS
 62
   130
 10
-266.376595541445
 20
28.036076006304
 30
0.0
 11
-267.956552256462
 21
27.7551948125232
 31
0.0
  0
LINE
  5
   4A1
  8
0
  6
CONTINUOUS
 62
   130
 10
-266.376580518213
 20
27.248622313156
 30
0.0
 11
-268.096623993931
 21
26.9428368063617
 31
0.0
  0
LINE
  5
   4A2
  8
0
  6
CONTINUOUS
 62
   130
 10
-266.376568165779
 20
26.4360963711291
 30
0.0
 11
-267.956599996954
 21
26.1552018233646
 31
0.0
  0
LINE
  5
   4A3
  8
0
  6
CONTINUOUS
 62
   130
 10
-266.376613235473
 20
25.6486319947941
 30
0.0
 11
-268.096596618265
 21
25.3428571711868
 31
0.0
  0
LINE
  5
   4A4
  8
0
  6
CONTINUOUS
 62
   130
 10
-266.376610564677
 20
24.8360733355073
 30
0.0
 11
-267.956567279694
 21
24.5551921417265
 31
0.0
  0
LINE
  5
   4A5
  8
0
  6
CONTINUOUS
 62
   130
 10
-266.376595541445
 20
24.0486196423593
 30
0.0
 11
-268.096578924236
 21
23.7428448187519
 31
0.0
  0
LINE
  5
   4A6
  8
0
  6
CONTINUOUS
 62
   130
 10
-266.37658318901
 20
23.2360937003324
 30
0.0
 11
-267.956554927259
 21
22.9552098357548
 31
0.0
  0
LINE
  5
   4A7
  8
0
  6
CONTINUOUS
 62
   130
 10
-266.376568165779
 20
22.4486400071844
 30
0.0
 11
-268.096611641496
 21
22.1428545003901
 31
0.0
  0
LINE
  5
   4A8
  8
0
  6
CONTINUOUS
 62
   130
 10
-266.376568165779
 20
21.6360963711291
 30
0.0
 11
-267.956584973722
 21
21.3552044941614
 31
0.0
  0
LINE
  5
   4A9
  8
0
  6
CONTINUOUS
 62
   130
 10
-266.376610564677
 20
20.8486169715625
 30
0.0
 11
-268.096578924236
 21
20.5428448187519
 31
0.0
  0
LINE
  5
   4AA
  8
0
  6
CONTINUOUS
 62
   130
 10
-266.376595541445
 20
20.0360760063041
 30
0.0
 11
-267.956552256462
 21
19.7551948125232
 31
0.0
  0
LINE
  5
   4AB
  8
0
  6
CONTINUOUS
 62
   130
 10
-266.376580518213
 20
19.248622313156
 30
0.0
 11
-268.096623993931
 21
18.9428368063618
 31
0.0
  0
LINE
  5
   4AC
  8
0
  6
CONTINUOUS
 62
   130
 10
-266.376568165779
 20
18.4360963711292
 30
0.0
 11
-267.956599996954
 21
18.1552018233647
 31
0.0
  0
LINE
  5
   4AD
  8
0
  6
CONTINUOUS
 62
   130
 10
-266.376568165779
 20
17.6486400071844
 30
0.0
 11
-268.096596618265
 21
17.3428571711868
 31
0.0
  0
LINE
  5
   4AE
  8
0
  6
CONTINUOUS
 62
   130
 10
-266.376610564677
 20
16.8360733355073
 30
0.0
 11
-267.956567279694
 21
16.5551921417265
 31
0.0
  0
LINE
  5
   4AF
  8
0
  6
CONTINUOUS
 62
   130
 10
-266.376595541445
 20
16.0486196423593
 30
0.0
 11
-268.026620886449
 21
15.7552818032474
 31
0.0
  0
LINE
  5
   4B0
  8
0
  6
CONTINUOUS
 62
   130
 10
-268.026593039668
 20
15.755296826479
 30
0.0
 11
-266.376567459106
 21
15.755296826479
 31
0.0
  0
INSERT
  5
   4B1
  8
0
  6
CONTINUOUS
 62
     3
  2
*HATCH29
 10
-139.529190063477
 20
-14.2446918487549
 30
0.0
 50
269.999999844103
  0
INSERT
  5
   4B2
  8
0
  6
CONTINUOUS
 62
     3
  2
*HATCH30
 10
-139.529190063477
 20
-14.2446918487549
 30
0.0
 50
269.999999844103
  0
INSERT
  5
   4B3
  8
0
  6
CONTINUOUS
 62
     3
  2
*HATCH31
 10
-139.529190063477
 20
-14.2446918487549
 30
0.0
 50
269.999999844103
  0
INSERT
  5
   4B4
  8
0
  6
CONTINUOUS
 62
     3
  2
*HATCH32
 10
-139.529190063477
 20
-14.2446918487549
 30
0.0
 50
269.999999844103
  0
INSERT
  5
   4B5
  8
0
  6
CONTINUOUS
 62
     3
  2
*HATCH33
 10
-139.529190063477
 20
-14.2446918487549
 30
0.0
 50
269.999999844103
  0
INSERT
  5
   4B6
  8
0
  6
CONTINUOUS
 62
     3
  2
*HATCH34
 10
-139.529190063477
 20
-14.2446918487549
 30
0.0
 50
269.999999844103
  0
INSERT
  5
   4B7
  8
0
  6
CONTINUOUS
 62
     3
  2
*HATCH35
 10
-139.529190063477
 20
-14.2446918487549
 30
0.0
 50
269.999999844103
  0
INSERT
  5
   4B8
  8
0
  6
CONTINUOUS
 62
     3
  2
*HATCH36
 10
-139.529190063477
 20
-14.2446918487549
 30
0.0
 50
269.999999844103
  0
INSERT
  5
   4B9
  8
0
  6
CONTINUOUS
 62
     3
  2
*HATCH37
 10
-139.529190063477
 20
-14.2446918487549
 30
0.0
 50
269.999999844103
  0
INSERT
  5
   4BA
  8
0
  6
CONTINUOUS
 62
     3
  2
*HATCH38
 10
-139.529190063477
 20
-14.2446918487549
 30
0.0
 50
269.999999844103
  0
INSERT
  5
   4BB
  8
0
  6
CONTINUOUS
 62
     3
  2
*HATCH39
 10
-139.529190063477
 20
-14.2446918487549
 30
0.0
 50
269.999999844103
  0
POLYLINE
  5
   4BC
  8
0
  6
CONTINUOUS
 62
   130
 66
     1
 10
0.0
 20
0.0
 30
0.0
  0
VERTEX
  5
   4BD
  8
0
  6
CONTINUOUS
 10
-262.776508755812
 20
-11.8373167305633
 30
0.0
 40
0.0
 41
0.0
  0
VERTEX
  5
   4BE
  8
0
  6
CONTINUOUS
 10
-262.877608707719
 20
-11.8213068819626
 30
0.0
 40
0.0
 41
0.0
  0
VERTEX
  5
   4BF
  8
0
  6
CONTINUOUS
 10
-262.977586901825
 20
-11.8086513562661
 30
0.0
 40
0.0
 41
0.0
  0
VERTEX
  5
   4C0
  8
0
  6
CONTINUOUS
 10
-263.027122352944
 20
-11.8039532214572
 30
0.0
 40
0.0
 41
0.0
  0
VERTEX
  5
   4C1
  8
0
  6
CONTINUOUS
 10
-263.125764910365
 20
-11.7985638449322
 30
0.0
 40
0.0
 41
0.0
  0
VERTEX
  5
   4C2
  8
0
  6
CONTINUOUS
 10
-263.223159660489
 20
-11.7996236590907
 30
0.0
 40
0.0
 41
0.0
  0
VERTEX
  5
   4C3
  8
0
  6
CONTINUOUS
 10
-263.271409814591
 20
-11.8029484720718
 30
0.0
 40
0.0
 41
0.0
  0
VERTEX
  5
   4C4
  8
0
  6
CONTINUOUS
 10
-263.319379064572
 20
-11.8083249256794
 30
0.0
 40
0.0
 41
0.0
  0
VERTEX
  5
   4C5
  8
0
  6
CONTINUOUS
 10
-263.367083252592
 20
-11.8158824386896
 30
0.0
 40
0.0
 41
0.0
  0
VERTEX
  5
   4C6
  8
0
  6
CONTINUOUS
 10
-263.414539886944
 20
-11.8257381290262
 30
0.0
 40
0.0
 41
0.0
  0
VERTEX
  5
   4C7
  8
0
  6
CONTINUOUS
 10
-263.461767590646
 20
-11.8379944688786
 30
0.0
 40
0.0
 41
0.0
  0
VERTEX
  5
   4C8
  8
0
  6
CONTINUOUS
 10
-263.508785550039
 20
-11.8527369398203
 30
0.0
 40
0.0
 41
0.0
  0
VERTEX
  5
   4C9
  8
0
  6
CONTINUOUS
 10
-263.555612963377
 20
-11.8700316879269
 30
0.0
 40
0.0
 41
0.0
  0
VERTEX
  5
   4CA
  8
0
  6
CONTINUOUS
 10
-263.602268489426
 20
-11.8899231788939
 30
0.0
 40
0.0
 41
0.0
  0
VERTEX
  5
   4CB
  8
0
  6
CONTINUOUS
 10
-263.648769696058
 20
-11.9124318531555
 30
0.0
 40
0.0
 41
0.0
  0
VERTEX
  5
   4CC
  8
0
  6
CONTINUOUS
 10
-263.695132508843
 20
-11.9375517810023
 30
0.0
 40
0.0
 41
0.0
  0
VERTEX
  5
   4CD
  8
0
  6
CONTINUOUS
 10
-263.741370659646
 20
-11.9652483176996
 30
0.0
 40
0.0
 41
0.0
  0
VERTEX
  5
   4CE
  8
0
  6
CONTINUOUS
 10
-263.787495135224
 20
-11.9954557586053
 30
0.0
 40
0.0
 41
0.0
  0
VERTEX
  5
   4CF
  8
0
  6
CONTINUOUS
 10
-263.879429973736
 20
-12.0629711656474
 30
0.0
 40
0.0
 41
0.0
  0
VERTEX
  5
   4D0
  8
0
  6
CONTINUOUS
 10
-263.970949062807
 20
-12.1388620613393
 30
0.0
 40
0.0
 41
0.0
  0
VERTEX
  5
   4D1
  8
0
  6
CONTINUOUS
 10
-264.0762333954
 20
-12.234614921287
 30
0.0
 40
0.0
 41
0.0
  0
VERTEX
  5
   4D2
  8
0
  6
CONTINUOUS
 10
-264.283799195517
 20
-12.4352449374836
 30
0.0
 40
0.0
 41
0.0
  0
VERTEX
  5
   4D3
  8
0
  6
CONTINUOUS
 10
-264.385315332157
 20
-12.5298543017303
 30
0.0
 40
0.0
 41
0.0
  0
VERTEX
  5
   4D4
  8
0
  6
CONTINUOUS
 10
-264.435327742606
 20
-12.573342121498
 30
0.0
 40
0.0
 41
0.0
  0
VERTEX
  5
   4D5
  8
0
  6
CONTINUOUS
 10
-264.484780914026
 20
-12.6133925390875
 30
0.0
 40
0.0
 41
0.0
  0
VERTEX
  5
   4D6
  8
0
  6
CONTINUOUS
 10
-264.53363527926
 20
-12.6493724303159
 30
0.0
 40
0.0
 41
0.0
  0
VERTEX
  5
   4D7
  8
0
  6
CONTINUOUS
 10
-264.58185913769
 20
-12.6806928774787
 30
0.0
 40
0.0
 41
0.0
  0
VERTEX
  5
   4D8
  8
0
  6
CONTINUOUS
 10
-264.629430521899
 20
-12.7068216772335
 30
0.0
 40
0.0
 41
0.0
  0
VERTEX
  5
   4D9
  8
0
  6
CONTINUOUS
 10
-264.676339064342
 20
-12.7272958484829
 30
0.0
 40
0.0
 41
0.0
  0
VERTEX
  5
   4DA
  8
0
  6
CONTINUOUS
 10
-264.722587863999
 20
-12.7417341402586
 30
0.0
 40
0.0
 41
0.0
  0
VERTEX
  5
   4DB
  8
0
  6
CONTINUOUS
 10
-264.768195353048
 20
-12.7498495396044
 30
0.0
 40
0.0
 41
0.0
  0
VERTEX
  5
   4DC
  8
0
  6
CONTINUOUS
 10
-264.813197163525
 20
-12.7514617794596
 30
0.0
 40
0.0
 41
0.0
  0
VERTEX
  5
   4DD
  8
0
  6
CONTINUOUS
 10
-264.857647993986
 20
-12.7465098465426
 30
0.0
 40
0.0
 41
0.0
  0
VERTEX
  5
   4DE
  8
0
  6
CONTINUOUS
 10
-264.901623476173
 20
-12.7350644892346
 30
0.0
 40
0.0
 41
0.0
  0
VERTEX
  5
   4DF
  8
0
  6
CONTINUOUS
 10
-264.945222041678
 20
-12.7173407254622
 30
0.0
 40
0.0
 41
0.0
  0
VERTEX
  5
   4E0
  8
0
  6
CONTINUOUS
 10
-264.973591792806
 20
-12.7025237932163
 30
0.0
 40
0.0
 41
0.0
  0
VERTEX
  5
   4E1
  8
0
  6
CONTINUOUS
 10
-265.030166085503
 20
-12.6658936407317
 30
0.0
 40
0.0
 41
0.0
  0
VERTEX
  5
   4E2
  8
0
  6
CONTINUOUS
 10
-265.058462759703
 20
-12.644443666738
 30
0.0
 40
0.0
 41
0.0
  0
VERTEX
  5
   4E3
  8
0
  6
CONTINUOUS
 10
-265.115325756964
 20
-12.5963476136272
 30
0.0
 40
0.0
 41
0.0
  0
VERTEX
  5
   4E4
  8
0
  6
CONTINUOUS
 10
-265.172899661708
 20
-12.5429532369268
 30
0.0
 40
0.0
 41
0.0
  0
VERTEX
  5
   4E5
  8
0
  6
CONTINUOUS
 10
-265.291852201143
 20
-12.428812522058
 30
0.0
 40
0.0
 41
0.0
  0
VERTEX
  5
   4E6
  8
0
  6
CONTINUOUS
 10
-265.353991474252
 20
-12.3724579223664
 30
0.0
 40
0.0
 41
0.0
  0
VERTEX
  5
   4E7
  8
0
  6
CONTINUOUS
 10
-265.418314017798
 20
-12.3193850542788
 30
0.0
 40
0.0
 41
0.0
  0
VERTEX
  5
   4E8
  8
0
  6
CONTINUOUS
 10
-265.485014729416
 20
-12.2714523219009
 30
0.0
 40
0.0
 41
0.0
  0
VERTEX
  5
   4E9
  8
0
  6
CONTINUOUS
 10
-265.554170315616
 20
-12.2302000637015
 30
0.0
 40
0.0
 41
0.0
  0
VERTEX
  5
   4EA
  8
0
  6
CONTINUOUS
 10
-265.597160241765
 20
-12.2089879615971
 30
0.0
 40
0.0
 41
0.0
  0
VERTEX
  5
   4EB
  8
0
  6
CONTINUOUS
 10
-265.640983478527
 20
-12.190801250879
 30
0.0
 40
0.0
 41
0.0
  0
VERTEX
  5
   4EC
  8
0
  6
CONTINUOUS
 10
-265.685578036553
 20
-12.175739236717
 30
0.0
 40
0.0
 41
0.0
  0
VERTEX
  5
   4ED
  8
0
  6
CONTINUOUS
 10
-265.730864703077
 20
-12.163844520899
 30
0.0
 40
0.0
 41
0.0
  0
VERTEX
  5
   4EE
  8
0
  6
CONTINUOUS
 10
-265.776749622041
 20
-12.1551095195016
 30
0.0
 40
0.0
 41
0.0
  0
SEQEND
  5
   4EF
  8
0
  6
CONTINUOUS
 62
   130
  0
LINE
  5
   4F0
  8
0
  6
DOT
 62
   130
 10
-263.97659778595
 20
-12.1435851610675
 30
0.0
 11
-263.97659778595
 21
-36.2446926831035
 31
0.0
  0
LINE
  5
   4F1
  8
0
  6
CONTINUOUS
 62
   130
 10
-266.676612854004
 20
32.4552785159322
 30
0.0
 11
-266.376567459106
 21
32.4552785159322
 31
0.0
  0
LINE
  5
   4F2
  8
0
  6
CONTINUOUS
 62
   130
 10
-266.676612854004
 20
31.255296826479
 30
0.0
 11
-266.376567459106
 21
31.255296826479
 31
0.0
  0
LINE
  5
   4F3
  8
0
  6
CONTINUOUS
 62
   130
 10
-266.476597976685
 20
11.255296826479
 30
0.0
 11
-266.376567459106
 21
11.255296826479
 31
0.0
  0
LINE
  5
   4F4
  8
0
  6
CONTINUOUS
 62
   130
 10
-266.476597976685
 20
10.0552998782368
 30
0.0
 11
-266.376567459106
 21
10.0552998782368
 31
0.0
  0
LINE
  5
   4F5
  8
0
  6
CONTINUOUS
 62
   130
 10
-266.805154146467
 20
11.755296826479
 30
0.0
 11
-266.376567459106
 21
11.755296826479
 31
0.0
  0
LINE
  5
   4F6
  8
0
  6
DOT
 62
   130
 10
-266.376567459106
 20
11.755296826479
 30
0.0
 11
-265.176613426209
 21
11.755296826479
 31
0.0
  0
INSERT
  5
   4F7
  8
0
  6
CONTINUOUS
 62
     7
  2
*HATCH40
 10
-139.529190063477
 20
-14.2446918487549
 30
0.0
 50
269.999999844103
  0
INSERT
  5
   4F8
  8
0
  6
CONTINUOUS
 62
     7
  2
*HATCH41
 10
-139.529190063477
 20
-14.2446918487549
 30
0.0
 50
269.999999844103
  0
INSERT
  5
   4F9
  8
0
  6
CONTINUOUS
 62
     7
  2
*HATCH42
 10
-139.529190063477
 20
-14.2446918487549
 30
0.0
 50
269.999999844103
  0
INSERT
  5
   4FA
  8
0
  6
CONTINUOUS
 62
     7
  2
*HATCH43
 10
-139.529190063477
 20
-14.2446918487549
 30
0.0
 50
269.999999844103
  0
INSERT
  5
   4FB
  8
0
  6
CONTINUOUS
 62
     3
  2
*HATCH44
 10
-139.529190063477
 20
-14.2446918487549
 30
0.0
 50
269.999999844103
  0
INSERT
  5
   4FC
  8
0
  6
CONTINUOUS
 62
     3
  2
*HATCH45
 10
-139.529190063477
 20
-14.2446918487549
 30
0.0
 50
269.999999844103
  0
INSERT
  5
   4FD
  8
0
  6
CONTINUOUS
 62
     3
  2
*HATCH46
 10
-139.529190063477
 20
-14.2446918487549
 30
0.0
 50
269.999999844103
  0
INSERT
  5
   4FE
  8
0
  6
CONTINUOUS
 62
     3
  2
*HATCH47
 10
-139.529190063477
 20
-14.2446918487549
 30
0.0
 50
269.999999844103
  0
INSERT
  5
   4FF
  8
0
  6
CONTINUOUS
 62
     3
  2
*HATCH48
 10
-139.529190063477
 20
-14.2446918487549
 30
0.0
 50
269.999999844103
  0
INSERT
  5
   500
  8
0
  6
CONTINUOUS
 62
     3
  2
*HATCH49
 10
-139.529190063477
 20
-14.2446918487549
 30
0.0
 50
269.999999844103
  0
INSERT
  5
   501
  8
0
  6
CONTINUOUS
 62
     3
  2
*HATCH50
 10
-139.529190063477
 20
-14.2446918487549
 30
0.0
 50
269.999999844103
  0
INSERT
  5
   502
  8
0
  6
CONTINUOUS
 62
     3
  2
*HATCH51
 10
-139.529190063477
 20
-14.2446918487549
 30
0.0
 50
269.999999844103
  0
INSERT
  5
   503
  8
0
  6
CONTINUOUS
 62
     3
  2
*HATCH52
 10
-139.529190063477
 20
-14.2446918487549
 30
0.0
 50
269.999999844103
  0
INSERT
  5
   504
  8
0
  6
CONTINUOUS
 62
     3
  2
*HATCH53
 10
-139.529190063477
 20
-14.2446918487549
 30
0.0
 50
269.999999844103
  0
INSERT
  5
   505
  8
0
  6
CONTINUOUS
 62
     3
  2
*HATCH54
 10
-139.529190063477
 20
-14.2446918487549
 30
0.0
 50
269.999999844103
  0
LINE
  5
   506
  8
0
  6
CONTINUOUS
 62
   130
 10
-192.776611089706
 20
-34.2446765899658
 30
0.0
 11
-192.776611089706
 21
-42.7446918487549
 31
0.0
  0
LINE
  5
   507
  8
0
  6
CONTINUOUS
 62
   130
 10
-192.776611414362
 20
-34.2446765899658
 30
0.0
 11
-187.776595830917
 21
-34.2446765899658
 31
0.0
  0
LINE
  5
   508
  8
0
  6
CONTINUOUS
 62
   130
 10
-217.276595830917
 20
60.2553081512451
 30
0.0
 11
-196.276611089706
 21
60.2553081512451
 31
0.0
  0
LINE
  5
   509
  8
0
  6
CONTINUOUS
 62
   130
 10
-217.27660185414
 20
-59.7446765899512
 30
0.0
 11
-196.276611089706
 21
-59.7446765899512
 31
0.0
  0
LINE
  5
   50A
  8
0
  6
DASHDOT
 62
   130
 10
-219.476763471751
 20
51.2553137586898
 30
0.0
 11
-192.608621872777
 21
51.2553137586898
 31
0.0
  0
LINE
  5
   50B
  8
0
  6
CONTINUOUS
 62
   130
 10
-192.776596155573
 20
10.7553234100342
 30
0.0
 11
-187.776595830917
 21
10.7553234100342
 31
0.0
  0
LINE
  5
   50C
  8
0
  6
CONTINUOUS
 62
   130
 10
-192.776595830917
 20
43.2553081512451
 30
0.0
 11
-192.776595830917
 21
10.7553234100342
 31
0.0
  0
LINE
  5
   50D
  8
0
  6
CONTINUOUS
 62
   130
 10
-187.776595830917
 20
10.7553234100342
 30
0.0
 11
-187.776595830917
 21
-34.2446765899658
 31
0.0
  0
LINE
  5
   50E
  8
0
  6
CONTINUOUS
 62
   130
 10
-193.776611089706
 20
-43.7446918487549
 30
0.0
 11
-193.776611089706
 21
-45.2446918487549
 31
0.0
  0
LINE
  5
   50F
  8
0
  6
CONTINUOUS
 62
   130
 10
-195.276611089706
 20
-45.2446918487549
 30
0.0
 11
-195.276611089706
 21
-58.7446765899512
 31
0.0
  0
LINE
  5
   510
  8
0
  6
CONTINUOUS
 62
   130
 10
-199.276611089706
 20
-45.2446918487549
 30
0.0
 11
-195.276611089706
 21
-45.2446918487549
 31
0.0
  0
LINE
  5
   511
  8
0
  6
CONTINUOUS
 62
   130
 10
-199.276611089706
 20
-43.7446918487549
 30
0.0
 11
-193.776611089706
 21
-43.7446918487549
 31
0.0
  0
LINE
  5
   512
  8
0
  6
CONTINUOUS
 62
   130
 10
-199.276611089706
 20
44.2553081512451
 30
0.0
 11
-193.776595830917
 21
44.2553081512451
 31
0.0
  0
LINE
  5
   513
  8
0
  6
CONTINUOUS
 62
   130
 10
-193.776611089706
 20
45.7553081512451
 30
0.0
 11
-193.776611089706
 21
44.2553081512451
 31
0.0
  0
LINE
  5
   514
  8
0
  6
CONTINUOUS
 62
   130
 10
-199.276611089706
 20
45.7553081512451
 30
0.0
 11
-195.276611089706
 21
45.7553081512451
 31
0.0
  0
LINE
  5
   515
  8
0
  6
CONTINUOUS
 62
   130
 10
-195.276611089706
 20
59.2553081512451
 30
0.0
 11
-195.276611089706
 21
45.7553081512451
 31
0.0
  0
LINE
  5
   516
  8
0
  6
CONTINUOUS
 62
   130
 10
-235.261421203613
 20
-53.744679904195
 30
0.0
 11
-224.920697857139
 21
-53.744679904195
 31
0.0
  0
LINE
  5
   517
  8
0
  6
CONTINUOUS
 62
   130
 10
-235.261421203613
 20
-53.244679904195
 30
0.0
 11
-224.920697857139
 21
-53.244679904195
 31
0.0
  0
LINE
  5
   518
  8
0
  6
CONTINUOUS
 62
   130
 10
-235.261421203613
 20
-48.244679904195
 30
0.0
 11
-224.920697857139
 21
-48.244679904195
 31
0.0
  0
LINE
  5
   519
  8
0
  6
CONTINUOUS
 62
   130
 10
-235.261421203613
 20
-47.744679904195
 30
0.0
 11
-224.920697857139
 21
-47.744679904195
 31
0.0
  0
LINE
  5
   51A
  8
0
  6
CONTINUOUS
 62
   130
 10
-234.761421203613
 20
-47.744679904195
 30
0.0
 11
-234.761421203613
 21
-53.744679904195
 31
0.0
  0
LINE
  5
   51B
  8
0
  6
CONTINUOUS
 62
   130
 10
-235.261421203613
 20
-53.244679904195
 30
0.0
 11
-234.761421203613
 21
-53.744679904195
 31
0.0
  0
LINE
  5
   51C
  8
0
  6
CONTINUOUS
 62
   130
 10
-234.761421203613
 20
-47.744679904195
 30
0.0
 11
-235.261421203613
 21
-48.244679904195
 31
0.0
  0
LINE
  5
   51D
  8
0
  6
DOT
 62
   130
 10
-235.261421203613
 20
-48.244679904195
 30
0.0
 11
-235.261421203613
 21
-53.244679904195
 31
0.0
  0
LINE
  5
   51E
  8
0
  6
CONTINUOUS
 62
   130
 10
-231.261421203613
 20
-53.744679904195
 30
0.0
 11
-231.261421203613
 21
-56.7446918487549
 31
0.0
  0
LINE
  5
   51F
  8
0
  6
CONTINUOUS
 62
   130
 10
-199.276611089706
 20
55.2553064717022
 30
0.0
 11
-199.276611089706
 21
44.2553081512451
 31
0.0
  0
LINE
  5
   520
  8
0
  6
CONTINUOUS
 62
   130
 10
-262.776582272847
 20
56.2553064717022
 30
0.0
 11
-200.276611089706
 21
56.2553064717022
 31
0.0
  0
ARC
  5
   521
  8
0
  6
CONTINUOUS
 62
   130
 10
-200.276611089706
 20
55.2553064717022
 30
0.0
 40
1.0
 50
359.999999844103
 51
449.999999844103
  0
ARC
  5
   522
  8
0
  6
CONTINUOUS
 62
   130
 10
-196.276611089706
 20
59.2553081512451
 30
0.0
 40
1.0
 50
359.999999844103
 51
449.999999844103
  0
ARC
  5
   523
  8
0
  6
CONTINUOUS
 62
   130
 10
-193.776595830917
 20
43.2553081512451
 30
0.0
 40
1.0
 50
359.999999844103
 51
449.999999844103
  0
ARC
  5
   524
  8
0
  6
CONTINUOUS
 62
   130
 10
-200.276611089706
 20
-54.7446901692119
 30
0.0
 40
1.0
 50
269.999999844103
 51
359.999999844103
  0
LINE
  5
   525
  8
0
  6
CONTINUOUS
 62
   130
 10
-199.276611089706
 20
-43.7446918487549
 30
0.0
 11
-199.276611089706
 21
-54.7446901692119
 31
0.0
  0
ARC
  5
   526
  8
0
  6
CONTINUOUS
 62
   130
 10
-193.776611089706
 20
-42.7446918487549
 30
0.0
 40
1.0
 50
269.999999844103
 51
359.999999844103
  0
ARC
  5
   527
  8
0
  6
CONTINUOUS
 62
   130
 10
-196.276611089706
 20
-58.7446765899512
 30
0.0
 40
1.0
 50
269.999999844103
 51
359.999999844103
  0
ARC
  5
   528
  8
0
  6
CONTINUOUS
 62
   130
 10
-224.276595830917
 20
-14.2446765899511
 30
0.0
 40
52.4276683460498
 50
340.405499850824
 51
359.999999844103
  0
LINE
  5
   529
  8
0
  6
CONTINUOUS
 62
   130
 10
-171.848927484868
 20
-14.2446765899511
 30
0.0
 11
-171.848927484868
 21
-29.9816946811597
 31
0.0
  0
LINE
  5
   52A
  8
0
  6
DASHDOT
 62
   130
 10
-271.447388810462
 20
-11.7446765899658
 30
0.0
 11
-184.369225455838
 21
-11.7446765899658
 31
0.0
  0
POINT
  5
   52B
  8
0
  6
CONTINUOUS
 62
   130
 10
-265.77659702301
 20
5.25529682647903
 30
0.0
  0
POINT
  5
   52C
  8
0
  6
CONTINUOUS
 62
   130
 10
-265.77659702301
 20
-30.244703173521
 30
0.0
  0
LINE
  5
   52D
  8
0
  6
CONTINUOUS
 62
   130
 10
-237.261421203613
 20
-44.7446918487549
 30
0.0
 11
-237.261421203613
 21
-55.7446901692119
 31
0.0
  0
LINE
  5
   52E
  8
0
  6
CONTINUOUS
 62
   130
 10
-250.761421203613
 20
-57.2455525956746
 30
0.0
 11
-235.261421203613
 21
-57.2455525956746
 31
0.0
  0
LINE
  5
   52F
  8
0
  6
CONTINUOUS
 62
   130
 10
-250.761421203613
 20
-57.2455525956746
 30
0.0
 11
-250.761421203613
 21
-75.8675950718036
 31
0.0
  0
LINE
  5
   530
  8
0
  6
CONTINUOUS
 62
   130
 10
-235.261421203613
 20
-57.2455525956746
 30
0.0
 11
-235.261421203613
 21
-75.8675950718036
 31
0.0
  0
LINE
  5
   531
  8
0
  6
CONTINUOUS
 62
   130
 10
-251.595253075325
 20
-75.8675950718036
 30
0.0
 11
-234.815981284772
 21
-75.8675950718036
 31
0.0
  0
LINE
  5
   532
  8
0
  6
CONTINUOUS
 62
   130
 10
-237.261421203613
 20
-44.7446918487549
 30
0.0
 11
-237.261421203613
 21
-57.2455525956746
 31
0.0
  0
LINE
  5
   533
  8
0
  6
CONTINUOUS
 62
   130
 10
-247.212277467481
 20
-44.7446918487549
 30
0.0
 11
-248.761421203613
 21
-48.3144578494076
 31
0.0
  0
LINE
  5
   534
  8
0
  6
CONTINUOUS
 62
   130
 10
-245.032072663609
 20
-44.7446918487549
 30
0.0
 11
-248.761421203613
 21
-53.3384080496353
 31
0.0
  0
LINE
  5
   535
  8
0
  6
CONTINUOUS
 62
   130
 10
-242.851867859736
 20
-44.7446918487549
 30
0.0
 11
-248.276769693305
 21
-57.2455525956746
 31
0.0
  0
LINE
  5
   536
  8
0
  6
CONTINUOUS
 62
   130
 10
-240.671663055864
 20
-44.7446918487549
 30
0.0
 11
-246.096564889433
 21
-57.2455525956746
 31
0.0
  0
LINE
  5
   537
  8
0
  6
CONTINUOUS
 62
   130
 10
-238.491458251992
 20
-44.7446918487549
 30
0.0
 11
-243.916360085561
 21
-57.2455525956746
 31
0.0
  0
LINE
  5
   538
  8
0
  6
CONTINUOUS
 62
   130
 10
-237.261421203613
 20
-46.9342088505456
 30
0.0
 11
-241.736155281688
 21
-57.2455525956746
 31
0.0
  0
LINE
  5
   539
  8
0
  6
CONTINUOUS
 62
   130
 10
-237.261421203613
 20
-51.9581590507732
 30
0.0
 11
-239.555950477816
 21
-57.2455525956746
 31
0.0
  0
LINE
  5
   53A
  8
0
  6
CONTINUOUS
 62
   130
 10
-246.761421203613
 20
-56.7446918487549
 30
0.0
 11
-246.761421203613
 21
-57.2455525956746
 31
0.0
  0
LINE
  5
   53B
  8
0
  6
CONTINUOUS
 62
   130
 10
-235.261421203613
 20
-59.7446918487549
 30
0.0
 11
-217.276596069336
 21
-59.7446918487549
 31
0.0
  0
LINE
  5
   53C
  8
0
  6
CONTINUOUS
 62
   130
 10
-252.019218440993
 20
-43.7690744879496
 30
0.0
 11
-224.920697857139
 21
-43.7690744879496
 31
0.0
  0
LINE
  5
   53D
  8
0
  6
CONTINUOUS
 62
   130
 10
-224.920697857139
 20
-43.7690744879496
 30
0.0
 11
-224.920697857139
 21
-59.7446918487549
 31
0.0
  0
LINE
  5
   53E
  8
0
  6
CONTINUOUS
 62
   130
 10
-252.019218440993
 20
-43.7690744879496
 30
0.0
 11
-252.019218440993
 21
-59.7446918487549
 31
0.0
  0
LINE
  5
   53F
  8
0
  6
CONTINUOUS
 62
   130
 10
-217.920697857139
 20
-55.7446901692119
 30
0.0
 11
-200.276611089706
 21
-55.7446901692119
 31
0.0
  0
LINE
  5
   540
  8
0
  6
CONTINUOUS
 62
   130
 10
-262.776582717896
 20
-55.744690169212
 30
0.0
 11
-252.019218440993
 21
-55.744690169212
 31
0.0
  0
LINE
  5
   541
  8
0
  6
CONTINUOUS
 62
   130
 10
-248.276596641541
 20
47.707869726252
 30
0.0
 11
-247.212277467481
 21
45.2553081512451
 31
0.0
  0
LINE
  5
   542
  8
0
  6
CONTINUOUS
 62
   130
 10
-248.276596641541
 20
52.7318199264796
 30
0.0
 11
-245.032072663609
 21
45.2553081512451
 31
0.0
  0
LINE
  5
   543
  8
0
  6
CONTINUOUS
 62
   130
 10
-248.276769693305
 20
57.7561688981648
 30
0.0
 11
-242.851867859736
 21
45.2553081512451
 31
0.0
  0
LINE
  5
   544
  8
0
  6
CONTINUOUS
 62
   130
 10
-246.096564889433
 20
57.7561688981648
 30
0.0
 11
-240.671663055864
 21
45.2553081512451
 31
0.0
  0
LINE
  5
   545
  8
0
  6
CONTINUOUS
 62
   130
 10
-243.916360085561
 20
57.7561688981648
 30
0.0
 11
-238.491458251992
 21
45.2553081512451
 31
0.0
  0
LINE
  5
   546
  8
0
  6
CONTINUOUS
 62
   130
 10
-241.736155281688
 20
57.7561688981648
 30
0.0
 11
-237.776583838461
 21
48.6319390507289
 31
0.0
  0
LINE
  5
   547
  8
0
  6
CONTINUOUS
 62
   130
 10
-239.555950477816
 20
57.7561688981648
 30
0.0
 11
-237.776583838461
 21
53.6558892509565
 31
0.0
  0
LINE
  5
   548
  8
0
  6
CONTINUOUS
 62
   130
 10
-250.761421203613
 20
57.7561688981648
 30
0.0
 11
-235.261421203613
 21
57.7561688981648
 31
0.0
  0
LINE
  5
   549
  8
0
  6
CONTINUOUS
 62
   130
 10
-250.761421203613
 20
75.6699275215909
 30
0.0
 11
-250.761421203613
 21
57.7561688981648
 31
0.0
  0
LINE
  5
   54A
  8
0
  6
CONTINUOUS
 62
   130
 10
-235.261421203613
 20
75.6699275215909
 30
0.0
 11
-235.261421203613
 21
57.7561688981648
 31
0.0
  0
LINE
  5
   54B
  8
0
  6
CONTINUOUS
 62
   130
 10
-251.391773100253
 20
75.6699275215909
 30
0.0
 11
-234.831633590547
 21
75.6699275215909
 31
0.0
  0
LINE
  5
   54C
  8
0
  6
CONTINUOUS
 62
   130
 10
-195.276611089706
 20
45.7553081512451
 30
0.0
 11
-193.776611089706
 21
45.7553081512451
 31
0.0
  0
LINE
  5
   54D
  8
0
  6
CONTINUOUS
 62
   130
 10
-195.276611089706
 20
-45.2446918487549
 30
0.0
 11
-193.776611089706
 21
-45.2446918487549
 31
0.0
  0
LINE
  5
   54E
  8
0
  6
CONTINUOUS
 62
   130
 10
-219.276582717896
 20
60.2553081512451
 30
0.0
 11
-219.276582717896
 21
-59.7446765899512
 31
0.0
  0
INSERT
  5
   54F
  8
0
  6
CONTINUOUS
 62
     7
  2
*HATCH55
 10
-139.529190063477
 20
-14.2446918487549
 30
0.0
 50
269.999999844103
  0
INSERT
  5
   550
  8
0
  6
CONTINUOUS
 62
     7
  2
*HATCH56
 10
-139.529190063477
 20
-14.2446918487549
 30
0.0
 50
269.999999844103
  0
INSERT
  5
   551
  8
0
  6
CONTINUOUS
 62
     7
  2
*HATCH57
 10
-139.529190063477
 20
-14.2446918487549
 30
0.0
 50
269.999999844103
  0
LINE
  5
   552
  8
0
  6
CONTINUOUS
 62
   130
 10
-260.276582272847
 20
2.15530815124511
 30
0.0
 11
-260.276582272847
 21
-16.4446918487549
 31
0.0
  0
LINE
  5
   553
  8
0
  6
CONTINUOUS
 62
   130
 10
-260.276582272847
 20
-16.4446918487549
 30
0.0
 11
-262.776582272847
 21
-18.9446918487549
 31
0.0
  0
LINE
  5
   554
  8
0
  6
CONTINUOUS
 62
   130
 10
-262.776582717896
 20
4.65530859629325
 30
0.0
 11
-260.276582272847
 21
2.15530815124511
 31
0.0
  0
LINE
  5
   555
  8
0
  6
CONTINUOUS
 62
   130
 10
-190.776588439941
 20
11.7553234100342
 30
0.0
 11
-190.776588439941
 21
10.7553234100342
 31
0.0
  0
LINE
  5
   556
  8
0
  6
CONTINUOUS
 62
   130
 10
-190.776588439941
 20
-34.2446765899658
 30
0.0
 11
-190.776588439941
 21
-35.2446765899658
 31
0.0
  0
LINE
  5
   557
  8
0
  6
CONTINUOUS
 62
   130
 10
-190.776588439941
 20
36.2553234100342
 30
0.0
 11
-190.776588439941
 21
13.2553234100342
 31
0.0
  0
LINE
  5
   558
  8
0
  6
DASHDOT
 62
   130
 10
-190.776588439941
 20
71.8966619658505
 30
0.0
 11
-190.776588439941
 21
-80.247572864363
 31
0.0
  0
LINE
  5
   559
  8
0
  6
CONTINUOUS
 62
   130
 10
-187.776588439941
 20
-34.2446765899658
 30
0.0
 11
-187.776588439941
 21
-59.7446765899658
 31
0.0
  0
LINE
  5
   55A
  8
0
  6
CONTINUOUS
 62
   130
 10
-192.276588439941
 20
11.7553234100342
 30
0.0
 11
-190.776588439941
 21
11.7553234100342
 31
0.0
  0
LINE
  5
   55B
  8
0
  6
CONTINUOUS
 62
   130
 10
-192.276588439941
 20
13.2553234100342
 30
0.0
 11
-190.776588439941
 21
13.2553234100342
 31
0.0
  0
LINE
  5
   55C
  8
0
  6
CONTINUOUS
 62
   130
 10
-192.276588439941
 20
13.2553234100342
 30
0.0
 11
-192.276588439941
 21
11.7553234100342
 31
0.0
  0
LINE
  5
   55D
  8
0
  6
CONTINUOUS
 62
   130
 10
-190.776588439941
 20
36.2553234100342
 30
0.0
 11
-187.776588439941
 21
36.2553234100342
 31
0.0
  0
LINE
  5
   55E
  8
0
  6
CONTINUOUS
 62
   130
 10
-190.776588439941
 20
-59.7446765899658
 30
0.0
 11
-187.776588439941
 21
-59.7446765899658
 31
0.0
  0
LINE
  5
   55F
  8
0
  6
CONTINUOUS
 62
   130
 10
-190.776588439941
 20
-36.7446765899658
 30
0.0
 11
-190.776588439941
 21
-59.7446765899658
 31
0.0
  0
LINE
  5
   560
  8
0
  6
CONTINUOUS
 62
   130
 10
-192.276588439941
 20
-36.7446765899658
 30
0.0
 11
-190.776588439941
 21
-36.7446765899658
 31
0.0
  0
LINE
  5
   561
  8
0
  6
CONTINUOUS
 62
   130
 10
-192.276588439941
 20
-35.2446765899658
 30
0.0
 11
-192.276588439941
 21
-36.7446765899658
 31
0.0
  0
LINE
  5
   562
  8
0
  6
DOT
 62
   130
 10
-190.776588439941
 20
10.7553234100342
 30
0.0
 11
-190.776588439941
 21
-34.2446765899658
 31
0.0
  0
LINE
  5
   563
  8
0
  6
CONTINUOUS
 62
   130
 10
-187.776588439941
 20
36.2553234100342
 30
0.0
 11
-187.776588439941
 21
10.7553234100342
 31
0.0
  0
LINE
  5
   564
  8
0
  6
CONTINUOUS
 62
   130
 10
-192.776588439941
 20
21.7553234100342
 30
0.0
 11
-190.776588439941
 21
21.7553234100342
 31
0.0
  0
LINE
  5
   565
  8
0
  6
CONTINUOUS
 62
   130
 10
-192.776588439941
 20
18.7553234100342
 30
0.0
 11
-190.776588439941
 21
18.7553234100342
 31
0.0
  0
LINE
  5
   566
  8
0
  6
CONTINUOUS
 62
   130
 10
-192.776588439941
 20
22.5053234100342
 30
0.0
 11
-192.776588439941
 21
18.0053234100342
 31
0.0
  0
LINE
  5
   567
  8
0
  6
DOT
 62
   130
 10
-192.776588439941
 20
22.5053234100343
 30
0.0
 11
-194.776588439941
 21
21.1563063763494
 31
0.0
  0
LINE
  5
   568
  8
0
  6
DOT
 62
   130
 10
-194.776588439941
 20
19.3543404437191
 30
0.0
 11
-192.776588439941
 21
18.0053234100343
 31
0.0
  0
LINE
  5
   569
  8
0
  6
DOT
 62
   130
 10
-194.776588439941
 20
21.1563063763494
 30
0.0
 11
-194.776588439941
 21
19.3543404437191
 31
0.0
  0
LINE
  5
   56A
  8
0
  6
DOT
 62
   130
 10
-194.776588439941
 20
-44.6456595562809
 30
0.0
 11
-192.776588439941
 21
-45.9946765899658
 31
0.0
  0
LINE
  5
   56B
  8
0
  6
DOT
 62
   130
 10
-194.776588439941
 20
-42.8436936236506
 30
0.0
 11
-194.776588439941
 21
-44.6456595562809
 31
0.0
  0
LINE
  5
   56C
  8
0
  6
DOT
 62
   130
 10
-192.776588439941
 20
-41.4946765899658
 30
0.0
 11
-194.776588439941
 21
-42.8436936236506
 31
0.0
  0
LINE
  5
   56D
  8
0
  6
CONTINUOUS
 62
   130
 10
-192.776588439941
 20
-45.2446765899658
 30
0.0
 11
-190.776588439941
 21
-45.2446765899658
 31
0.0
  0
LINE
  5
   56E
  8
0
  6
CONTINUOUS
 62
   130
 10
-192.776588439941
 20
-42.2446765899658
 30
0.0
 11
-190.776588439941
 21
-42.2446765899658
 31
0.0
  0
LINE
  5
   56F
  8
0
  6
CONTINUOUS
 62
   130
 10
-190.776588439941
 20
11.7553234100342
 30
0.0
 11
-187.776588439941
 21
11.7553234100342
 31
0.0
  0
LINE
  5
   570
  8
0
  6
CONTINUOUS
 62
   130
 10
-192.276588439941
 20
-35.2446765899658
 30
0.0
 11
-187.776588439941
 21
-35.2446765899658
 31
0.0
  0
LINE
  5
   571
  8
0
  6
DASHDOT
 62
   130
 10
-192.276588439941
 20
71.8966619658505
 30
0.0
 11
-192.276588439941
 21
-80.7798446914604
 31
0.0
  0
INSERT
  5
   572
  8
0
  6
CONTINUOUS
 62
     7
  2
*HATCH58
 10
-139.529190063477
 20
-14.2446918487549
 30
0.0
 50
269.999999844103
  0
INSERT
  5
   573
  8
0
  6
CONTINUOUS
 62
     7
  2
*HATCH59
 10
-139.529190063477
 20
-14.2446918487549
 30
0.0
 50
269.999999844103
  0
LINE
  5
   574
  8
0
  6
DOT
 62
   130
 10
-220.276596641541
 20
54.2552962066852
 30
0.0
 11
-220.276596641541
 21
48.2552962066852
 31
0.0
  0
LINE
  5
   575
  8
0
  6
DOT
 62
   130
 10
-214.776596641541
 20
56.7970672747707
 30
0.0
 11
-214.776596641541
 21
45.7135251385998
 31
0.0
  0
LINE
  5
   576
  8
0
  6
DOT
 62
   130
 10
-234.276596641541
 20
48.2552962066853
 30
0.0
 11
-217.776596641541
 21
48.2552962066853
 31
0.0
  0
LINE
  5
   577
  8
0
  6
DOT
 62
   130
 10
-234.276596641541
 20
54.2552962066853
 30
0.0
 11
-217.776596641541
 21
54.2552962066853
 31
0.0
  0
ARC
  5
   578
  8
0
  6
DOT
 62
   130
 10
-225.176596641541
 20
51.2552962066853
 30
0.0
 40
12.0
 50
332.615940118948
 51
358.089786672393
  0
LINE
  5
   579
  8
0
  6
DOT
 62
   130
 10
-214.5212760445
 20
45.7358629953598
 30
0.0
 11
-217.776596641541
 21
45.4510568103229
 31
0.0
  0
LINE
  5
   57A
  8
0
  6
DOT
 62
   130
 10
-217.77659664154
 20
57.0595356030476
 30
0.0
 11
-214.5212760445
 21
56.7747294180108
 31
0.0
  0
LINE
  5
   57B
  8
0
  6
DOT
 62
   130
 10
-217.776596641541
 20
57.0595356030476
 30
0.0
 11
-217.776596641541
 21
45.4510568103229
 31
0.0
  0
LINE
  5
   57C
  8
0
  6
DOT
 62
   130
 10
-234.776584434508
 20
48.8687262066853
 30
0.0
 11
-220.276596641541
 21
48.8687262066853
 31
0.0
  0
LINE
  5
   57D
  8
0
  6
DOT
 62
   130
 10
-234.776584434508
 20
53.6418662066853
 30
0.0
 11
-220.276596641541
 21
53.6418662066853
 31
0.0
  0
LINE
  5
   57E
  8
0
  6
DASHDOT
 62
     7
 10
-233.776595687866
 20
51.2552962066853
 30
0.0
 11
-209.176596641541
 21
51.2552962066853
 31
0.0
  0
LINE
  5
   57F
  8
0
  6
DOT
 62
   130
 10
-213.976596641541
 20
51.6552962066853
 30
0.0
 11
-213.976596641541
 21
50.8552962066852
 31
0.0
  0
LINE
  5
   580
  8
0
  6
DOT
 62
   130
 10
-213.976596641541
 20
50.8552962066853
 30
0.0
 11
-213.183265161089
 21
50.8552962066853
 31
0.0
  0
LINE
  5
   581
  8
0
  6
DOT
 62
   130
 10
-213.976596641541
 20
51.6552962066853
 30
0.0
 11
-213.183265161089
 21
51.6552962066853
 31
0.0
  0
ARC
  5
   582
  8
0
  6
DOT
 62
   130
 10
-225.176596641541
 20
51.2552962066853
 30
0.0
 40
12.0
 50
361.910213015813
 51
387.384059569259
  0
TEXT
  5
   583
  8
0
  6
CONTINUOUS
 62
     2
 10
-118.816987236327
 20
-133.858356454673
 30
0.0
 40
2.00000008940697
  1
3POLE LOW VOLTAGE M.C.C.B SERIES ISOMAX
 50
359.999999844103
 41
0.625
 72
     1
 11
-94.5669861495515
 21
-132.85835647583
 31
0.0
 73
     2
  0
TEXT
  5
   584
  8
0
  6
CONTINUOUS
 62
     2
 10
-112.566986825796
 20
-136.858356471648
 30
0.0
 40
2.00000008940697
  1
FIXED VERSION FRONT TERMINALS
 50
359.999999844103
 41
0.625
 72
     1
 11
-94.5669860184173
 21
-135.85835647583
 31
0.0
 73
     2
  0
TEXT
  5
   585
  8
0
  6
CONTINUOUS
 62
     2
 10
-115.934693283698
 20
-142.399967187724
 30
0.0
 40
2.00000008940697
  1
INTERR.AUTOMATICO SERIE ISOMAX
 50
359.999999844103
 41
0.625
 72
     1
 11
-97.3096924483796
 21
-141.399967193604
 31
0.0
 73
     2
  0
TEXT
  5
   586
  8
0
  6
CONTINUOUS
 62
     2
 10
-124.05969351578
 20
-145.399967165657
 30
0.0
 40
2.00000008940697
  1
TRIP0L.ESECUZIONE FISSA TERMINALI ANTERIORI
 50
359.999999844103
 41
0.625
 72
     1
 11
-97.3096923172454
 21
-144.399967193604
 31
0.0
 73
     2
  0
TEXT
  5
   587
  8
0
  6
CONTINUOUS
 62
     2
 10
-219.814910891388
 20
-133.250095214819
 30
0.0
 40
2.00000008940697
  1
3/11/92
 50
359.999999844103
 41
0.625
 11
-219.814910888672
 21
-132.250095170116
 31
0.0
 73
     2
  0
TEXT
  5
   588
  8
0
  6
CONTINUOUS
 62
     2
 10
-219.814910891388
 20
-137.250095214819
 30
0.0
 40
2.00000008940697
  1
MOSTOSI
 50
359.999999844103
 41
0.625
 11
-219.814910888672
 21
-136.250095170116
 31
0.0
 73
     2
  0
TEXT
  5
   589
  8
0
  6
CONTINUOUS
 62
     2
 10
-208.812109543289
 20
-150.107446297354
 30
0.0
 40
2.20000007748604
  1
M3727 95-01-18
 50
359.999999844103
 41
0.738636348242602
 72
     1
 11
-197.599609375
 21
-149.007446289063
 31
0.0
 73
     2
  0
TEXT
  5
   58A
  8
0
  6
CONTINUOUS
 62
     2
 10
-96.9636168026436
 20
-152.628131874634
 30
0.0
 40
3.00000002980232
  1
S1
 50
359.999999844103
 41
0.916666604744064
 72
     1
 11
-94.4886169433594
 21
-151.128131866455
 31
0.0
 73
     2
  0
TEXT
  5
   58B
  8
0
  6
CONTINUOUS
 62
     2
 10
-116.876512051458
 20
-162.018924711745
 30
0.0
 40
5.00000011920929
  1
601855/001
 50
359.999999844103
 41
0.916666496197386
 72
     1
 11
-94.4181823730469
 21
-159.518924713135
 31
0.0
 73
     2
  0
TEXT
  5
   58C
  8
0
  6
CONTINUOUS
 62
     2
 10
-58.5060130207513
 20
-163.074268361789
 30
0.0
 40
2.50000005960464
  1
1/1
 50
359.999999844103
 41
0.954999929332734
 72
     1
 11
-55.1635131835938
 21
-161.824268341064
 31
0.0
 73
     2
  0
TEXT
  5
   58D
  8
0
  6
CONTINUOUS
 62
     2
 10
-183.081559796235
 20
-13.6667025208401
 30
0.0
 40
3.00000002980232
  1
X
 50
359.999999844103
 41
0.916666674282816
 72
     1
 11
-181.981559753418
 21
-12.1667025089264
 31
0.0
 73
     2
  0
TEXT
  5
   58E
  8
0
  6
CONTINUOUS
 62
     2
 10
-292.841195721528
 20
-13.2869629979061
 30
0.0
 40
3.00000002980232
  1
X
 50
359.999999844103
 41
0.916666674282816
 72
     1
 11
-291.741195678711
 21
-11.7869629859924
 31
0.0
 73
     2
  0
INSERT
  5
   58F
  8
0
  6
CONTINUOUS
 62
     3
  2
*UDIM54
 10
0.0
 20
0.0
 30
0.0
  0
INSERT
  5
   590
  8
0
  6
CONTINUOUS
 62
     7
  2
*UDIM55
 10
0.0
 20
0.0
 30
0.0
  0
INSERT
  5
   591
  8
0
  6
CONTINUOUS
 62
     7
  2
*UDIM56
 10
0.0
 20
0.0
 30
0.0
  0
INSERT
  5
   592
  8
0
  6
CONTINUOUS
 62
     3
  2
*UDIM57
 10
0.0
 20
0.0
 30
0.0
  0
INSERT
  5
   593
  8
0
  6
CONTINUOUS
 62
     3
  2
*UDIM58
 10
0.0
 20
0.0
 30
0.0
  0
INSERT
  5
   594
  8
0
  6
CONTINUOUS
 62
     3
  2
*UDIM59
 10
0.0
 20
0.0
 30
0.0
  0
INSERT
  5
   595
  8
0
  6
CONTINUOUS
 62
     7
  2
*UDIM60
 10
0.0
 20
0.0
 30
0.0
  0
INSERT
  5
   596
  8
0
  6
CONTINUOUS
 62
     7
  2
*UDIM61
 10
0.0
 20
0.0
 30
0.0
  0
INSERT
  5
   597
  8
0
  6
CONTINUOUS
 62
     7
  2
*UDIM62
 10
0.0
 20
0.0
 30
0.0
  0
INSERT
  5
   598
  8
0
  6
CONTINUOUS
 62
     7
  2
*UDIM63
 10
0.0
 20
0.0
 30
0.0
  0
TEXT
  5
   599
  8
0
  6
CONTINUOUS
 62
     2
 10
-178.838168259992
 20
90.7506371728778
 30
0.0
 40
3.5
  1
:
 50
359.999999844103
 41
0.933333333333334
 72
     1
 11
-177.554834921905
 21
92.5006371693924
 31
0.0
 73
     2
  0
INSERT
  5
   59A
  8
255
  6
CONTINUOUS
 62
     7
  2
DIA_LATO
 10
-262.776582272847
 20
60.2552928924561
 30
0.0
 50
359.999999792138
  0
ENDSEC
  0
EOF
