ISO-10303-21;
HEADER;
FILE_DESCRIPTION(('CATIA V5 STEP Exchange'),'2;1');

FILE_NAME('C:\\Users\\uff.tecnico\\Desktop\\STP\\1SDH001295R0340_1PA_001_00_XT2_4P_PLUG-IN_MOSTRINA_MOE.stp','2014-11-11T15:26:57+00:00',('none'),('none'),'CATIA Version 5 Release 20 SP 1 (IN-10)','CATIA V5 STEP AP214','none');

FILE_SCHEMA(('AUTOMOTIVE_DESIGN { 1 0 10303 214 1 1 1 1 }'));

ENDSEC;
/* file written by CATIA V5R20 */
DATA;
#5=PRODUCT('1SDH001295R0340_1PA_001_00_XT2_4P_PLUG-IN_MOSTRINA_MOE','','',(#2)) ;
#2=PRODUCT_CONTEXT(' ',#1,'mechanical') ;
#1=APPLICATION_CONTEXT('automotive design') ;
#10=PRODUCT_DEFINITION('',' ',#6,#3) ;
#3=PRODUCT_DEFINITION_CONTEXT('part definition',#1,' ') ;
#11=PRODUCT_DEFINITION_SHAPE(' ',' ',#10) ;
#451=MECHANICAL_DESIGN_GEOMETRIC_PRESENTATION_REPRESENTATION(' ',(#30),#17) ;
#20=SHAPE_REPRESENTATION(' ',(#19),#17) ;
#19=AXIS2_PLACEMENT_3D(' ',#18,$,$) ;
#35=AXIS2_PLACEMENT_3D('Plane Axis2P3D',#32,#33,#34) ;
#75=AXIS2_PLACEMENT_3D('Plane Axis2P3D',#72,#73,#74) ;
#106=AXIS2_PLACEMENT_3D('Plane Axis2P3D',#103,#104,#105) ;
#172=AXIS2_PLACEMENT_3D('Plane Axis2P3D',#169,#170,#171) ;
#228=AXIS2_PLACEMENT_3D('Plane Axis2P3D',#225,#226,#227) ;
#246=AXIS2_PLACEMENT_3D('Circle Axis2P3D',#244,#245,$) ;
#259=AXIS2_PLACEMENT_3D('Plane Axis2P3D',#256,#257,#258) ;
#283=AXIS2_PLACEMENT_3D('Plane Axis2P3D',#280,#281,#282) ;
#307=AXIS2_PLACEMENT_3D('Plane Axis2P3D',#304,#305,#306) ;
#311=AXIS2_PLACEMENT_3D('Circle Axis2P3D',#309,#310,$) ;
#324=AXIS2_PLACEMENT_3D('Plane Axis2P3D',#321,#322,#323) ;
#359=AXIS2_PLACEMENT_3D('Plane Axis2P3D',#356,#357,#358) ;
#394=AXIS2_PLACEMENT_3D('Plane Axis2P3D',#391,#392,#393) ;
#398=AXIS2_PLACEMENT_3D('Circle Axis2P3D',#396,#397,$) ;
#411=AXIS2_PLACEMENT_3D('Plane Axis2P3D',#408,#409,#410) ;
#415=AXIS2_PLACEMENT_3D('Circle Axis2P3D',#413,#414,$) ;
#428=AXIS2_PLACEMENT_3D('Cylinder Axis2P3D',#425,#426,#427) ;
#448=AXIS2_PLACEMENT_3D('Sistema di assi.1',#445,#446,#447) ;
#18=CARTESIAN_POINT(' ',(0.,0.,0.)) ;
#32=CARTESIAN_POINT('Axis2P3D Location',(0.,224.,66.723)) ;
#37=CARTESIAN_POINT('Line Origine',(0.,224.,66.723)) ;
#41=CARTESIAN_POINT('Vertex',(-52.25,224.,66.723)) ;
#43=CARTESIAN_POINT('Vertex',(52.25,224.,66.723)) ;
#46=CARTESIAN_POINT('Line Origine',(-52.25,224.,60.398)) ;
#50=CARTESIAN_POINT('Vertex',(-52.25,224.,54.073)) ;
#53=CARTESIAN_POINT('Line Origine',(0.,224.,54.073)) ;
#57=CARTESIAN_POINT('Vertex',(52.25,224.,54.073)) ;
#60=CARTESIAN_POINT('Line Origine',(52.25,224.,60.398)) ;
#72=CARTESIAN_POINT('Axis2P3D Location',(0.,222.,54.073)) ;
#77=CARTESIAN_POINT('Line Origine',(-52.25,223.,54.073)) ;
#81=CARTESIAN_POINT('Vertex',(-52.25,222.,54.073)) ;
#84=CARTESIAN_POINT('Line Origine',(0.,222.,54.073)) ;
#88=CARTESIAN_POINT('Vertex',(52.25,222.,54.073)) ;
#91=CARTESIAN_POINT('Line Origine',(52.25,223.,54.073)) ;
#103=CARTESIAN_POINT('Axis2P3D Location',(0.,222.,-34.927)) ;
#108=CARTESIAN_POINT('Line Origine',(0.,222.,-34.927)) ;
#112=CARTESIAN_POINT('Vertex',(-52.25,222.,-34.927)) ;
#114=CARTESIAN_POINT('Vertex',(52.25,222.,-34.927)) ;
#117=CARTESIAN_POINT('Line Origine',(-52.25,223.,-34.927)) ;
#121=CARTESIAN_POINT('Vertex',(-52.25,224.,-34.927)) ;
#124=CARTESIAN_POINT('Line Origine',(0.,224.,-34.927)) ;
#128=CARTESIAN_POINT('Vertex',(52.25,224.,-34.927)) ;
#131=CARTESIAN_POINT('Line Origine',(52.25,223.,-34.927)) ;
#143=CARTESIAN_POINT('Line Origine',(-52.25,224.,-41.252)) ;
#147=CARTESIAN_POINT('Vertex',(-52.25,224.,-47.577)) ;
#150=CARTESIAN_POINT('Line Origine',(0.,224.,-47.577)) ;
#154=CARTESIAN_POINT('Vertex',(52.25,224.,-47.577)) ;
#157=CARTESIAN_POINT('Line Origine',(52.25,224.,-41.252)) ;
#169=CARTESIAN_POINT('Axis2P3D Location',(0.,222.,54.073)) ;
#174=CARTESIAN_POINT('Line Origine',(-52.25,222.,9.573)) ;
#179=CARTESIAN_POINT('Line Origine',(52.25,222.,9.573)) ;
#190=CARTESIAN_POINT('Line Origine',(0.,222.,49.223)) ;
#194=CARTESIAN_POINT('Vertex',(45.25,222.,49.223)) ;
#196=CARTESIAN_POINT('Vertex',(-45.25,222.,49.223)) ;
#199=CARTESIAN_POINT('Line Origine',(45.25,222.,9.573)) ;
#203=CARTESIAN_POINT('Vertex',(45.25,222.,-30.077)) ;
#206=CARTESIAN_POINT('Line Origine',(7.1054273576E-014,222.,-30.077)) ;
#210=CARTESIAN_POINT('Vertex',(-45.25,222.,-30.077)) ;
#213=CARTESIAN_POINT('Line Origine',(-45.25,222.,9.573)) ;
#225=CARTESIAN_POINT('Axis2P3D Location',(-45.25,0.,-30.077)) ;
#230=CARTESIAN_POINT('Line Origine',(-45.25,224.574792818,-30.077)) ;
#234=CARTESIAN_POINT('Vertex',(-45.25,227.149585635,-30.077)) ;
#237=CARTESIAN_POINT('Line Origine',(45.25,224.574792818,-30.077)) ;
#241=CARTESIAN_POINT('Vertex',(45.25,227.149585635,-30.077)) ;
#244=CARTESIAN_POINT('Axis2P3D Location',(7.1054273576E-014,-207.25,-30.077)) ;
#256=CARTESIAN_POINT('Axis2P3D Location',(45.25,0.,49.223)) ;
#261=CARTESIAN_POINT('Line Origine',(45.25,227.149585635,9.573)) ;
#265=CARTESIAN_POINT('Vertex',(45.25,227.149585635,49.223)) ;
#268=CARTESIAN_POINT('Line Origine',(45.25,224.574792818,49.223)) ;
#280=CARTESIAN_POINT('Axis2P3D Location',(-45.25,0.,-30.077)) ;
#285=CARTESIAN_POINT('Line Origine',(-45.25,227.149585635,9.573)) ;
#289=CARTESIAN_POINT('Vertex',(-45.25,227.149585635,49.223)) ;
#292=CARTESIAN_POINT('Line Origine',(-45.25,224.574792818,49.223)) ;
#304=CARTESIAN_POINT('Axis2P3D Location',(45.25,0.,49.223)) ;
#309=CARTESIAN_POINT('Axis2P3D Location',(7.1054273576E-014,-207.25,49.223)) ;
#321=CARTESIAN_POINT('Axis2P3D Location',(52.25,0.,0.)) ;
#326=CARTESIAN_POINT('Line Origine',(52.25,225.181653496,66.723)) ;
#330=CARTESIAN_POINT('Vertex',(52.25,226.363306991,66.723)) ;
#333=CARTESIAN_POINT('Line Origine',(52.25,225.181653496,-47.577)) ;
#337=CARTESIAN_POINT('Vertex',(52.25,226.363306991,-47.577)) ;
#340=CARTESIAN_POINT('Line Origine',(52.25,226.363306991,9.573)) ;
#356=CARTESIAN_POINT('Axis2P3D Location',(-52.25,0.,0.)) ;
#361=CARTESIAN_POINT('Line Origine',(-52.25,226.363306991,9.573)) ;
#365=CARTESIAN_POINT('Vertex',(-52.25,226.363306991,-47.577)) ;
#367=CARTESIAN_POINT('Vertex',(-52.25,226.363306991,66.723)) ;
#370=CARTESIAN_POINT('Line Origine',(-52.25,225.181653496,-47.577)) ;
#375=CARTESIAN_POINT('Line Origine',(-52.25,225.181653496,66.723)) ;
#391=CARTESIAN_POINT('Axis2P3D Location',(0.,224.,66.723)) ;
#396=CARTESIAN_POINT('Axis2P3D Location',(-2.84217094304E-014,-207.25,66.723)) ;
#408=CARTESIAN_POINT('Axis2P3D Location',(0.,229.5,-47.577)) ;
#413=CARTESIAN_POINT('Axis2P3D Location',(-2.84217094304E-014,-207.25,-47.577)) ;
#425=CARTESIAN_POINT('Axis2P3D Location',(0.,-207.25,0.)) ;
#445=CARTESIAN_POINT('Axis2P3D Location',(0.,0.,0.)) ;
#33=DIRECTION('Axis2P3D Direction',(0.,-1.,0.)) ;
#34=DIRECTION('Axis2P3D XDirection',(0.,0.,-1.)) ;
#38=DIRECTION('Vector Direction',(1.,0.,0.)) ;
#47=DIRECTION('Vector Direction',(0.,0.,-1.)) ;
#54=DIRECTION('Vector Direction',(1.,0.,0.)) ;
#61=DIRECTION('Vector Direction',(0.,0.,-1.)) ;
#73=DIRECTION('Axis2P3D Direction',(0.,0.,-1.)) ;
#74=DIRECTION('Axis2P3D XDirection',(0.,1.,0.)) ;
#78=DIRECTION('Vector Direction',(0.,1.,0.)) ;
#85=DIRECTION('Vector Direction',(1.,0.,0.)) ;
#92=DIRECTION('Vector Direction',(0.,1.,0.)) ;
#104=DIRECTION('Axis2P3D Direction',(0.,0.,-1.)) ;
#105=DIRECTION('Axis2P3D XDirection',(0.,1.,0.)) ;
#109=DIRECTION('Vector Direction',(1.,0.,0.)) ;
#118=DIRECTION('Vector Direction',(0.,1.,0.)) ;
#125=DIRECTION('Vector Direction',(1.,0.,0.)) ;
#132=DIRECTION('Vector Direction',(0.,1.,0.)) ;
#144=DIRECTION('Vector Direction',(0.,0.,1.)) ;
#151=DIRECTION('Vector Direction',(1.,0.,0.)) ;
#158=DIRECTION('Vector Direction',(0.,0.,1.)) ;
#170=DIRECTION('Axis2P3D Direction',(0.,-1.,0.)) ;
#171=DIRECTION('Axis2P3D XDirection',(0.,0.,-1.)) ;
#175=DIRECTION('Vector Direction',(0.,0.,-1.)) ;
#180=DIRECTION('Vector Direction',(0.,0.,-1.)) ;
#191=DIRECTION('Vector Direction',(-1.,0.,0.)) ;
#200=DIRECTION('Vector Direction',(0.,0.,-1.)) ;
#207=DIRECTION('Vector Direction',(1.,0.,0.)) ;
#214=DIRECTION('Vector Direction',(0.,0.,1.)) ;
#226=DIRECTION('Axis2P3D Direction',(0.,0.,1.)) ;
#227=DIRECTION('Axis2P3D XDirection',(1.,0.,0.)) ;
#231=DIRECTION('Vector Direction',(0.,1.,0.)) ;
#238=DIRECTION('Vector Direction',(0.,1.,0.)) ;
#245=DIRECTION('Axis2P3D Direction',(0.,0.,1.)) ;
#257=DIRECTION('Axis2P3D Direction',(1.,-0.,0.)) ;
#258=DIRECTION('Axis2P3D XDirection',(0.,0.,-1.)) ;
#262=DIRECTION('Vector Direction',(0.,0.,-1.)) ;
#269=DIRECTION('Vector Direction',(0.,1.,0.)) ;
#281=DIRECTION('Axis2P3D Direction',(-1.,0.,0.)) ;
#282=DIRECTION('Axis2P3D XDirection',(0.,0.,1.)) ;
#286=DIRECTION('Vector Direction',(0.,0.,1.)) ;
#293=DIRECTION('Vector Direction',(0.,1.,0.)) ;
#305=DIRECTION('Axis2P3D Direction',(0.,0.,-1.)) ;
#306=DIRECTION('Axis2P3D XDirection',(-1.,0.,0.)) ;
#310=DIRECTION('Axis2P3D Direction',(0.,0.,-1.)) ;
#322=DIRECTION('Axis2P3D Direction',(1.,0.,0.)) ;
#323=DIRECTION('Axis2P3D XDirection',(0.,1.,0.)) ;
#327=DIRECTION('Vector Direction',(0.,1.,0.)) ;
#334=DIRECTION('Vector Direction',(0.,-1.,0.)) ;
#341=DIRECTION('Vector Direction',(0.,0.,1.)) ;
#357=DIRECTION('Axis2P3D Direction',(1.,0.,0.)) ;
#358=DIRECTION('Axis2P3D XDirection',(0.,1.,0.)) ;
#362=DIRECTION('Vector Direction',(0.,0.,1.)) ;
#371=DIRECTION('Vector Direction',(0.,-1.,0.)) ;
#376=DIRECTION('Vector Direction',(0.,1.,0.)) ;
#392=DIRECTION('Axis2P3D Direction',(0.,0.,-1.)) ;
#393=DIRECTION('Axis2P3D XDirection',(0.,1.,0.)) ;
#397=DIRECTION('Axis2P3D Direction',(0.,0.,-1.)) ;
#409=DIRECTION('Axis2P3D Direction',(-0.,0.,1.)) ;
#410=DIRECTION('Axis2P3D XDirection',(0.,-1.,0.)) ;
#414=DIRECTION('Axis2P3D Direction',(-0.,0.,1.)) ;
#426=DIRECTION('Axis2P3D Direction',(0.,0.,1.)) ;
#427=DIRECTION('Axis2P3D XDirection',(0.171722953635,0.985145282278,0.)) ;
#446=DIRECTION('Axis2P3D Direction',(0.,0.,1.)) ;
#447=DIRECTION('Axis2P3D XDirection',(1.,0.,0.)) ;
#8=PRODUCT_RELATED_PRODUCT_CATEGORY('part',$,(#5)) ;
#7=PRODUCT_CATEGORY('part','specification') ;
#30=STYLED_ITEM(' ',(#29),#22) ;
#29=PRESENTATION_STYLE_ASSIGNMENT((#28)) ;
#28=SURFACE_STYLE_USAGE(.BOTH.,#27) ;
#27=SURFACE_SIDE_STYLE(' ',(#26)) ;
#26=SURFACE_STYLE_FILL_AREA(#25) ;
#25=FILL_AREA_STYLE(' ',(#24)) ;
#24=FILL_AREA_STYLE_COLOUR(' ',#23) ;
#39=VECTOR('Line Direction',#38,1.) ;
#48=VECTOR('Line Direction',#47,1.) ;
#55=VECTOR('Line Direction',#54,1.) ;
#62=VECTOR('Line Direction',#61,1.) ;
#79=VECTOR('Line Direction',#78,1.) ;
#86=VECTOR('Line Direction',#85,1.) ;
#93=VECTOR('Line Direction',#92,1.) ;
#110=VECTOR('Line Direction',#109,1.) ;
#119=VECTOR('Line Direction',#118,1.) ;
#126=VECTOR('Line Direction',#125,1.) ;
#133=VECTOR('Line Direction',#132,1.) ;
#145=VECTOR('Line Direction',#144,1.) ;
#152=VECTOR('Line Direction',#151,1.) ;
#159=VECTOR('Line Direction',#158,1.) ;
#176=VECTOR('Line Direction',#175,1.) ;
#181=VECTOR('Line Direction',#180,1.) ;
#192=VECTOR('Line Direction',#191,1.) ;
#201=VECTOR('Line Direction',#200,1.) ;
#208=VECTOR('Line Direction',#207,1.) ;
#215=VECTOR('Line Direction',#214,1.) ;
#232=VECTOR('Line Direction',#231,1.) ;
#239=VECTOR('Line Direction',#238,1.) ;
#263=VECTOR('Line Direction',#262,1.) ;
#270=VECTOR('Line Direction',#269,1.) ;
#287=VECTOR('Line Direction',#286,1.) ;
#294=VECTOR('Line Direction',#293,1.) ;
#328=VECTOR('Line Direction',#327,1.) ;
#335=VECTOR('Line Direction',#334,1.) ;
#342=VECTOR('Line Direction',#341,1.) ;
#363=VECTOR('Line Direction',#362,1.) ;
#372=VECTOR('Line Direction',#371,1.) ;
#377=VECTOR('Line Direction',#376,1.) ;
#16=UNCERTAINTY_MEASURE_WITH_UNIT(LENGTH_MEASURE(0.005),#12,'distance_accuracy_value','CONFUSED CURVE UNCERTAINTY') ;
#444=SHAPE_REPRESENTATION_RELATIONSHIP(' ',' ',#20,#443) ;
#66=ORIENTED_EDGE('',*,*,#45,.F.) ;
#67=ORIENTED_EDGE('',*,*,#52,.T.) ;
#68=ORIENTED_EDGE('',*,*,#59,.T.) ;
#69=ORIENTED_EDGE('',*,*,#64,.F.) ;
#97=ORIENTED_EDGE('',*,*,#59,.F.) ;
#98=ORIENTED_EDGE('',*,*,#83,.T.) ;
#99=ORIENTED_EDGE('',*,*,#90,.T.) ;
#100=ORIENTED_EDGE('',*,*,#95,.F.) ;
#137=ORIENTED_EDGE('',*,*,#116,.F.) ;
#138=ORIENTED_EDGE('',*,*,#123,.T.) ;
#139=ORIENTED_EDGE('',*,*,#130,.T.) ;
#140=ORIENTED_EDGE('',*,*,#135,.F.) ;
#163=ORIENTED_EDGE('',*,*,#130,.F.) ;
#164=ORIENTED_EDGE('',*,*,#149,.T.) ;
#165=ORIENTED_EDGE('',*,*,#156,.T.) ;
#166=ORIENTED_EDGE('',*,*,#161,.F.) ;
#185=ORIENTED_EDGE('',*,*,#90,.F.) ;
#186=ORIENTED_EDGE('',*,*,#178,.T.) ;
#187=ORIENTED_EDGE('',*,*,#116,.T.) ;
#188=ORIENTED_EDGE('',*,*,#183,.F.) ;
#219=ORIENTED_EDGE('',*,*,#198,.F.) ;
#220=ORIENTED_EDGE('',*,*,#205,.T.) ;
#221=ORIENTED_EDGE('',*,*,#212,.F.) ;
#222=ORIENTED_EDGE('',*,*,#217,.T.) ;
#250=ORIENTED_EDGE('',*,*,#236,.F.) ;
#251=ORIENTED_EDGE('',*,*,#212,.T.) ;
#252=ORIENTED_EDGE('',*,*,#243,.T.) ;
#253=ORIENTED_EDGE('',*,*,#248,.T.) ;
#274=ORIENTED_EDGE('',*,*,#267,.T.) ;
#275=ORIENTED_EDGE('',*,*,#243,.F.) ;
#276=ORIENTED_EDGE('',*,*,#205,.F.) ;
#277=ORIENTED_EDGE('',*,*,#272,.T.) ;
#298=ORIENTED_EDGE('',*,*,#291,.T.) ;
#299=ORIENTED_EDGE('',*,*,#296,.F.) ;
#300=ORIENTED_EDGE('',*,*,#217,.F.) ;
#301=ORIENTED_EDGE('',*,*,#236,.T.) ;
#315=ORIENTED_EDGE('',*,*,#272,.F.) ;
#316=ORIENTED_EDGE('',*,*,#198,.T.) ;
#317=ORIENTED_EDGE('',*,*,#296,.T.) ;
#318=ORIENTED_EDGE('',*,*,#313,.T.) ;
#346=ORIENTED_EDGE('',*,*,#332,.T.) ;
#347=ORIENTED_EDGE('',*,*,#64,.T.) ;
#348=ORIENTED_EDGE('',*,*,#95,.T.) ;
#349=ORIENTED_EDGE('',*,*,#183,.T.) ;
#350=ORIENTED_EDGE('',*,*,#135,.T.) ;
#351=ORIENTED_EDGE('',*,*,#161,.T.) ;
#352=ORIENTED_EDGE('',*,*,#339,.T.) ;
#353=ORIENTED_EDGE('',*,*,#344,.T.) ;
#381=ORIENTED_EDGE('',*,*,#369,.F.) ;
#382=ORIENTED_EDGE('',*,*,#374,.F.) ;
#383=ORIENTED_EDGE('',*,*,#149,.F.) ;
#384=ORIENTED_EDGE('',*,*,#123,.F.) ;
#385=ORIENTED_EDGE('',*,*,#178,.F.) ;
#386=ORIENTED_EDGE('',*,*,#83,.F.) ;
#387=ORIENTED_EDGE('',*,*,#52,.F.) ;
#388=ORIENTED_EDGE('',*,*,#379,.F.) ;
#402=ORIENTED_EDGE('',*,*,#400,.F.) ;
#403=ORIENTED_EDGE('',*,*,#379,.T.) ;
#404=ORIENTED_EDGE('',*,*,#45,.T.) ;
#405=ORIENTED_EDGE('',*,*,#332,.F.) ;
#419=ORIENTED_EDGE('',*,*,#417,.F.) ;
#420=ORIENTED_EDGE('',*,*,#339,.F.) ;
#421=ORIENTED_EDGE('',*,*,#156,.F.) ;
#422=ORIENTED_EDGE('',*,*,#374,.T.) ;
#431=ORIENTED_EDGE('',*,*,#400,.T.) ;
#432=ORIENTED_EDGE('',*,*,#344,.F.) ;
#433=ORIENTED_EDGE('',*,*,#417,.T.) ;
#434=ORIENTED_EDGE('',*,*,#369,.T.) ;
#437=ORIENTED_EDGE('',*,*,#248,.F.) ;
#438=ORIENTED_EDGE('',*,*,#267,.F.) ;
#439=ORIENTED_EDGE('',*,*,#313,.F.) ;
#440=ORIENTED_EDGE('',*,*,#291,.F.) ;
#223=FACE_BOUND('',#218,.T.) ;
#441=FACE_BOUND('',#436,.T.) ;
#31=CLOSED_SHELL('Closed Shell',(#71,#102,#142,#168,#224,#255,#279,#303,#320,#355,#390,#407,#424,#442)) ;
#443=ADVANCED_BREP_SHAPE_REPRESENTATION('NONE',(#22),#17) ;
#71=ADVANCED_FACE('Mostrina',(#70),#36,.T.) ;
#102=ADVANCED_FACE('Mostrina',(#101),#76,.F.) ;
#142=ADVANCED_FACE('Mostrina',(#141),#107,.T.) ;
#168=ADVANCED_FACE('Mostrina',(#167),#36,.T.) ;
#224=ADVANCED_FACE('Mostrina',(#189,#223),#173,.T.) ;
#255=ADVANCED_FACE('Mostrina',(#254),#229,.T.) ;
#279=ADVANCED_FACE('Mostrina',(#278),#260,.F.) ;
#303=ADVANCED_FACE('Mostrina',(#302),#284,.F.) ;
#320=ADVANCED_FACE('Mostrina',(#319),#308,.T.) ;
#355=ADVANCED_FACE('Mostrina',(#354),#325,.T.) ;
#390=ADVANCED_FACE('Mostrina',(#389),#360,.F.) ;
#407=ADVANCED_FACE('Mostrina',(#406),#395,.F.) ;
#424=ADVANCED_FACE('Mostrina',(#423),#412,.F.) ;
#442=ADVANCED_FACE('Mostrina',(#435,#441),#429,.T.) ;
#4=APPLICATION_PROTOCOL_DEFINITION('international standard','automotive_design',2001,#1) ;
#22=MANIFOLD_SOLID_BREP('Mostrina',#31) ;
#247=CIRCLE('generated circle',#246,436.75) ;
#312=CIRCLE('generated circle',#311,436.75) ;
#399=CIRCLE('generated circle',#398,436.75) ;
#416=CIRCLE('generated circle',#415,436.75) ;
#23=COLOUR_RGB('Colour',0.341176470588,0.364705882353,0.36862745098) ;
#449=CONSTRUCTIVE_GEOMETRY_REPRESENTATION('supplemental geometry',(#448),#17) ;
#450=CONSTRUCTIVE_GEOMETRY_REPRESENTATION_RELATIONSHIP('supplemental geometry','',#20,#449) ;
#429=CYLINDRICAL_SURFACE('generated cylinder',#428,436.75) ;
#45=EDGE_CURVE('',#42,#44,#40,.T.) ;
#52=EDGE_CURVE('',#42,#51,#49,.T.) ;
#59=EDGE_CURVE('',#51,#58,#56,.T.) ;
#64=EDGE_CURVE('',#44,#58,#63,.T.) ;
#83=EDGE_CURVE('',#51,#82,#80,.F.) ;
#90=EDGE_CURVE('',#82,#89,#87,.T.) ;
#95=EDGE_CURVE('',#58,#89,#94,.F.) ;
#116=EDGE_CURVE('',#113,#115,#111,.T.) ;
#123=EDGE_CURVE('',#113,#122,#120,.T.) ;
#130=EDGE_CURVE('',#122,#129,#127,.T.) ;
#135=EDGE_CURVE('',#115,#129,#134,.T.) ;
#149=EDGE_CURVE('',#122,#148,#146,.F.) ;
#156=EDGE_CURVE('',#148,#155,#153,.T.) ;
#161=EDGE_CURVE('',#129,#155,#160,.F.) ;
#178=EDGE_CURVE('',#82,#113,#177,.T.) ;
#183=EDGE_CURVE('',#89,#115,#182,.T.) ;
#198=EDGE_CURVE('',#195,#197,#193,.T.) ;
#205=EDGE_CURVE('',#195,#204,#202,.T.) ;
#212=EDGE_CURVE('',#211,#204,#209,.T.) ;
#217=EDGE_CURVE('',#211,#197,#216,.T.) ;
#236=EDGE_CURVE('',#211,#235,#233,.T.) ;
#243=EDGE_CURVE('',#204,#242,#240,.T.) ;
#248=EDGE_CURVE('',#242,#235,#247,.T.) ;
#267=EDGE_CURVE('',#266,#242,#264,.T.) ;
#272=EDGE_CURVE('',#195,#266,#271,.T.) ;
#291=EDGE_CURVE('',#235,#290,#288,.T.) ;
#296=EDGE_CURVE('',#197,#290,#295,.T.) ;
#313=EDGE_CURVE('',#290,#266,#312,.T.) ;
#332=EDGE_CURVE('',#331,#44,#329,.F.) ;
#339=EDGE_CURVE('',#155,#338,#336,.F.) ;
#344=EDGE_CURVE('',#338,#331,#343,.T.) ;
#369=EDGE_CURVE('',#366,#368,#364,.T.) ;
#374=EDGE_CURVE('',#148,#366,#373,.F.) ;
#379=EDGE_CURVE('',#368,#42,#378,.F.) ;
#400=EDGE_CURVE('',#368,#331,#399,.T.) ;
#417=EDGE_CURVE('',#338,#366,#416,.T.) ;
#65=EDGE_LOOP('',(#66,#67,#68,#69)) ;
#96=EDGE_LOOP('',(#97,#98,#99,#100)) ;
#136=EDGE_LOOP('',(#137,#138,#139,#140)) ;
#162=EDGE_LOOP('',(#163,#164,#165,#166)) ;
#184=EDGE_LOOP('',(#185,#186,#187,#188)) ;
#218=EDGE_LOOP('',(#219,#220,#221,#222)) ;
#249=EDGE_LOOP('',(#250,#251,#252,#253)) ;
#273=EDGE_LOOP('',(#274,#275,#276,#277)) ;
#297=EDGE_LOOP('',(#298,#299,#300,#301)) ;
#314=EDGE_LOOP('',(#315,#316,#317,#318)) ;
#345=EDGE_LOOP('',(#346,#347,#348,#349,#350,#351,#352,#353)) ;
#380=EDGE_LOOP('',(#381,#382,#383,#384,#385,#386,#387,#388)) ;
#401=EDGE_LOOP('',(#402,#403,#404,#405)) ;
#418=EDGE_LOOP('',(#419,#420,#421,#422)) ;
#430=EDGE_LOOP('',(#431,#432,#433,#434)) ;
#436=EDGE_LOOP('',(#437,#438,#439,#440)) ;
#70=FACE_OUTER_BOUND('',#65,.T.) ;
#101=FACE_OUTER_BOUND('',#96,.T.) ;
#141=FACE_OUTER_BOUND('',#136,.T.) ;
#167=FACE_OUTER_BOUND('',#162,.T.) ;
#189=FACE_OUTER_BOUND('',#184,.T.) ;
#254=FACE_OUTER_BOUND('',#249,.T.) ;
#278=FACE_OUTER_BOUND('',#273,.T.) ;
#302=FACE_OUTER_BOUND('',#297,.T.) ;
#319=FACE_OUTER_BOUND('',#314,.T.) ;
#354=FACE_OUTER_BOUND('',#345,.T.) ;
#389=FACE_OUTER_BOUND('',#380,.T.) ;
#406=FACE_OUTER_BOUND('',#401,.T.) ;
#423=FACE_OUTER_BOUND('',#418,.T.) ;
#435=FACE_OUTER_BOUND('',#430,.T.) ;
#40=LINE('Line',#37,#39) ;
#49=LINE('Line',#46,#48) ;
#56=LINE('Line',#53,#55) ;
#63=LINE('Line',#60,#62) ;
#80=LINE('Line',#77,#79) ;
#87=LINE('Line',#84,#86) ;
#94=LINE('Line',#91,#93) ;
#111=LINE('Line',#108,#110) ;
#120=LINE('Line',#117,#119) ;
#127=LINE('Line',#124,#126) ;
#134=LINE('Line',#131,#133) ;
#146=LINE('Line',#143,#145) ;
#153=LINE('Line',#150,#152) ;
#160=LINE('Line',#157,#159) ;
#177=LINE('Line',#174,#176) ;
#182=LINE('Line',#179,#181) ;
#193=LINE('Line',#190,#192) ;
#202=LINE('Line',#199,#201) ;
#209=LINE('Line',#206,#208) ;
#216=LINE('Line',#213,#215) ;
#233=LINE('Line',#230,#232) ;
#240=LINE('Line',#237,#239) ;
#264=LINE('Line',#261,#263) ;
#271=LINE('Line',#268,#270) ;
#288=LINE('Line',#285,#287) ;
#295=LINE('Line',#292,#294) ;
#329=LINE('Line',#326,#328) ;
#336=LINE('Line',#333,#335) ;
#343=LINE('Line',#340,#342) ;
#364=LINE('Line',#361,#363) ;
#373=LINE('Line',#370,#372) ;
#378=LINE('Line',#375,#377) ;
#36=PLANE('',#35) ;
#76=PLANE('',#75) ;
#107=PLANE('',#106) ;
#173=PLANE('',#172) ;
#229=PLANE('',#228) ;
#260=PLANE('',#259) ;
#284=PLANE('',#283) ;
#308=PLANE('',#307) ;
#325=PLANE('',#324) ;
#360=PLANE('',#359) ;
#395=PLANE('',#394) ;
#412=PLANE('',#411) ;
#14=PLANE_ANGLE_MEASURE_WITH_UNIT(PLANE_ANGLE_MEASURE(0.0174532925199),#13) ;
#9=PRODUCT_CATEGORY_RELATIONSHIP(' ',' ',#7,#8) ;
#6=PRODUCT_DEFINITION_FORMATION_WITH_SPECIFIED_SOURCE('',' ',#5,.NOT_KNOWN.) ;
#21=SHAPE_DEFINITION_REPRESENTATION(#11,#20) ;
#42=VERTEX_POINT('',#41) ;
#44=VERTEX_POINT('',#43) ;
#51=VERTEX_POINT('',#50) ;
#58=VERTEX_POINT('',#57) ;
#82=VERTEX_POINT('',#81) ;
#89=VERTEX_POINT('',#88) ;
#113=VERTEX_POINT('',#112) ;
#115=VERTEX_POINT('',#114) ;
#122=VERTEX_POINT('',#121) ;
#129=VERTEX_POINT('',#128) ;
#148=VERTEX_POINT('',#147) ;
#155=VERTEX_POINT('',#154) ;
#195=VERTEX_POINT('',#194) ;
#197=VERTEX_POINT('',#196) ;
#204=VERTEX_POINT('',#203) ;
#211=VERTEX_POINT('',#210) ;
#235=VERTEX_POINT('',#234) ;
#242=VERTEX_POINT('',#241) ;
#266=VERTEX_POINT('',#265) ;
#290=VERTEX_POINT('',#289) ;
#331=VERTEX_POINT('',#330) ;
#338=VERTEX_POINT('',#337) ;
#366=VERTEX_POINT('',#365) ;
#368=VERTEX_POINT('',#367) ;
#12=(LENGTH_UNIT()NAMED_UNIT(*)SI_UNIT(.MILLI.,.METRE.)) ;
#13=(NAMED_UNIT(*)PLANE_ANGLE_UNIT()SI_UNIT($,.RADIAN.)) ;
#15=(NAMED_UNIT(*)SI_UNIT($,.STERADIAN.)SOLID_ANGLE_UNIT()) ;
#17=(GEOMETRIC_REPRESENTATION_CONTEXT(3)GLOBAL_UNCERTAINTY_ASSIGNED_CONTEXT((#16))GLOBAL_UNIT_ASSIGNED_CONTEXT((#12,#13,#15))REPRESENTATION_CONTEXT(' ',' ')) ;
ENDSEC;
END-ISO-10303-21;
