  0
SECTION
  2
HEADER
  9
$ACADVER
  1
AC1009
  9
$INSBASE
 10
0.0
 20
0.0
 30
0.0
  9
$EXTMIN
 10
0.579461
 20
0.579152
 30
0.0
  9
$EXTMAX
 10
392.579461
 20
263.079152
 30
0.0
  9
$LIMMIN
 10
0.0
 20
0.0
  9
$LIMMAX
 10
12.0
 20
9.0
  9
$ORTHOMODE
 70
     1
  9
$REGENMODE
 70
     1
  9
$FILLMODE
 70
     1
  9
$QTEXTMODE
 70
     0
  9
$MIRRTEXT
 70
     1
  9
$DRAGMODE
 70
     2
  9
$LTSCALE
 40
5.0
  9
$OSMODE
 70
     0
  9
$ATTMODE
 70
     1
  9
$TEXTSIZE
 40
2.0
  9
$TRACEWID
 40
0.05
  9
$TEXTSTYLE
  7
STANDARD
  9
$CLAYER
  8
0
  9
$CELTYPE
  6
CONTINUOUS
  9
$CECOLOR
 62
   256
  9
$DIMSCALE
 40
1.0
  9
$DIMASZ
 40
0.18
  9
$DIMEXO
 40
0.0625
  9
$DIMDLI
 40
0.38
  9
$DIMRND
 40
0.0
  9
$DIMDLE
 40
0.0
  9
$DIMEXE
 40
0.18
  9
$DIMTP
 40
0.0
  9
$DIMTM
 40
0.0
  9
$DIMTXT
 40
0.18
  9
$DIMCEN
 40
0.09
  9
$DIMTSZ
 40
0.0
  9
$DIMTOL
 70
     0
  9
$DIMLIM
 70
     0
  9
$DIMTIH
 70
     1
  9
$DIMTOH
 70
     1
  9
$DIMSE1
 70
     0
  9
$DIMSE2
 70
     0
  9
$DIMTAD
 70
     0
  9
$DIMZIN
 70
     0
  9
$DIMBLK
  1

  9
$DIMASO
 70
     1
  9
$DIMSHO
 70
     1
  9
$DIMPOST
  1

  9
$DIMAPOST
  1

  9
$DIMALT
 70
     0
  9
$DIMALTD
 70
     2
  9
$DIMALTF
 40
25.4
  9
$DIMLFAC
 40
1.0
  9
$DIMTOFL
 70
     0
  9
$DIMTVP
 40
0.0
  9
$DIMTIX
 70
     0
  9
$DIMSOXD
 70
     0
  9
$DIMSAH
 70
     0
  9
$DIMBLK1
  1

  9
$DIMBLK2
  1

  9
$DIMSTYLE
  2
*UNNAMED
  9
$DIMCLRD
 70
     0
  9
$DIMCLRE
 70
     0
  9
$DIMCLRT
 70
     0
  9
$DIMTFAC
 40
1.0
  9
$DIMGAP
 40
0.09
  9
$LUNITS
 70
     2
  9
$LUPREC
 70
     4
  9
$SKETCHINC
 40
0.1
  9
$FILLETRAD
 40
0.0
  9
$AUNITS
 70
     0
  9
$AUPREC
 70
     0
  9
$MENU
  1
acad
  9
$ELEVATION
 40
0.0
  9
$PELEVATION
 40
0.0
  9
$THICKNESS
 40
0.0
  9
$LIMCHECK
 70
     0
  9
$BLIPMODE
 70
     1
  9
$CHAMFERA
 40
0.0
  9
$CHAMFERB
 40
0.0
  9
$SKPOLY
 70
     0
  9
$TDCREATE
 40
2448761.591399999
  9
$TDUPDATE
 40
2449016.592612268
  9
$TDINDWG
 40
0.0352355324
  9
$TDUSRTIMER
 40
0.0352355324
  9
$USRTIMER
 70
     1
  9
$ANGBASE
 50
0.0
  9
$ANGDIR
 70
     0
  9
$PDMODE
 70
     0
  9
$PDSIZE
 40
0.0
  9
$PLINEWID
 40
0.0
  9
$COORDS
 70
     2
  9
$SPLFRAME
 70
     0
  9
$SPLINETYPE
 70
     6
  9
$SPLINESEGS
 70
     8
  9
$ATTDIA
 70
     0
  9
$ATTREQ
 70
     1
  9
$HANDLING
 70
     0
  9
$HANDSEED
  5
0
  9
$SURFTAB1
 70
   250
  9
$SURFTAB2
 70
   250
  9
$SURFTYPE
 70
     6
  9
$SURFU
 70
     6
  9
$SURFV
 70
     6
  9
$UCSNAME
  2

  9
$UCSORG
 10
0.0
 20
0.0
 30
0.0
  9
$UCSXDIR
 10
1.0
 20
0.0
 30
0.0
  9
$UCSYDIR
 10
0.0
 20
1.0
 30
0.0
  9
$PUCSNAME
  2

  9
$PUCSORG
 10
0.0
 20
0.0
 30
0.0
  9
$PUCSXDIR
 10
1.0
 20
0.0
 30
0.0
  9
$PUCSYDIR
 10
0.0
 20
1.0
 30
0.0
  9
$USERI1
 70
     0
  9
$USERI2
 70
     0
  9
$USERI3
 70
     0
  9
$USERI4
 70
     0
  9
$USERI5
 70
     0
  9
$USERR1
 40
0.0
  9
$USERR2
 40
0.0
  9
$USERR3
 40
0.0
  9
$USERR4
 40
0.0
  9
$USERR5
 40
0.0
  9
$WORLDVIEW
 70
     1
  9
$SHADEDGE
 70
     3
  9
$SHADEDIF
 70
    70
  9
$TILEMODE
 70
     1
  9
$MAXACTVP
 70
    16
  9
$PINSBASE
 10
0.0
 20
0.0
 30
0.0
  9
$PLIMCHECK
 70
     0
  9
$PEXTMIN
 10
1.000000E+20
 20
1.000000E+20
 30
1.000000E+20
  9
$PEXTMAX
 10
-1.000000E+20
 20
-1.000000E+20
 30
-1.000000E+20
  9
$PLIMMIN
 10
0.0
 20
0.0
  9
$PLIMMAX
 10
12.0
 20
9.0
  9
$UNITMODE
 70
     0
  9
$VISRETAIN
 70
     0
  9
$PLINEGEN
 70
     0
  9
$PSLTSCALE
 70
     0
  9
$TREEDEPTH
 70
  3020
  9
$DWGCODEPAGE
  3
undefined
  0
ENDSEC
  0
SECTION
  2
TABLES
  0
TABLE
  2
VPORT
 70
     2
  0
VPORT
  2
*ACTIVE
 70
     0
 10
0.0
 20
0.0
 11
1.0
 21
1.0
 12
222.717071
 22
142.164464
 13
0.0
 23
0.0
 14
2.5
 24
2.5
 15
0.0
 25
0.0
 16
0.0
 26
0.0
 36
1.0
 17
0.0
 27
0.0
 37
0.0
 40
284.328929
 41
1.566616
 42
50.0
 43
0.0
 44
0.0
 50
0.0
 51
0.0
 71
     0
 72
   100
 73
     1
 74
     1
 75
     1
 76
     0
 77
     0
 78
     0
  0
ENDTAB
  0
TABLE
  2
LTYPE
 70
     4
  0
LTYPE
  2
CONTINUOUS
 70
    64
  3
Solid line
 72
    65
 73
     0
 40
0.0
  0
LTYPE
  2
DASHED
 70
    64
  3
__ __ __ __ __ __ __ __ __ __ __ __ __ __ __ __
 72
    65
 73
     2
 40
0.75
 49
0.5
 49
-0.25
  0
LTYPE
  2
CENTER
 70
    64
  3
____ _ ____ _ ____ _ ____ _ ____ _ ____ _ ____ 
 72
    65
 73
     4
 40
2.0
 49
1.25
 49
-0.25
 49
0.25
 49
-0.25
  0
LTYPE
  2
HIDDEN
 70
    64
  3
__ __ __ __ __ __ __ __ __ __ __ __ __ __ __ __
 72
    65
 73
     2
 40
0.375
 49
0.25
 49
-0.125
  0
ENDTAB
  0
TABLE
  2
LAYER
 70
    13
  0
LAYER
  2
0
 70
    64
 62
     7
  6
CONTINUOUS
  0
LAYER
  2
RAAMI
 70
    64
 62
    -4
  6
CONTINUOUS
  0
LAYER
  2
PAKSU
 70
    64
 62
    -3
  6
CONTINUOUS
  0
LAYER
  2
OHUT
 70
    64
 62
    -6
  6
CONTINUOUS
  0
LAYER
  2
SWEDEN
 70
    64
 62
    -7
  6
CONTINUOUS
  0
LAYER
  2
SWEDEN2
 70
    64
 62
    -5
  6
CONTINUOUS
  0
LAYER
  2
BASE
 70
    64
 62
    -7
  6
CONTINUOUS
  0
LAYER
  2
21
 70
    64
 62
    -2
  6
CONTINUOUS
  0
LAYER
  2
HEL035
 70
    64
 62
    -7
  6
CONTINUOUS
  0
LAYER
  2
MUO
 70
    64
 62
    -7
  6
CONTINUOUS
  0
LAYER
  2
1
 70
    64
 62
    -2
  6
CONTINUOUS
  0
LAYER
  2
BASE1
 70
    64
 62
    -2
  6
CONTINUOUS
  0
LAYER
  2
TEKS
 70
    64
 62
    -5
  6
CONTINUOUS
  0
ENDTAB
  0
TABLE
  2
STYLE
 70
     3
  0
STYLE
  2
STANDARD
 70
    64
 40
0.0
 41
1.0
 50
0.0
 71
     0
 42
2.0
  3
txt
  4

  0
STYLE
  2
ROMANS
 70
    64
 40
2.5
 41
1.0
 50
0.0
 71
     0
 42
2.5
  3
romans
  4

  0
STYLE
  2
GREEKS
 70
    64
 40
0.0
 41
1.0
 50
0.0
 71
     0
 42
3.0
  3
TXT
  4

  0
ENDTAB
  0
TABLE
  2
VIEW
 70
     0
  0
ENDTAB
  0
TABLE
  2
UCS
 70
     0
  0
ENDTAB
  0
TABLE
  2
APPID
 70
     1
  0
APPID
  2
ACAD
 70
    64
  0
ENDTAB
  0
TABLE
  2
DIMSTYLE
 70
     0
  0
ENDTAB
  0
ENDSEC
  0
SECTION
  2
BLOCKS
  0
BLOCK
  8
0
  2
1
 70
    64
 10
0.0
 20
0.0
 30
0.0
  3
1
  0
ENDBLK
  8
0
  0
BLOCK
  8
0
  2
BLC16
 70
     0
 10
0.0
 20
0.0
 30
0.0
  3
BLC16
  0
LINE
  8
0
  6
CONTINUOUS
 10
0.007689
 20
38.054928
 30
0.0
 11
19.983683
 21
38.054928
 31
0.0
  0
LINE
  8
0
  6
CONTINUOUS
 10
19.983683
 20
38.054928
 30
0.0
 11
19.983683
 21
-0.003751
 31
0.0
  0
LINE
  8
0
  6
CONTINUOUS
 10
19.983683
 20
-0.003751
 30
0.0
 11
0.007689
 21
-0.003751
 31
0.0
  0
LINE
  8
0
  6
CONTINUOUS
 10
0.007689
 20
-0.003751
 30
0.0
 11
0.007689
 21
38.054928
 31
0.0
  0
LINE
  8
0
  6
CONTINUOUS
 10
14.152643
 20
36.919738
 30
0.0
 11
14.152643
 21
33.528469
 31
0.0
  0
LINE
  8
0
  6
CONTINUOUS
 10
14.152643
 20
33.528469
 30
0.0
 11
11.560435
 21
33.528469
 31
0.0
  0
LINE
  8
0
  6
CONTINUOUS
 10
11.560435
 20
33.528469
 30
0.0
 11
11.560435
 21
30.778433
 31
0.0
  0
LINE
  8
0
  6
CONTINUOUS
 10
11.560435
 20
30.778433
 30
0.0
 11
14.152643
 21
30.778433
 31
0.0
  0
LINE
  8
0
  6
CONTINUOUS
 10
14.152643
 20
30.778433
 30
0.0
 11
14.152643
 21
27.387164
 31
0.0
  0
TEXT
  8
0
  6
CONTINUOUS
 10
6.558569
 20
30.805266
 30
0.0
 40
2.5
  1
2
 11
6.558569
 21
29.971932
 31
0.0
 73
     1
  0
TEXT
  8
0
  6
CONTINUOUS
 10
6.553289
 20
23.854078
 30
0.0
 40
2.5
  1
2 I
 11
6.553289
 21
23.020744
 31
0.0
 73
     1
  0
LINE
  8
0
  6
CONTINUOUS
 10
12.942534
 20
26.359129
 30
0.0
 11
15.288299
 21
25.023775
 31
0.0
  0
LINE
  8
0
  6
CONTINUOUS
 10
15.288299
 20
25.023775
 30
0.0
 11
12.942534
 21
23.833856
 31
0.0
  0
LINE
  8
0
  6
CONTINUOUS
 10
14.169823
 20
26.359129
 30
0.0
 11
16.515589
 21
25.023775
 31
0.0
  0
LINE
  8
0
  6
CONTINUOUS
 10
16.515589
 20
25.023775
 30
0.0
 11
14.169823
 21
23.833856
 31
0.0
  0
TEXT
  8
0
  6
CONTINUOUS
 10
11.566446
 20
19.235679
 30
0.0
 40
2.5
  1
I
 11
11.566446
 21
18.402346
 31
0.0
 73
     1
  0
TEXT
  8
0
  6
CONTINUOUS
 10
13.018181
 20
18.902346
 30
0.0
 40
1.5
  1
2
 11
13.018181
 21
18.402346
 31
0.0
 73
     1
  0
LINE
  8
0
  6
CONTINUOUS
 10
10.65733
 20
12.773825
 30
0.0
 11
13.003095
 21
13.963744
 31
0.0
  0
LINE
  8
0
  6
CONTINUOUS
 10
13.003095
 20
11.438471
 30
0.0
 11
10.65733
 21
12.773825
 31
0.0
  0
LINE
  8
0
  6
CONTINUOUS
 10
6.557002
 20
16.714658
 30
0.0
 11
15.281743
 21
16.714658
 31
0.0
  0
LINE
  8
0
  6
CONTINUOUS
 10
6.557002
 20
17.523984
 30
0.0
 11
6.557002
 21
15.908791
 31
0.0
  0
LINE
  8
0
  6
CONTINUOUS
 10
15.286518
 20
17.523984
 30
0.0
 11
15.286518
 21
15.908791
 31
0.0
  0
ARC
  8
0
  6
CONTINUOUS
 10
12.684846
 20
18.508045
 30
0.0
 40
2.922744
 50
193.105513
 51
283.105513
  0
TEXT
  8
0
  6
CONTINUOUS
 10
6.557002
 20
11.567974
 30
0.0
 40
2.5
  1
2I
 11
6.557002
 21
10.734641
 31
0.0
 73
     1
  0
LINE
  8
0
  6
CONTINUOUS
 10
6.557002
 20
9.441103
 30
0.0
 11
15.281743
 21
9.441103
 31
0.0
  0
LINE
  8
0
  6
CONTINUOUS
 10
15.286518
 20
10.250429
 30
0.0
 11
15.286518
 21
8.635236
 31
0.0
  0
LINE
  8
0
  6
CONTINUOUS
 10
6.557002
 20
10.250429
 30
0.0
 11
6.557002
 21
8.635236
 31
0.0
  0
TEXT
  8
0
  6
CONTINUOUS
 10
6.557002
 20
4.778631
 30
0.0
 40
2.5
  1
I
 11
6.557002
 21
3.945298
 31
0.0
 73
     1
  0
LINE
  8
0
  6
CONTINUOUS
 10
9.509029
 20
6.822462
 30
0.0
 11
9.509029
 21
5.477736
 31
0.0
  0
LINE
  8
0
  6
CONTINUOUS
 10
8.615065
 20
5.477736
 30
0.0
 11
9.52622
 21
5.477736
 31
0.0
  0
LINE
  8
0
  6
CONTINUOUS
 10
9.509029
 20
5.477736
 30
0.0
 11
10.402992
 21
5.477736
 31
0.0
  0
LINE
  8
0
  6
CONTINUOUS
 10
8.901592
 20
5.082328
 30
0.0
 11
9.509029
 21
5.082328
 31
0.0
  0
LINE
  8
0
  6
CONTINUOUS
 10
9.509029
 20
5.082328
 30
0.0
 11
10.150849
 21
5.082328
 31
0.0
  0
LINE
  8
0
  6
CONTINUOUS
 10
9.981861
 20
4.719969
 30
0.0
 11
9.072041
 21
4.719969
 31
0.0
  0
LINE
  8
0
  6
CONTINUOUS
 10
15.286518
 20
2.797924
 30
0.0
 11
15.286518
 21
1.182731
 31
0.0
  0
LINE
  8
0
  6
CONTINUOUS
 10
6.557002
 20
1.988598
 30
0.0
 11
15.281743
 21
1.988598
 31
0.0
  0
LINE
  8
0
  6
CONTINUOUS
 10
6.557002
 20
2.797924
 30
0.0
 11
6.557002
 21
1.182731
 31
0.0
  0
ENDBLK
  8
0
  0
BLOCK
  8
0
  2
BLC27
 70
     0
 10
0.0
 20
0.0
 30
0.0
  3
BLC27
  0
INSERT
  8
SWEDEN2
  6
CENTER
  2
BLC26
 10
0.08063
 20
0.037985
 30
0.0
 41
1.006225
 42
1.006225
 43
1.006225
  0
ENDBLK
  8
0
  0
BLOCK
  8
0
  2
BLC26
 70
    64
 10
0.0
 20
0.0
 30
0.0
  3
BLC26
  0
ARC
  8
0
  6
CONTINUOUS
 10
-0.180576
 20
1.17922
 30
0.0
 40
1.196859
 50
90.0
 51
265.706237
  0
LINE
  8
0
  6
CONTINUOUS
 10
-0.186638
 20
-0.01092
 30
0.0
 11
0.458942
 21
-0.01092
 31
0.0
  0
LINE
  8
0
  6
CONTINUOUS
 10
-0.186638
 20
2.375671
 30
0.0
 11
0.45288
 21
2.375671
 31
0.0
  0
LINE
  8
0
  6
CONTINUOUS
 10
-0.185509
 20
-2.404629
 30
0.0
 11
0.460071
 21
-2.404629
 31
0.0
  0
ARC
  8
0
  6
CONTINUOUS
 10
-0.180576
 20
-1.207779
 30
0.0
 40
1.196859
 50
90.0
 51
270.0
  0
LINE
  8
0
  6
CONTINUOUS
 10
0.451525
 20
-2.404586
 30
0.0
 11
1.401805
 21
-2.404586
 31
0.0
  0
LINE
  8
0
  6
CONTINUOUS
 10
0.446785
 20
2.375674
 30
0.0
 11
1.418544
 21
2.375674
 31
0.0
  0
LINE
  8
0
  6
CONTINUOUS
 10
0.456627
 20
-0.010911
 30
0.0
 11
1.422749
 21
-0.010911
 31
0.0
  0
ENDBLK
  8
0
  0
BLOCK
  8
0
  2
BLC22
 70
     0
 10
0.0
 20
0.0
 30
0.0
  3
BLC22
  0
LINE
  8
HEL035
 10
0.0
 20
-0.00155
 30
0.0
 11
0.0
 21
9.99845
 31
0.0
  0
LINE
  8
21
 10
2.5
 20
10.0
 30
0.0
 11
5.0
 21
10.0
 31
0.0
  0
LINE
  8
HEL035
 10
0.0
 20
9.99845
 30
0.0
 11
2.5
 21
9.99845
 31
0.0
  0
LINE
  8
HEL035
 10
-2.5
 20
5.0
 30
0.0
 11
2.5
 21
5.0
 31
0.0
  0
LINE
  8
21
 10
2.5
 20
5.0
 30
0.0
 11
5.0
 21
5.0
 31
0.0
  0
LINE
  8
21
 10
5.0
 20
5.0
 30
0.0
 11
5.0
 21
7.9
 31
0.0
  0
LINE
  8
HEL035
 10
3.88095
 20
6.944425
 30
0.0
 11
4.560313
 21
6.008681
 31
0.0
  0
LINE
  8
21
 10
10.0
 20
10.0
 30
0.0
 11
4.2
 21
6.5
 31
0.0
  0
LINE
  8
HEL035
 10
2.5
 20
-0.00155
 30
0.0
 11
0.0
 21
-0.00155
 31
0.0
  0
LINE
  8
21
 10
2.5
 20
0.0
 30
0.0
 11
5.0
 21
0.0
 31
0.0
  0
ENDBLK
  8
0
  0
BLOCK
  8
0
  2
BLC18
 70
     0
 10
0.0
 20
0.0
 30
0.0
  3
BLC18
  0
LINE
  8
MUO
 10
-0.056268
 20
0.849555
 30
0.0
 11
8.307242
 21
9.215502
 31
0.0
  0
LINE
  8
MUO
 10
0.928025
 20
-0.107047
 30
0.0
 11
9.268386
 21
8.2307
 31
0.0
  0
LINE
  8
MUO
 10
-0.056268
 20
-0.107047
 30
0.0
 11
-0.056268
 21
9.215502
 31
0.0
  0
LINE
  8
MUO
 10
9.268386
 20
-0.107047
 30
0.0
 11
-0.056268
 21
-0.107047
 31
0.0
  0
LINE
  8
MUO
 10
9.268386
 20
9.215502
 30
0.0
 11
9.268386
 21
-0.107047
 31
0.0
  0
LINE
  8
MUO
 10
-0.056268
 20
9.215502
 30
0.0
 11
9.268386
 21
9.215502
 31
0.0
  0
ENDBLK
  8
0
  0
BLOCK
  8
0
  2
BLC29
 70
    64
 10
0.0
 20
0.0
 30
0.0
  3
BLC29
  0
LINE
  8
0
  6
CONTINUOUS
 10
0.004865
 20
1.206889
 30
0.0
 11
2.350631
 21
-0.128465
 31
0.0
  0
LINE
  8
0
  6
CONTINUOUS
 10
2.350631
 20
-0.128465
 30
0.0
 11
0.004865
 21
-1.318384
 31
0.0
  0
ENDBLK
  8
0
  0
BLOCK
  8
0
  2
WKU130
 70
    64
 10
190.0
 20
250.0
 30
0.0
  3
WKU130
  0
ARC
  8
21
 10
191.083333
 20
249.916667
 30
0.0
 40
1.086534
 50
32.471192
 51
175.601295
  0
ARC
  8
21
 10
192.916667
 20
251.083333
 30
0.0
 40
1.086534
 50
212.471192
 51
355.601295
  0
ENDBLK
  8
0
  0
BLOCK
  8
0
  2
BLC15
 70
    64
 10
0.0
 20
0.0
 30
0.0
  3
BLC15
  0
LINE
  8
0
  6
CONTINUOUS
 10
0.142084
 20
3.490022
 30
0.0
 11
0.142084
 21
0.844365
 31
0.0
  0
LINE
  8
0
  6
CONTINUOUS
 10
-0.461611
 20
-0.937188
 30
0.0
 11
0.745779
 21
-0.937188
 31
0.0
  0
LINE
  8
0
  6
CONTINUOUS
 10
-0.894108
 20
-0.049675
 30
0.0
 11
1.169267
 21
-0.049675
 31
0.0
  0
LINE
  8
0
  6
CONTINUOUS
 10
-1.389679
 20
0.844365
 30
0.0
 11
1.673848
 21
0.844365
 31
0.0
  0
ENDBLK
  8
0
  0
BLOCK
  8
0
  2
BLC55
 70
    64
 10
0.0
 20
0.0
 30
0.0
  3
BLC55
  0
INSERT
  8
SWEDEN
  6
CENTER
  2
BLC5
 10
0.087066
 20
-0.756831
 30
0.0
 41
0.6
 42
0.6
 43
0.6
  0
ENDBLK
  8
0
  0
BLOCK
  8
0
  2
BLC5
 70
    64
 10
0.0
 20
0.0
 30
0.0
  3
BLC5
  0
TEXT
  8
0
 10
-3.043704
 20
-6.645912
 30
0.0
 40
3.2
  1
PE
  0
LINE
  8
0
 10
-2.946392
 20
1.181176
 30
0.0
 11
2.135458
 21
1.181176
 31
0.0
  0
LINE
  8
0
 10
-0.48656
 20
2.238362
 30
0.0
 11
-0.48656
 21
6.930438
 31
0.0
  0
LINE
  8
0
 10
-1.973271
 20
0.065258
 30
0.0
 11
1.225411
 21
0.065258
 31
0.0
  0
LINE
  8
0
 10
2.685091
 20
2.238362
 30
0.0
 11
1.68494
 21
2.238362
 31
0.0
  0
LINE
  8
0
 10
-3.505035
 20
2.238362
 30
0.0
 11
2.649049
 21
2.238362
 31
0.0
  0
CIRCLE
  8
0
 10
-0.47755
 20
1.422632
 30
0.0
 40
3.804563
  0
ENDBLK
  8
0
  0
BLOCK
  8
0
  2
BLC43
 70
    64
 10
0.0
 20
0.0
 30
0.0
  3
BLC43
  0
TEXT
  8
SWEDEN2
  6
CONTINUOUS
 10
-0.646672
 20
-0.986365
 30
0.0
 40
2.0
  1
+
  0
ENDBLK
  8
0
  0
BLOCK
  8
0
  2
BLC42
 70
    64
 10
0.0
 20
0.0
 30
0.0
  3
BLC42
  0
TEXT
  8
SWEDEN2
  6
CONTINUOUS
 10
-0.655237
 20
-0.99442
 30
0.0
 40
2.0
  1
-
  0
ENDBLK
  8
0
  0
BLOCK
  8
0
  2
BLC44
 70
    64
 10
0.0
 20
0.0
 30
0.0
  3
BLC44
  0
LINE
  8
HEL035
 10
-2.520993
 20
1.697877
 30
0.0
 11
1.479007
 21
1.697877
 31
0.0
  0
INSERT
  8
HEL035
  2
WKU130
 10
-2.181043
 20
-0.027675
 30
0.0
 41
0.8
 42
0.8
 43
0.8
  0
ENDBLK
  8
0
  0
BLOCK
  8
0
  2
BLC25
 70
     0
 10
0.0
 20
0.0
 30
0.0
  3
BLC25
  0
TEXT
  8
0
  6
CONTINUOUS
 10
2.0
 20
30.666667
 30
0.0
 40
2.0
  1
1)
 11
2.0
 21
30.0
 31
0.0
 73
     1
  0
TEXT
  8
0
 10
6.0
 20
2.0
 30
0.0
 40
2.0
  1
7B    27     26
 11
6.0
 21
1.333333
 31
0.0
 73
     1
  0
TEXT
  8
0
 10
6.0
 20
5.333333
 30
0.0
 40
2.0
  1
5B     9      8
 11
6.0
 21
4.666667
 31
0.0
 73
     1
  0
TEXT
  8
0
 10
6.0
 20
8.666667
 30
0.0
 40
2.0
  1
3B     3      2
 11
6.0
 21
8.0
 31
0.0
 73
     1
  0
TEXT
  8
0
 10
32.0
 20
12.666667
 30
0.0
 40
2.0
  1
In=5A
 11
32.0
 21
12.0
 31
0.0
 73
     1
  0
TEXT
  8
0
 10
16.0
 20
12.666667
 30
0.0
 40
2.0
  1
In=1A 
 11
16.0
 21
12.0
 31
0.0
 73
     1
  0
TEXT
  8
0
 10
26.0
 20
18.666667
 30
0.0
 40
2.0
  1
108:
 11
26.0
 21
18.0
 31
0.0
 73
     1
  0
TEXT
  8
0
 10
6.0
 20
18.666667
 30
0.0
 40
2.0
  1
101:       
 11
6.0
 21
18.0
 31
0.0
 73
     1
  0
TEXT
  8
0
 10
6.0
 20
24.666667
 30
0.0
 40
2.0
  1
TERMINALS / UTTAG
 11
6.0
 21
24.0
 31
0.0
 73
     1
  0
LINE
  8
0
 10
0.0
 20
12.0
 30
0.0
 11
44.0
 21
12.0
 31
0.0
  0
LINE
  8
0
 10
28.0
 20
18.0
 30
0.0
 11
28.0
 21
0.0
 31
0.0
  0
LINE
  8
0
 10
14.0
 20
18.0
 30
0.0
 11
44.0
 21
18.0
 31
0.0
  0
LINE
  8
0
 10
14.0
 20
24.0
 30
0.0
 11
14.0
 21
0.0
 31
0.0
  0
LINE
  8
0
 10
0.0
 20
24.0
 30
0.0
 11
44.0
 21
24.0
 31
0.0
  0
LINE
  8
0
 10
44.0
 20
0.0
 30
0.0
 11
44.0
 21
30.0
 31
0.0
  0
LINE
  8
0
 10
0.0
 20
0.0
 30
0.0
 11
44.0
 21
0.0
 31
0.0
  0
LINE
  8
0
 10
0.0
 20
30.0
 30
0.0
 11
0.0
 21
0.0
 31
0.0
  0
LINE
  8
0
 10
44.0
 20
30.0
 30
0.0
 11
0.0
 21
30.0
 31
0.0
  0
ENDBLK
  8
0
  0
BLOCK
  8
0
  2
ABBA3V
 70
    64
 10
0.0
 20
0.0
 30
0.0
  3
ABBA3V
  0
TEXT
  8
RAAMI
  6
DASHED
 10
292.217194
 20
11.813359
 30
0.0
 40
3.0
  1
A3
  7
GREEKS
  0
TEXT
  8
RAAMI
  6
DASHED
 10
351.818577
 20
15.69253
 30
0.0
 40
1.4
  1
LEHTI SHEET
  7
GREEKS
  0
LINE
  8
PAKSU
 10
0.237099
 20
262.737999
 30
0.0
 11
392.237099
 21
262.737999
 31
0.0
  0
LINE
  8
RAAMI
 10
18.237099
 20
0.237999
 30
0.0
 11
0.237099
 21
0.237999
 31
0.0
  0
LINE
  8
PAKSU
 10
209.237099
 20
0.237999
 30
0.0
 11
392.237099
 21
0.237999
 31
0.0
  0
LINE
  8
PAKSU
 10
209.237099
 20
0.237999
 30
0.0
 11
209.237099
 21
35.237999
 31
0.0
  0
LINE
  8
PAKSU
 10
392.237099
 20
0.237999
 30
0.0
 11
392.237099
 21
35.237999
 31
0.0
  0
LINE
  8
OHUT
 10
209.237099
 20
18.237999
 30
0.0
 11
392.237099
 21
18.237999
 31
0.0
  0
LINE
  8
OHUT
 10
209.237099
 20
9.737999
 30
0.0
 11
392.237099
 21
9.737999
 31
0.0
  0
LINE
  8
OHUT
 10
209.237099
 20
26.737999
 30
0.0
 11
307.237099
 21
26.737999
 31
0.0
  0
LINE
  8
PAKSU
 10
209.237099
 20
35.237999
 30
0.0
 11
392.237099
 21
35.237999
 31
0.0
  0
TEXT
  8
RAAMI
 10
210.237099
 20
23.971333
 30
0.0
 40
1.4
  1
TARKASTI  CHECKED
  7
ROMANS
  0
TEXT
  8
RAAMI
 10
209.979934
 20
15.704666
 30
0.0
 40
1.4
  1
HYVÄKSYI  APPROVED
  7
ROMANS
  0
LINE
  8
OHUT
 10
307.237099
 20
0.237999
 30
0.0
 11
307.237099
 21
35.237999
 31
0.0
  0
TEXT
  8
RAAMI
 10
259.237099
 20
32.737999
 30
0.0
 40
1.4
  1
LIITTYY  CONCERNING
  7
ROMANS
  0
TEXT
  8
RAAMI
 10
259.237099
 20
23.737999
 30
0.0
 40
1.4
  1
TOLERANSSIT  TOLERANCES
  7
ROMANS
  0
TEXT
  8
RAAMI
 10
259.237099
 20
15.737999
 30
0.0
 40
1.4
  1
SUHDE  SCALE
  7
ROMANS
  0
TEXT
  8
RAAMI
 10
309.237099
 20
32.737999
 30
0.0
 40
1.4
  1
NIMITYS  NAME
  7
ROMANS
  0
TEXT
  8
RAAMI
 10
309.237099
 20
15.737999
 30
0.0
 40
1.4
  1
KOODI  CODE
  7
ROMANS
  0
TEXT
  8
RAAMI
 10
309.237099
 20
7.237999
 30
0.0
 40
1.4
  1
PIIRUSTUS NO  DRAWING NR
  7
ROMANS
  0
LINE
  8
OHUT
 10
349.737099
 20
9.737999
 30
0.0
 11
349.737099
 21
18.237999
 31
0.0
  0
TEXT
  8
RAAMI
 10
371.237099
 20
7.237999
 30
0.0
 40
1.4
  1
PAINOS  REVISION
  7
ROMANS
  0
LINE
  8
OHUT
 10
369.737099
 20
9.737999
 30
0.0
 11
369.737099
 21
0.237999
 31
0.0
  0
LINE
  8
RAAMI
 10
210.187099
 20
1.737999
 30
0.0
 11
211.937099
 21
1.737999
 31
0.0
  0
LINE
  8
RAAMI
 10
215.437099
 20
1.737999
 30
0.0
 11
217.187099
 21
1.737999
 31
0.0
  0
LINE
  8
RAAMI
 10
212.637099
 20
8.737999
 30
0.0
 11
211.459571
 21
5.373634
 31
0.0
  0
LINE
  8
RAAMI
 10
212.425886
 20
3.137999
 30
0.0
 11
213.547099
 21
3.137999
 31
0.0
  0
LINE
  8
RAAMI
 10
212.425889
 20
3.134542
 30
0.0
 11
211.937099
 21
1.737999
 31
0.0
  0
LINE
  8
RAAMI
 10
214.737099
 20
8.737999
 30
0.0
 11
215.913452
 21
5.376991
 31
0.0
  0
LINE
  8
RAAMI
 10
214.948197
 20
3.134863
 30
0.0
 11
215.437099
 21
1.737999
 31
0.0
  0
LINE
  8
RAAMI
 10
214.737099
 20
8.737999
 30
0.0
 11
213.827099
 21
8.737999
 31
0.0
  0
LINE
  8
RAAMI
 10
213.547099
 20
8.737999
 30
0.0
 11
213.547099
 21
5.377999
 31
0.0
  0
LINE
  8
RAAMI
 10
213.827099
 20
8.737999
 30
0.0
 11
213.827099
 21
5.377999
 31
0.0
  0
LINE
  8
RAAMI
 10
213.827099
 20
3.137999
 30
0.0
 11
214.946992
 21
3.137999
 31
0.0
  0
LINE
  8
RAAMI
 10
213.547099
 20
8.737999
 30
0.0
 11
212.637099
 21
8.737999
 31
0.0
  0
LINE
  8
RAAMI
 10
211.45904
 20
5.377999
 30
0.0
 11
213.547099
 21
5.377999
 31
0.0
  0
LINE
  8
RAAMI
 10
211.360082
 20
5.097999
 30
0.0
 11
213.547099
 21
5.097999
 31
0.0
  0
LINE
  8
RAAMI
 10
216.011591
 20
5.096594
 30
0.0
 11
217.187099
 21
1.737999
 31
0.0
  0
LINE
  8
RAAMI
 10
213.827099
 20
5.377999
 30
0.0
 11
215.912213
 21
5.377999
 31
0.0
  0
LINE
  8
RAAMI
 10
213.827099
 20
5.097999
 30
0.0
 11
216.010356
 21
5.097999
 31
0.0
  0
LINE
  8
RAAMI
 10
213.827099
 20
5.097999
 30
0.0
 11
213.827099
 21
3.137999
 31
0.0
  0
LINE
  8
RAAMI
 10
213.547099
 20
5.097999
 30
0.0
 11
213.547099
 21
3.137999
 31
0.0
  0
LINE
  8
RAAMI
 10
211.356988
 20
5.080538
 30
0.0
 11
210.187099
 21
1.737999
 31
0.0
  0
INSERT
  8
RAAMI
  2
*X16
 10
210.187099
 20
1.737999
 30
0.0
 41
0.7
 42
0.7
 43
0.7
  0
INSERT
  8
RAAMI
  2
*X17
 10
210.187099
 20
1.737999
 30
0.0
 41
0.7
 42
0.7
 43
0.7
  0
INSERT
  8
RAAMI
  2
*X18
 10
210.187099
 20
1.737999
 30
0.0
 41
0.7
 42
0.7
 43
0.7
  0
INSERT
  8
RAAMI
  2
*X19
 10
210.187099
 20
1.737999
 30
0.0
 41
0.7
 42
0.7
 43
0.7
  0
LINE
  8
RAAMI
 10
217.677099
 20
1.737999
 30
0.0
 11
217.677099
 21
5.097999
 31
0.0
  0
LINE
  8
RAAMI
 10
217.677099
 20
8.737999
 30
0.0
 11
219.637099
 21
8.737999
 31
0.0
  0
LINE
  8
RAAMI
 10
219.637099
 20
8.737999
 30
0.0
 11
219.637099
 21
5.377999
 31
0.0
  0
LINE
  8
RAAMI
 10
219.637099
 20
5.377999
 30
0.0
 11
217.677099
 21
5.377999
 31
0.0
  0
LINE
  8
RAAMI
 10
217.677099
 20
5.097999
 30
0.0
 11
219.637099
 21
5.097999
 31
0.0
  0
LINE
  8
RAAMI
 10
219.637099
 20
5.097999
 30
0.0
 11
219.637099
 21
1.737999
 31
0.0
  0
LINE
  8
RAAMI
 10
219.637099
 20
1.737999
 30
0.0
 11
217.677099
 21
1.737999
 31
0.0
  0
LINE
  8
RAAMI
 10
217.677099
 20
5.377999
 30
0.0
 11
217.677099
 21
8.737999
 31
0.0
  0
ARC
  8
RAAMI
 10
220.477099
 20
7.162999
 30
0.0
 40
1.575
 50
298.455859
 51
90.052437
  0
LINE
  8
RAAMI
 10
219.917099
 20
8.737999
 30
0.0
 11
220.475658
 21
8.737999
 31
0.0
  0
LINE
  8
RAAMI
 10
219.917099
 20
8.737999
 30
0.0
 11
219.917099
 21
5.377999
 31
0.0
  0
LINE
  8
RAAMI
 10
219.917099
 20
5.377999
 30
0.0
 11
221.901542
 21
5.377999
 31
0.0
  0
LINE
  8
RAAMI
 10
222.157099
 20
5.097999
 30
0.0
 11
219.917099
 21
5.097999
 31
0.0
  0
LINE
  8
RAAMI
 10
219.917099
 20
5.097999
 30
0.0
 11
219.917099
 21
1.737999
 31
0.0
  0
ARC
  8
RAAMI
 10
220.477099
 20
3.837999
 30
0.0
 40
2.1
 50
269.937724
 51
37.056553
  0
LINE
  8
RAAMI
 10
219.917099
 20
1.737999
 30
0.0
 11
220.474817
 21
1.738
 31
0.0
  0
ARC
  8
RAAMI
 10
220.477099
 20
3.837999
 30
0.0
 40
2.1
 50
47.28622
 51
68.787999
  0
INSERT
  8
RAAMI
  2
*X20
 10
210.187099
 20
1.737999
 30
0.0
 41
0.7
 42
0.7
 43
0.7
  0
INSERT
  8
RAAMI
  2
*X21
 10
210.187099
 20
1.737999
 30
0.0
 41
0.7
 42
0.7
 43
0.7
  0
INSERT
  8
RAAMI
  2
*X22
 10
210.187099
 20
1.737999
 30
0.0
 41
0.7
 42
0.7
 43
0.7
  0
INSERT
  8
RAAMI
  2
*X23
 10
210.187099
 20
1.737999
 30
0.0
 41
0.7
 42
0.7
 43
0.7
  0
INSERT
  8
RAAMI
  2
*X23
 10
215.647099
 20
1.737999
 30
0.0
 41
0.7
 42
0.7
 43
0.7
  0
INSERT
  8
RAAMI
  2
*X22
 10
215.647099
 20
1.737999
 30
0.0
 41
0.7
 42
0.7
 43
0.7
  0
INSERT
  8
RAAMI
  2
*X21
 10
215.647099
 20
1.737999
 30
0.0
 41
0.7
 42
0.7
 43
0.7
  0
INSERT
  8
RAAMI
  2
*X20
 10
215.647099
 20
1.737999
 30
0.0
 41
0.7
 42
0.7
 43
0.7
  0
ARC
  8
RAAMI
 10
225.937099
 20
3.837999
 30
0.0
 40
2.1
 50
47.28622
 51
68.787999
  0
LINE
  8
RAAMI
 10
225.377099
 20
1.737999
 30
0.0
 11
225.934817
 21
1.738
 31
0.0
  0
ARC
  8
RAAMI
 10
225.937099
 20
3.837999
 30
0.0
 40
2.1
 50
269.937724
 51
37.056553
  0
LINE
  8
RAAMI
 10
225.377099
 20
5.097999
 30
0.0
 11
225.377099
 21
1.737999
 31
0.0
  0
LINE
  8
RAAMI
 10
227.617099
 20
5.097999
 30
0.0
 11
225.377099
 21
5.097999
 31
0.0
  0
LINE
  8
RAAMI
 10
225.377099
 20
5.377999
 30
0.0
 11
227.361542
 21
5.377999
 31
0.0
  0
LINE
  8
RAAMI
 10
225.377099
 20
8.737999
 30
0.0
 11
225.377099
 21
5.377999
 31
0.0
  0
LINE
  8
RAAMI
 10
225.377099
 20
8.737999
 30
0.0
 11
225.935658
 21
8.737999
 31
0.0
  0
ARC
  8
RAAMI
 10
225.937099
 20
7.162999
 30
0.0
 40
1.575
 50
298.455859
 51
90.052437
  0
LINE
  8
RAAMI
 10
223.137099
 20
5.377999
 30
0.0
 11
223.137099
 21
8.737999
 31
0.0
  0
LINE
  8
RAAMI
 10
225.097099
 20
1.737999
 30
0.0
 11
223.137099
 21
1.737999
 31
0.0
  0
LINE
  8
RAAMI
 10
225.097099
 20
5.097999
 30
0.0
 11
225.097099
 21
1.737999
 31
0.0
  0
LINE
  8
RAAMI
 10
223.137099
 20
5.097999
 30
0.0
 11
225.097099
 21
5.097999
 31
0.0
  0
LINE
  8
RAAMI
 10
225.097099
 20
5.377999
 30
0.0
 11
223.137099
 21
5.377999
 31
0.0
  0
LINE
  8
RAAMI
 10
225.097099
 20
8.737999
 30
0.0
 11
225.097099
 21
5.377999
 31
0.0
  0
LINE
  8
RAAMI
 10
223.137099
 20
8.737999
 30
0.0
 11
225.097099
 21
8.737999
 31
0.0
  0
LINE
  8
RAAMI
 10
223.137099
 20
1.737999
 30
0.0
 11
223.137099
 21
5.097999
 31
0.0
  0
TEXT
  8
RAAMI
 10
229.737099
 20
1.737999
 30
0.0
 40
3.0
  1
ABB 
 41
0.8
  7
ROMANS
  0
TEXT
  8
RAAMI
 10
237.737099
 20
1.737999
 30
0.0
 40
3.0
  1
Strömberg
 41
0.8
  7
ROMANS
  0
LINE
  8
OHUT
 10
282.237099
 20
9.737999
 30
0.0
 11
282.237099
 21
18.237999
 31
0.0
  0
TEXT
  8
RAAMI
 10
27.737099
 20
4.737999
 30
0.0
 40
1.4
  1
MUUTOS
  7
ROMANS
  0
TEXT
  8
RAAMI
 10
27.737099
 20
2.471333
 30
0.0
 40
1.4
  1
REVISION
  7
ROMANS
  0
LINE
  8
OHUT
 10
46.737099
 20
9.237999
 30
0.0
 11
209.237099
 21
9.237999
 31
0.0
  0
LINE
  8
OHUT
 10
46.737099
 20
0.237999
 30
0.0
 11
46.737099
 21
9.237999
 31
0.0
  0
LINE
  8
OHUT
 10
40.737099
 20
4.737999
 30
0.0
 11
209.237099
 21
4.737999
 31
0.0
  0
LINE
  8
OHUT
 10
257.237099
 20
9.737999
 30
0.0
 11
257.237099
 21
35.237999
 31
0.0
  0
LINE
  8
OHUT
 10
271.237099
 20
9.737999
 30
0.0
 11
271.237099
 21
0.237999
 31
0.0
  0
TEXT
  8
RAAMI
 10
210.237099
 20
32.237999
 30
0.0
 40
1.4
  1
TEKI  PREPARED
  7
ROMANS
  0
TEXT
  8
RAAMI
 10
273.237099
 20
7.237999
 30
0.0
 40
1.4
  1
VAST.OSASTO RESP.DEPT.
  7
ROMANS
  0
TEXT
  8
RAAMI
 10
257.407006
 20
1.741783
 30
0.0
 40
3.0
  1
Power
 41
0.8
  7
ROMANS
  0
TEXT
  8
RAAMI
 10
42.237099
 20
1.195292
 30
0.0
 40
2.5
  1
B
  7
ROMANS
  0
TEXT
  8
RAAMI
 10
42.237099
 20
5.587508
 30
0.0
 40
2.5
  1
C
  7
ROMANS
  0
LINE
  8
PAKSU
 10
0.237099
 20
0.237999
 30
0.0
 11
392.237099
 21
0.237999
 31
0.0
  0
LINE
  8
PAKSU
 10
392.237099
 20
262.737999
 30
0.0
 11
392.237099
 21
0.237999
 31
0.0
  0
LINE
  8
PAKSU
 10
0.237099
 20
0.237999
 30
0.0
 11
0.237099
 21
262.737999
 31
0.0
  0
ENDBLK
  8
0
  0
BLOCK
  8
0
  2
*X16
 70
    65
 10
0.0
 20
0.0
 30
0.0
  3
*X
  0
LINE
  8
0
 62
     0
 10
2.284499
 20
6.52714
 30
0.0
 11
4.8
 21
9.042641
 31
0.0
  0
LINE
  8
0
 62
     0
 10
2.379686
 20
6.799104
 30
0.0
 11
4.8
 21
9.219417
 31
0.0
  0
LINE
  8
0
 62
     0
 10
2.474874
 20
7.071068
 30
0.0
 11
4.8
 21
9.396194
 31
0.0
  0
LINE
  8
0
 62
     0
 10
2.570061
 20
7.343032
 30
0.0
 11
4.8
 21
9.572971
 31
0.0
  0
LINE
  8
0
 62
     0
 10
2.665249
 20
7.614996
 30
0.0
 11
4.8
 21
9.749747
 31
0.0
  0
LINE
  8
0
 62
     0
 10
2.760436
 20
7.88696
 30
0.0
 11
4.8
 21
9.926524
 31
0.0
  0
LINE
  8
0
 62
     0
 10
2.855624
 20
8.158924
 30
0.0
 11
4.696699
 21
10.0
 31
0.0
  0
LINE
  8
0
 62
     0
 10
2.950811
 20
8.430889
 30
0.0
 11
4.519922
 21
10.0
 31
0.0
  0
LINE
  8
0
 62
     0
 10
3.045998
 20
8.702853
 30
0.0
 11
4.343146
 21
10.0
 31
0.0
  0
LINE
  8
0
 62
     0
 10
3.141186
 20
8.974817
 30
0.0
 11
4.166369
 21
10.0
 31
0.0
  0
LINE
  8
0
 62
     0
 10
3.236373
 20
9.246781
 30
0.0
 11
3.989592
 21
10.0
 31
0.0
  0
LINE
  8
0
 62
     0
 10
3.331561
 20
9.518745
 30
0.0
 11
3.812816
 21
10.0
 31
0.0
  0
LINE
  8
0
 62
     0
 10
3.426748
 20
9.790709
 30
0.0
 11
3.636039
 21
10.0
 31
0.0
  0
LINE
  8
0
 62
     0
 10
2.189311
 20
6.255175
 30
0.0
 11
4.8
 21
8.865864
 31
0.0
  0
LINE
  8
0
 62
     0
 10
2.094124
 20
5.983211
 30
0.0
 11
4.8
 21
8.689087
 31
0.0
  0
LINE
  8
0
 62
     0
 10
1.998936
 20
5.711247
 30
0.0
 11
4.8
 21
8.512311
 31
0.0
  0
LINE
  8
0
 62
     0
 10
1.903749
 20
5.439283
 30
0.0
 11
4.8
 21
8.335534
 31
0.0
  0
LINE
  8
0
 62
     0
 10
1.841243
 20
5.2
 30
0.0
 11
4.8
 21
8.158757
 31
0.0
  0
LINE
  8
0
 62
     0
 10
2.018019
 20
5.2
 30
0.0
 11
4.8
 21
7.981981
 31
0.0
  0
LINE
  8
0
 62
     0
 10
2.194796
 20
5.2
 30
0.0
 11
4.8
 21
7.805204
 31
0.0
  0
LINE
  8
0
 62
     0
 10
2.371573
 20
5.2
 30
0.0
 11
4.8
 21
7.628427
 31
0.0
  0
LINE
  8
0
 62
     0
 10
2.54835
 20
5.2
 30
0.0
 11
4.8
 21
7.45165
 31
0.0
  0
LINE
  8
0
 62
     0
 10
2.725126
 20
5.2
 30
0.0
 11
4.8
 21
7.274874
 31
0.0
  0
LINE
  8
0
 62
     0
 10
2.901903
 20
5.2
 30
0.0
 11
4.8
 21
7.098097
 31
0.0
  0
LINE
  8
0
 62
     0
 10
3.07868
 20
5.2
 30
0.0
 11
4.8
 21
6.92132
 31
0.0
  0
LINE
  8
0
 62
     0
 10
3.255456
 20
5.2
 30
0.0
 11
4.8
 21
6.744544
 31
0.0
  0
LINE
  8
0
 62
     0
 10
3.432233
 20
5.2
 30
0.0
 11
4.8
 21
6.567767
 31
0.0
  0
LINE
  8
0
 62
     0
 10
3.60901
 20
5.2
 30
0.0
 11
4.8
 21
6.39099
 31
0.0
  0
LINE
  8
0
 62
     0
 10
3.785786
 20
5.2
 30
0.0
 11
4.8
 21
6.214214
 31
0.0
  0
LINE
  8
0
 62
     0
 10
3.962563
 20
5.2
 30
0.0
 11
4.8
 21
6.037437
 31
0.0
  0
LINE
  8
0
 62
     0
 10
4.13934
 20
5.2
 30
0.0
 11
4.8
 21
5.86066
 31
0.0
  0
LINE
  8
0
 62
     0
 10
4.316117
 20
5.2
 30
0.0
 11
4.8
 21
5.683883
 31
0.0
  0
LINE
  8
0
 62
     0
 10
4.492893
 20
5.2
 30
0.0
 11
4.8
 21
5.507107
 31
0.0
  0
LINE
  8
0
 62
     0
 10
4.66967
 20
5.2
 30
0.0
 11
4.8
 21
5.33033
 31
0.0
  0
ENDBLK
  8
0
  0
BLOCK
  8
0
  2
*X17
 70
    65
 10
0.0
 20
0.0
 30
0.0
  3
*X
  0
LINE
  8
0
 62
     0
 10
5.2
 20
6.083883
 30
0.0
 11
7.178252
 21
8.062136
 31
0.0
  0
LINE
  8
0
 62
     0
 10
5.2
 20
6.26066
 30
0.0
 11
7.132421
 21
8.193082
 31
0.0
  0
LINE
  8
0
 62
     0
 10
5.2
 20
6.437437
 30
0.0
 11
7.08659
 21
8.324027
 31
0.0
  0
LINE
  8
0
 62
     0
 10
5.2
 20
6.614214
 30
0.0
 11
7.040759
 21
8.454973
 31
0.0
  0
LINE
  8
0
 62
     0
 10
5.2
 20
6.79099
 30
0.0
 11
6.994928
 21
8.585919
 31
0.0
  0
LINE
  8
0
 62
     0
 10
5.2
 20
6.967767
 30
0.0
 11
6.949097
 21
8.716864
 31
0.0
  0
LINE
  8
0
 62
     0
 10
5.2
 20
7.144544
 30
0.0
 11
6.903266
 21
8.84781
 31
0.0
  0
LINE
  8
0
 62
     0
 10
5.2
 20
7.32132
 30
0.0
 11
6.857435
 21
8.978756
 31
0.0
  0
LINE
  8
0
 62
     0
 10
5.2
 20
7.498097
 30
0.0
 11
6.811604
 21
9.109702
 31
0.0
  0
LINE
  8
0
 62
     0
 10
5.2
 20
7.674874
 30
0.0
 11
6.765773
 21
9.240647
 31
0.0
  0
LINE
  8
0
 62
     0
 10
5.2
 20
7.85165
 30
0.0
 11
6.719942
 21
9.371593
 31
0.0
  0
LINE
  8
0
 62
     0
 10
5.2
 20
8.028427
 30
0.0
 11
6.674111
 21
9.502539
 31
0.0
  0
LINE
  8
0
 62
     0
 10
5.2
 20
8.205204
 30
0.0
 11
6.62828
 21
9.633484
 31
0.0
  0
LINE
  8
0
 62
     0
 10
5.2
 20
8.381981
 30
0.0
 11
6.582449
 21
9.76443
 31
0.0
  0
LINE
  8
0
 62
     0
 10
5.2
 20
8.558757
 30
0.0
 11
6.536619
 21
9.895376
 31
0.0
  0
LINE
  8
0
 62
     0
 10
5.2
 20
8.735534
 30
0.0
 11
6.464466
 21
10.0
 31
0.0
  0
LINE
  8
0
 62
     0
 10
5.2
 20
8.912311
 30
0.0
 11
6.287689
 21
10.0
 31
0.0
  0
LINE
  8
0
 62
     0
 10
5.2
 20
9.089087
 30
0.0
 11
6.110913
 21
10.0
 31
0.0
  0
LINE
  8
0
 62
     0
 10
5.2
 20
9.265864
 30
0.0
 11
5.934136
 21
10.0
 31
0.0
  0
LINE
  8
0
 62
     0
 10
5.2
 20
9.442641
 30
0.0
 11
5.757359
 21
10.0
 31
0.0
  0
LINE
  8
0
 62
     0
 10
5.2
 20
9.619417
 30
0.0
 11
5.580583
 21
10.0
 31
0.0
  0
LINE
  8
0
 62
     0
 10
5.2
 20
9.796194
 30
0.0
 11
5.403806
 21
10.0
 31
0.0
  0
LINE
  8
0
 62
     0
 10
5.2
 20
9.972971
 30
0.0
 11
5.227029
 21
10.0
 31
0.0
  0
LINE
  8
0
 62
     0
 10
5.2
 20
5.907107
 30
0.0
 11
7.224083
 21
7.93119
 31
0.0
  0
LINE
  8
0
 62
     0
 10
5.2
 20
5.73033
 30
0.0
 11
7.269914
 21
7.800245
 31
0.0
  0
LINE
  8
0
 62
     0
 10
5.2
 20
5.553553
 30
0.0
 11
7.315745
 21
7.669299
 31
0.0
  0
LINE
  8
0
 62
     0
 10
5.2
 20
5.376777
 30
0.0
 11
7.361576
 21
7.538353
 31
0.0
  0
LINE
  8
0
 62
     0
 10
5.2
 20
5.2
 30
0.0
 11
7.407407
 21
7.407407
 31
0.0
  0
LINE
  8
0
 62
     0
 10
5.376777
 20
5.2
 30
0.0
 11
7.453238
 21
7.276462
 31
0.0
  0
LINE
  8
0
 62
     0
 10
5.553553
 20
5.2
 30
0.0
 11
7.499069
 21
7.145516
 31
0.0
  0
LINE
  8
0
 62
     0
 10
5.73033
 20
5.2
 30
0.0
 11
7.5449
 21
7.01457
 31
0.0
  0
LINE
  8
0
 62
     0
 10
5.907107
 20
5.2
 30
0.0
 11
7.590731
 21
6.883625
 31
0.0
  0
LINE
  8
0
 62
     0
 10
6.083883
 20
5.2
 30
0.0
 11
7.636562
 21
6.752679
 31
0.0
  0
LINE
  8
0
 62
     0
 10
6.26066
 20
5.2
 30
0.0
 11
7.682393
 21
6.621733
 31
0.0
  0
LINE
  8
0
 62
     0
 10
6.437437
 20
5.2
 30
0.0
 11
7.728224
 21
6.490788
 31
0.0
  0
LINE
  8
0
 62
     0
 10
6.614214
 20
5.2
 30
0.0
 11
7.774055
 21
6.359842
 31
0.0
  0
LINE
  8
0
 62
     0
 10
6.79099
 20
5.2
 30
0.0
 11
7.819886
 21
6.228896
 31
0.0
  0
LINE
  8
0
 62
     0
 10
6.967767
 20
5.2
 30
0.0
 11
7.865717
 21
6.09795
 31
0.0
  0
LINE
  8
0
 62
     0
 10
7.144544
 20
5.2
 30
0.0
 11
7.911548
 21
5.967005
 31
0.0
  0
LINE
  8
0
 62
     0
 10
7.32132
 20
5.2
 30
0.0
 11
7.957379
 21
5.836059
 31
0.0
  0
LINE
  8
0
 62
     0
 10
7.498097
 20
5.2
 30
0.0
 11
8.00321
 21
5.705113
 31
0.0
  0
LINE
  8
0
 62
     0
 10
7.674874
 20
5.2
 30
0.0
 11
8.049041
 21
5.574168
 31
0.0
  0
LINE
  8
0
 62
     0
 10
7.85165
 20
5.2
 30
0.0
 11
8.094872
 21
5.443222
 31
0.0
  0
LINE
  8
0
 62
     0
 10
8.028427
 20
5.2
 30
0.0
 11
8.140703
 21
5.312276
 31
0.0
  0
ENDBLK
  8
0
  0
BLOCK
  8
0
  2
*X18
 70
    65
 10
0.0
 20
0.0
 30
0.0
  3
*X
  0
LINE
  8
0
 62
     0
 10
0.0
 20
0.0
 30
0.0
 11
4.8
 21
4.8
 31
0.0
  0
LINE
  8
0
 62
     0
 10
0.095187
 20
0.271964
 30
0.0
 11
4.623223
 21
4.8
 31
0.0
  0
LINE
  8
0
 62
     0
 10
0.190375
 20
0.543928
 30
0.0
 11
4.446447
 21
4.8
 31
0.0
  0
LINE
  8
0
 62
     0
 10
0.285562
 20
0.815892
 30
0.0
 11
4.26967
 21
4.8
 31
0.0
  0
LINE
  8
0
 62
     0
 10
0.38075
 20
1.087857
 30
0.0
 11
4.092893
 21
4.8
 31
0.0
  0
LINE
  8
0
 62
     0
 10
0.475937
 20
1.359821
 30
0.0
 11
3.916117
 21
4.8
 31
0.0
  0
LINE
  8
0
 62
     0
 10
0.571125
 20
1.631785
 30
0.0
 11
3.73934
 21
4.8
 31
0.0
  0
LINE
  8
0
 62
     0
 10
0.666312
 20
1.903749
 30
0.0
 11
3.562563
 21
4.8
 31
0.0
  0
LINE
  8
0
 62
     0
 10
0.7615
 20
2.175713
 30
0.0
 11
3.385786
 21
4.8
 31
0.0
  0
LINE
  8
0
 62
     0
 10
0.856687
 20
2.447677
 30
0.0
 11
3.20901
 21
4.8
 31
0.0
  0
LINE
  8
0
 62
     0
 10
0.951875
 20
2.719641
 30
0.0
 11
3.032233
 21
4.8
 31
0.0
  0
LINE
  8
0
 62
     0
 10
1.047062
 20
2.991606
 30
0.0
 11
2.855456
 21
4.8
 31
0.0
  0
LINE
  8
0
 62
     0
 10
1.142249
 20
3.26357
 30
0.0
 11
2.67868
 21
4.8
 31
0.0
  0
LINE
  8
0
 62
     0
 10
1.237437
 20
3.535534
 30
0.0
 11
2.501903
 21
4.8
 31
0.0
  0
LINE
  8
0
 62
     0
 10
1.332624
 20
3.807498
 30
0.0
 11
2.325126
 21
4.8
 31
0.0
  0
LINE
  8
0
 62
     0
 10
1.427812
 20
4.079462
 30
0.0
 11
2.14835
 21
4.8
 31
0.0
  0
LINE
  8
0
 62
     0
 10
1.522999
 20
4.351426
 30
0.0
 11
1.971573
 21
4.8
 31
0.0
  0
LINE
  8
0
 62
     0
 10
1.618187
 20
4.62339
 30
0.0
 11
1.794796
 21
4.8
 31
0.0
  0
LINE
  8
0
 62
     0
 10
0.176777
 20
0.0
 30
0.0
 11
4.8
 21
4.623223
 31
0.0
  0
LINE
  8
0
 62
     0
 10
0.353553
 20
0.0
 30
0.0
 11
4.8
 21
4.446447
 31
0.0
  0
LINE
  8
0
 62
     0
 10
0.53033
 20
0.0
 30
0.0
 11
4.8
 21
4.26967
 31
0.0
  0
LINE
  8
0
 62
     0
 10
0.707107
 20
0.0
 30
0.0
 11
4.8
 21
4.092893
 31
0.0
  0
LINE
  8
0
 62
     0
 10
0.883883
 20
0.0
 30
0.0
 11
4.8
 21
3.916117
 31
0.0
  0
LINE
  8
0
 62
     0
 10
1.06066
 20
0.0
 30
0.0
 11
4.8
 21
3.73934
 31
0.0
  0
LINE
  8
0
 62
     0
 10
1.237437
 20
0.0
 30
0.0
 11
3.179842
 21
1.942405
 31
0.0
  0
LINE
  8
0
 62
     0
 10
3.237437
 20
2.0
 30
0.0
 11
4.8
 21
3.562563
 31
0.0
  0
LINE
  8
0
 62
     0
 10
1.414214
 20
0.0
 30
0.0
 11
3.084654
 21
1.670441
 31
0.0
  0
LINE
  8
0
 62
     0
 10
3.414214
 20
2.0
 30
0.0
 11
4.8
 21
3.385786
 31
0.0
  0
LINE
  8
0
 62
     0
 10
1.59099
 20
0.0
 30
0.0
 11
2.989467
 21
1.398477
 31
0.0
  0
LINE
  8
0
 62
     0
 10
3.59099
 20
2.0
 30
0.0
 11
4.8
 21
3.20901
 31
0.0
  0
LINE
  8
0
 62
     0
 10
1.767767
 20
0.0
 30
0.0
 11
2.894279
 21
1.126512
 31
0.0
  0
LINE
  8
0
 62
     0
 10
3.767767
 20
2.0
 30
0.0
 11
4.8
 21
3.032233
 31
0.0
  0
LINE
  8
0
 62
     0
 10
1.944544
 20
0.0
 30
0.0
 11
2.799092
 21
0.854548
 31
0.0
  0
LINE
  8
0
 62
     0
 10
3.944544
 20
2.0
 30
0.0
 11
4.8
 21
2.855456
 31
0.0
  0
LINE
  8
0
 62
     0
 10
2.12132
 20
0.0
 30
0.0
 11
2.703904
 21
0.582584
 31
0.0
  0
LINE
  8
0
 62
     0
 10
4.12132
 20
2.0
 30
0.0
 11
4.8
 21
2.67868
 31
0.0
  0
LINE
  8
0
 62
     0
 10
2.298097
 20
0.0
 30
0.0
 11
2.608717
 21
0.31062
 31
0.0
  0
LINE
  8
0
 62
     0
 10
4.298097
 20
2.0
 30
0.0
 11
4.8
 21
2.501903
 31
0.0
  0
LINE
  8
0
 62
     0
 10
2.474874
 20
0.0
 30
0.0
 11
2.51353
 21
0.038656
 31
0.0
  0
LINE
  8
0
 62
     0
 10
4.474874
 20
2.0
 30
0.0
 11
4.8
 21
2.325126
 31
0.0
  0
LINE
  8
0
 62
     0
 10
4.65165
 20
2.0
 30
0.0
 11
4.8
 21
2.14835
 31
0.0
  0
ENDBLK
  8
0
  0
BLOCK
  8
0
  2
*X19
 70
    65
 10
0.0
 20
0.0
 30
0.0
  3
*X
  0
LINE
  8
0
 62
     0
 10
6.884654
 20
1.75813
 30
0.0
 11
8.736506
 21
3.609982
 31
0.0
  0
LINE
  8
0
 62
     0
 10
6.838823
 20
1.889076
 30
0.0
 11
8.690675
 21
3.740928
 31
0.0
  0
LINE
  8
0
 62
     0
 10
6.772971
 20
2.0
 30
0.0
 11
8.644844
 21
3.871874
 31
0.0
  0
LINE
  8
0
 62
     0
 10
6.596194
 20
2.0
 30
0.0
 11
8.599013
 21
4.002819
 31
0.0
  0
LINE
  8
0
 62
     0
 10
6.419417
 20
2.0
 30
0.0
 11
8.553182
 21
4.133765
 31
0.0
  0
LINE
  8
0
 62
     0
 10
6.242641
 20
2.0
 30
0.0
 11
8.507351
 21
4.264711
 31
0.0
  0
LINE
  8
0
 62
     0
 10
6.065864
 20
2.0
 30
0.0
 11
8.46152
 21
4.395656
 31
0.0
  0
LINE
  8
0
 62
     0
 10
5.889087
 20
2.0
 30
0.0
 11
8.415689
 21
4.526602
 31
0.0
  0
LINE
  8
0
 62
     0
 10
5.712311
 20
2.0
 30
0.0
 11
8.369858
 21
4.657548
 31
0.0
  0
LINE
  8
0
 62
     0
 10
5.535534
 20
2.0
 30
0.0
 11
8.324027
 21
4.788493
 31
0.0
  0
LINE
  8
0
 62
     0
 10
5.358757
 20
2.0
 30
0.0
 11
8.158757
 21
4.8
 31
0.0
  0
LINE
  8
0
 62
     0
 10
5.2
 20
2.018019
 30
0.0
 11
7.981981
 21
4.8
 31
0.0
  0
LINE
  8
0
 62
     0
 10
5.2
 20
2.194796
 30
0.0
 11
7.805204
 21
4.8
 31
0.0
  0
LINE
  8
0
 62
     0
 10
5.2
 20
2.371573
 30
0.0
 11
7.628427
 21
4.8
 31
0.0
  0
LINE
  8
0
 62
     0
 10
5.2
 20
2.54835
 30
0.0
 11
7.45165
 21
4.8
 31
0.0
  0
LINE
  8
0
 62
     0
 10
5.2
 20
2.725126
 30
0.0
 11
7.274874
 21
4.8
 31
0.0
  0
LINE
  8
0
 62
     0
 10
5.2
 20
2.901903
 30
0.0
 11
7.098097
 21
4.8
 31
0.0
  0
LINE
  8
0
 62
     0
 10
5.2
 20
3.07868
 30
0.0
 11
6.92132
 21
4.8
 31
0.0
  0
LINE
  8
0
 62
     0
 10
5.2
 20
3.255456
 30
0.0
 11
6.744544
 21
4.8
 31
0.0
  0
LINE
  8
0
 62
     0
 10
5.2
 20
3.432233
 30
0.0
 11
6.567767
 21
4.8
 31
0.0
  0
LINE
  8
0
 62
     0
 10
5.2
 20
3.60901
 30
0.0
 11
6.39099
 21
4.8
 31
0.0
  0
LINE
  8
0
 62
     0
 10
5.2
 20
3.785786
 30
0.0
 11
6.214214
 21
4.8
 31
0.0
  0
LINE
  8
0
 62
     0
 10
5.2
 20
3.962563
 30
0.0
 11
6.037437
 21
4.8
 31
0.0
  0
LINE
  8
0
 62
     0
 10
5.2
 20
4.13934
 30
0.0
 11
5.86066
 21
4.8
 31
0.0
  0
LINE
  8
0
 62
     0
 10
5.2
 20
4.316117
 30
0.0
 11
5.683883
 21
4.8
 31
0.0
  0
LINE
  8
0
 62
     0
 10
5.2
 20
4.492893
 30
0.0
 11
5.507107
 21
4.8
 31
0.0
  0
LINE
  8
0
 62
     0
 10
5.2
 20
4.66967
 30
0.0
 11
5.33033
 21
4.8
 31
0.0
  0
LINE
  8
0
 62
     0
 10
6.930485
 20
1.627185
 30
0.0
 11
8.782337
 21
3.479036
 31
0.0
  0
LINE
  8
0
 62
     0
 10
6.976316
 20
1.496239
 30
0.0
 11
8.828168
 21
3.348091
 31
0.0
  0
LINE
  8
0
 62
     0
 10
7.022147
 20
1.365293
 30
0.0
 11
8.873999
 21
3.217145
 31
0.0
  0
LINE
  8
0
 62
     0
 10
7.067978
 20
1.234347
 30
0.0
 11
8.91983
 21
3.086199
 31
0.0
  0
LINE
  8
0
 62
     0
 10
7.113809
 20
1.103402
 30
0.0
 11
8.965661
 21
2.955254
 31
0.0
  0
LINE
  8
0
 62
     0
 10
7.15964
 20
0.972456
 30
0.0
 11
9.011492
 21
2.824308
 31
0.0
  0
LINE
  8
0
 62
     0
 10
7.205471
 20
0.84151
 30
0.0
 11
9.057323
 21
2.693362
 31
0.0
  0
LINE
  8
0
 62
     0
 10
7.251302
 20
0.710565
 30
0.0
 11
9.103154
 21
2.562416
 31
0.0
  0
LINE
  8
0
 62
     0
 10
7.297133
 20
0.579619
 30
0.0
 11
9.148985
 21
2.431471
 31
0.0
  0
LINE
  8
0
 62
     0
 10
7.342964
 20
0.448673
 30
0.0
 11
9.194816
 21
2.300525
 31
0.0
  0
LINE
  8
0
 62
     0
 10
7.388795
 20
0.317728
 30
0.0
 11
9.240647
 21
2.169579
 31
0.0
  0
LINE
  8
0
 62
     0
 10
7.434626
 20
0.186782
 30
0.0
 11
9.286478
 21
2.038634
 31
0.0
  0
LINE
  8
0
 62
     0
 10
7.480457
 20
0.055836
 30
0.0
 11
9.332309
 21
1.907688
 31
0.0
  0
LINE
  8
0
 62
     0
 10
7.601398
 20
0.0
 30
0.0
 11
9.37814
 21
1.776742
 31
0.0
  0
LINE
  8
0
 62
     0
 10
7.778175
 20
0.0
 30
0.0
 11
9.423971
 21
1.645797
 31
0.0
  0
LINE
  8
0
 62
     0
 10
7.954951
 20
0.0
 30
0.0
 11
9.469802
 21
1.514851
 31
0.0
  0
LINE
  8
0
 62
     0
 10
8.131728
 20
0.0
 30
0.0
 11
9.515633
 21
1.383905
 31
0.0
  0
LINE
  8
0
 62
     0
 10
8.308505
 20
0.0
 30
0.0
 11
9.561464
 21
1.252959
 31
0.0
  0
LINE
  8
0
 62
     0
 10
8.485281
 20
0.0
 30
0.0
 11
9.607295
 21
1.122014
 31
0.0
  0
LINE
  8
0
 62
     0
 10
8.662058
 20
0.0
 30
0.0
 11
9.653126
 21
0.991068
 31
0.0
  0
LINE
  8
0
 62
     0
 10
8.838835
 20
0.0
 30
0.0
 11
9.698957
 21
0.860122
 31
0.0
  0
LINE
  8
0
 62
     0
 10
9.015611
 20
0.0
 30
0.0
 11
9.744788
 21
0.729177
 31
0.0
  0
LINE
  8
0
 62
     0
 10
9.192388
 20
0.0
 30
0.0
 11
9.790619
 21
0.598231
 31
0.0
  0
LINE
  8
0
 62
     0
 10
9.369165
 20
0.0
 30
0.0
 11
9.83645
 21
0.467285
 31
0.0
  0
LINE
  8
0
 62
     0
 10
9.545942
 20
0.0
 30
0.0
 11
9.882281
 21
0.33634
 31
0.0
  0
LINE
  8
0
 62
     0
 10
9.722718
 20
0.0
 30
0.0
 11
9.928112
 21
0.205394
 31
0.0
  0
LINE
  8
0
 62
     0
 10
9.899495
 20
0.0
 30
0.0
 11
9.973943
 21
0.074448
 31
0.0
  0
ENDBLK
  8
0
  0
BLOCK
  8
0
  2
*X20
 70
    65
 10
0.0
 20
0.0
 30
0.0
  3
*X
  0
LINE
  8
0
 62
     0
 10
10.7
 20
6.280583
 30
0.0
 11
13.5
 21
9.080583
 31
0.0
  0
LINE
  8
0
 62
     0
 10
10.7
 20
6.457359
 30
0.0
 11
13.5
 21
9.257359
 31
0.0
  0
LINE
  8
0
 62
     0
 10
10.7
 20
6.634136
 30
0.0
 11
13.5
 21
9.434136
 31
0.0
  0
LINE
  8
0
 62
     0
 10
10.7
 20
6.810913
 30
0.0
 11
13.5
 21
9.610913
 31
0.0
  0
LINE
  8
0
 62
     0
 10
10.7
 20
6.987689
 30
0.0
 11
13.5
 21
9.787689
 31
0.0
  0
LINE
  8
0
 62
     0
 10
10.7
 20
7.164466
 30
0.0
 11
13.5
 21
9.964466
 31
0.0
  0
LINE
  8
0
 62
     0
 10
10.7
 20
7.341243
 30
0.0
 11
13.358757
 21
10.0
 31
0.0
  0
LINE
  8
0
 62
     0
 10
10.7
 20
7.518019
 30
0.0
 11
13.181981
 21
10.0
 31
0.0
  0
LINE
  8
0
 62
     0
 10
10.7
 20
7.694796
 30
0.0
 11
13.005204
 21
10.0
 31
0.0
  0
LINE
  8
0
 62
     0
 10
10.7
 20
7.871573
 30
0.0
 11
12.828427
 21
10.0
 31
0.0
  0
LINE
  8
0
 62
     0
 10
10.7
 20
8.04835
 30
0.0
 11
12.65165
 21
10.0
 31
0.0
  0
LINE
  8
0
 62
     0
 10
10.7
 20
8.225126
 30
0.0
 11
12.474874
 21
10.0
 31
0.0
  0
LINE
  8
0
 62
     0
 10
10.7
 20
8.401903
 30
0.0
 11
12.298097
 21
10.0
 31
0.0
  0
LINE
  8
0
 62
     0
 10
10.7
 20
8.57868
 30
0.0
 11
12.12132
 21
10.0
 31
0.0
  0
LINE
  8
0
 62
     0
 10
10.7
 20
8.755456
 30
0.0
 11
11.944544
 21
10.0
 31
0.0
  0
LINE
  8
0
 62
     0
 10
10.7
 20
8.932233
 30
0.0
 11
11.767767
 21
10.0
 31
0.0
  0
LINE
  8
0
 62
     0
 10
10.7
 20
9.10901
 30
0.0
 11
11.59099
 21
10.0
 31
0.0
  0
LINE
  8
0
 62
     0
 10
10.7
 20
9.285786
 30
0.0
 11
11.414214
 21
10.0
 31
0.0
  0
LINE
  8
0
 62
     0
 10
10.7
 20
9.462563
 30
0.0
 11
11.237437
 21
10.0
 31
0.0
  0
LINE
  8
0
 62
     0
 10
10.7
 20
9.63934
 30
0.0
 11
11.06066
 21
10.0
 31
0.0
  0
LINE
  8
0
 62
     0
 10
10.7
 20
9.816117
 30
0.0
 11
10.883883
 21
10.0
 31
0.0
  0
LINE
  8
0
 62
     0
 10
10.7
 20
9.992893
 30
0.0
 11
10.707107
 21
10.0
 31
0.0
  0
LINE
  8
0
 62
     0
 10
10.7
 20
6.103806
 30
0.0
 11
13.5
 21
8.903806
 31
0.0
  0
LINE
  8
0
 62
     0
 10
10.7
 20
5.927029
 30
0.0
 11
13.5
 21
8.727029
 31
0.0
  0
LINE
  8
0
 62
     0
 10
10.7
 20
5.750253
 30
0.0
 11
13.5
 21
8.550253
 31
0.0
  0
LINE
  8
0
 62
     0
 10
10.7
 20
5.573476
 30
0.0
 11
13.5
 21
8.373476
 31
0.0
  0
LINE
  8
0
 62
     0
 10
10.7
 20
5.396699
 30
0.0
 11
13.5
 21
8.196699
 31
0.0
  0
LINE
  8
0
 62
     0
 10
10.7
 20
5.219922
 30
0.0
 11
13.5
 21
8.019922
 31
0.0
  0
LINE
  8
0
 62
     0
 10
10.856854
 20
5.2
 30
0.0
 11
13.5
 21
7.843146
 31
0.0
  0
LINE
  8
0
 62
     0
 10
11.033631
 20
5.2
 30
0.0
 11
13.5
 21
7.666369
 31
0.0
  0
LINE
  8
0
 62
     0
 10
11.210408
 20
5.2
 30
0.0
 11
13.5
 21
7.489592
 31
0.0
  0
LINE
  8
0
 62
     0
 10
11.387184
 20
5.2
 30
0.0
 11
13.5
 21
7.312816
 31
0.0
  0
LINE
  8
0
 62
     0
 10
11.563961
 20
5.2
 30
0.0
 11
13.5
 21
7.136039
 31
0.0
  0
LINE
  8
0
 62
     0
 10
11.740738
 20
5.2
 30
0.0
 11
13.5
 21
6.959262
 31
0.0
  0
LINE
  8
0
 62
     0
 10
11.917514
 20
5.2
 30
0.0
 11
13.5
 21
6.782486
 31
0.0
  0
LINE
  8
0
 62
     0
 10
12.094291
 20
5.2
 30
0.0
 11
13.5
 21
6.605709
 31
0.0
  0
LINE
  8
0
 62
     0
 10
12.271068
 20
5.2
 30
0.0
 11
13.5
 21
6.428932
 31
0.0
  0
LINE
  8
0
 62
     0
 10
12.447845
 20
5.2
 30
0.0
 11
13.5
 21
6.252155
 31
0.0
  0
LINE
  8
0
 62
     0
 10
12.624621
 20
5.2
 30
0.0
 11
13.5
 21
6.075379
 31
0.0
  0
LINE
  8
0
 62
     0
 10
12.801398
 20
5.2
 30
0.0
 11
13.5
 21
5.898602
 31
0.0
  0
LINE
  8
0
 62
     0
 10
12.978175
 20
5.2
 30
0.0
 11
13.5
 21
5.721825
 31
0.0
  0
LINE
  8
0
 62
     0
 10
13.154951
 20
5.2
 30
0.0
 11
13.5
 21
5.545049
 31
0.0
  0
LINE
  8
0
 62
     0
 10
13.331728
 20
5.2
 30
0.0
 11
13.5
 21
5.368272
 31
0.0
  0
ENDBLK
  8
0
  0
BLOCK
  8
0
  2
*X21
 70
    65
 10
0.0
 20
0.0
 30
0.0
  3
*X
  0
LINE
  8
0
 62
     0
 10
10.7
 20
1.154058
 30
0.0
 11
13.5
 21
3.954058
 31
0.0
  0
LINE
  8
0
 62
     0
 10
10.7
 20
1.330835
 30
0.0
 11
13.5
 21
4.130835
 31
0.0
  0
LINE
  8
0
 62
     0
 10
10.7
 20
1.507612
 30
0.0
 11
13.5
 21
4.307612
 31
0.0
  0
LINE
  8
0
 62
     0
 10
10.7
 20
1.684389
 30
0.0
 11
13.5
 21
4.484389
 31
0.0
  0
LINE
  8
0
 62
     0
 10
10.7
 20
1.861165
 30
0.0
 11
13.5
 21
4.661165
 31
0.0
  0
LINE
  8
0
 62
     0
 10
10.7
 20
2.037942
 30
0.0
 11
13.462058
 21
4.8
 31
0.0
  0
LINE
  8
0
 62
     0
 10
10.7
 20
2.214719
 30
0.0
 11
13.285281
 21
4.8
 31
0.0
  0
LINE
  8
0
 62
     0
 10
10.7
 20
2.391495
 30
0.0
 11
13.108505
 21
4.8
 31
0.0
  0
LINE
  8
0
 62
     0
 10
10.7
 20
2.568272
 30
0.0
 11
12.931728
 21
4.8
 31
0.0
  0
LINE
  8
0
 62
     0
 10
10.7
 20
2.745049
 30
0.0
 11
12.754951
 21
4.8
 31
0.0
  0
LINE
  8
0
 62
     0
 10
10.7
 20
2.921825
 30
0.0
 11
12.578175
 21
4.8
 31
0.0
  0
LINE
  8
0
 62
     0
 10
10.7
 20
3.098602
 30
0.0
 11
12.401398
 21
4.8
 31
0.0
  0
LINE
  8
0
 62
     0
 10
10.7
 20
3.275379
 30
0.0
 11
12.224621
 21
4.8
 31
0.0
  0
LINE
  8
0
 62
     0
 10
10.7
 20
3.452155
 30
0.0
 11
12.047845
 21
4.8
 31
0.0
  0
LINE
  8
0
 62
     0
 10
10.7
 20
3.628932
 30
0.0
 11
11.871068
 21
4.8
 31
0.0
  0
LINE
  8
0
 62
     0
 10
10.7
 20
3.805709
 30
0.0
 11
11.694291
 21
4.8
 31
0.0
  0
LINE
  8
0
 62
     0
 10
10.7
 20
3.982486
 30
0.0
 11
11.517514
 21
4.8
 31
0.0
  0
LINE
  8
0
 62
     0
 10
10.7
 20
4.159262
 30
0.0
 11
11.340738
 21
4.8
 31
0.0
  0
LINE
  8
0
 62
     0
 10
10.7
 20
4.336039
 30
0.0
 11
11.163961
 21
4.8
 31
0.0
  0
LINE
  8
0
 62
     0
 10
10.7
 20
4.512816
 30
0.0
 11
10.987184
 21
4.8
 31
0.0
  0
LINE
  8
0
 62
     0
 10
10.7
 20
4.689592
 30
0.0
 11
10.810408
 21
4.8
 31
0.0
  0
LINE
  8
0
 62
     0
 10
10.7
 20
0.977282
 30
0.0
 11
13.5
 21
3.777282
 31
0.0
  0
LINE
  8
0
 62
     0
 10
10.7
 20
0.800505
 30
0.0
 11
13.5
 21
3.600505
 31
0.0
  0
LINE
  8
0
 62
     0
 10
10.7
 20
0.623728
 30
0.0
 11
13.5
 21
3.423728
 31
0.0
  0
LINE
  8
0
 62
     0
 10
10.7
 20
0.446952
 30
0.0
 11
13.5
 21
3.246952
 31
0.0
  0
LINE
  8
0
 62
     0
 10
10.7
 20
0.270175
 30
0.0
 11
13.5
 21
3.070175
 31
0.0
  0
LINE
  8
0
 62
     0
 10
10.7
 20
0.093398
 30
0.0
 11
13.5
 21
2.893398
 31
0.0
  0
LINE
  8
0
 62
     0
 10
10.783378
 20
0.0
 30
0.0
 11
13.5
 21
2.716622
 31
0.0
  0
LINE
  8
0
 62
     0
 10
10.960155
 20
0.0
 30
0.0
 11
13.5
 21
2.539845
 31
0.0
  0
LINE
  8
0
 62
     0
 10
11.136932
 20
0.0
 30
0.0
 11
13.5
 21
2.363068
 31
0.0
  0
LINE
  8
0
 62
     0
 10
11.313708
 20
0.0
 30
0.0
 11
13.5
 21
2.186292
 31
0.0
  0
LINE
  8
0
 62
     0
 10
11.490485
 20
0.0
 30
0.0
 11
13.5
 21
2.009515
 31
0.0
  0
LINE
  8
0
 62
     0
 10
11.667262
 20
0.0
 30
0.0
 11
13.5
 21
1.832738
 31
0.0
  0
LINE
  8
0
 62
     0
 10
11.844039
 20
0.0
 30
0.0
 11
13.5
 21
1.655961
 31
0.0
  0
LINE
  8
0
 62
     0
 10
12.020815
 20
0.0
 30
0.0
 11
13.5
 21
1.479185
 31
0.0
  0
LINE
  8
0
 62
     0
 10
12.197592
 20
0.0
 30
0.0
 11
13.5
 21
1.302408
 31
0.0
  0
LINE
  8
0
 62
     0
 10
12.374369
 20
0.0
 30
0.0
 11
13.5
 21
1.125631
 31
0.0
  0
LINE
  8
0
 62
     0
 10
12.551145
 20
0.0
 30
0.0
 11
13.5
 21
0.948855
 31
0.0
  0
LINE
  8
0
 62
     0
 10
12.727922
 20
0.0
 30
0.0
 11
13.5
 21
0.772078
 31
0.0
  0
LINE
  8
0
 62
     0
 10
12.904699
 20
0.0
 30
0.0
 11
13.5
 21
0.595301
 31
0.0
  0
LINE
  8
0
 62
     0
 10
13.081475
 20
0.0
 30
0.0
 11
13.5
 21
0.418525
 31
0.0
  0
LINE
  8
0
 62
     0
 10
13.258252
 20
0.0
 30
0.0
 11
13.5
 21
0.241748
 31
0.0
  0
LINE
  8
0
 62
     0
 10
13.435029
 20
0.0
 30
0.0
 11
13.5
 21
0.064971
 31
0.0
  0
ENDBLK
  8
0
  0
BLOCK
  8
0
  2
*X22
 70
    65
 10
0.0
 20
0.0
 30
0.0
  3
*X
  0
LINE
  8
0
 62
     0
 10
13.9
 20
6.298602
 30
0.0
 11
16.582995
 21
8.981597
 31
0.0
  0
LINE
  8
0
 62
     0
 10
13.9
 20
6.475379
 30
0.0
 11
16.510503
 21
9.085882
 31
0.0
  0
LINE
  8
0
 62
     0
 10
13.9
 20
6.652155
 30
0.0
 11
16.432927
 21
9.185083
 31
0.0
  0
LINE
  8
0
 62
     0
 10
13.9
 20
6.828932
 30
0.0
 11
16.350372
 21
9.279304
 31
0.0
  0
LINE
  8
0
 62
     0
 10
13.9
 20
7.005709
 30
0.0
 11
16.262892
 21
9.368601
 31
0.0
  0
LINE
  8
0
 62
     0
 10
13.9
 20
7.182486
 30
0.0
 11
16.170495
 21
9.452981
 31
0.0
  0
LINE
  8
0
 62
     0
 10
13.9
 20
7.359262
 30
0.0
 11
16.073145
 21
9.532407
 31
0.0
  0
LINE
  8
0
 62
     0
 10
13.9
 20
7.536039
 30
0.0
 11
15.970755
 21
9.606794
 31
0.0
  0
LINE
  8
0
 62
     0
 10
13.9
 20
7.712816
 30
0.0
 11
15.863189
 21
9.676004
 31
0.0
  0
LINE
  8
0
 62
     0
 10
13.9
 20
7.889592
 30
0.0
 11
15.75025
 21
9.739843
 31
0.0
  0
LINE
  8
0
 62
     0
 10
13.9
 20
8.066369
 30
0.0
 11
15.631675
 21
9.798044
 31
0.0
  0
LINE
  8
0
 62
     0
 10
13.9
 20
8.243146
 30
0.0
 11
15.50711
 21
9.850256
 31
0.0
  0
LINE
  8
0
 62
     0
 10
13.9
 20
8.419922
 30
0.0
 11
15.376096
 21
9.896018
 31
0.0
  0
LINE
  8
0
 62
     0
 10
13.9
 20
8.596699
 30
0.0
 11
15.238027
 21
9.934726
 31
0.0
  0
LINE
  8
0
 62
     0
 10
13.9
 20
8.773476
 30
0.0
 11
15.092096
 21
9.965572
 31
0.0
  0
LINE
  8
0
 62
     0
 10
13.9
 20
8.950253
 30
0.0
 11
14.937209
 21
9.987461
 31
0.0
  0
LINE
  8
0
 62
     0
 10
13.9
 20
9.127029
 30
0.0
 11
14.771824
 21
9.998853
 31
0.0
  0
LINE
  8
0
 62
     0
 10
13.9
 20
9.303806
 30
0.0
 11
14.596193
 21
9.999999
 31
0.0
  0
LINE
  8
0
 62
     0
 10
13.9
 20
9.480583
 30
0.0
 11
14.419417
 21
9.999999
 31
0.0
  0
LINE
  8
0
 62
     0
 10
13.9
 20
9.657359
 30
0.0
 11
14.24264
 21
10.0
 31
0.0
  0
LINE
  8
0
 62
     0
 10
13.9
 20
9.834136
 30
0.0
 11
14.065864
 21
10.0
 31
0.0
  0
LINE
  8
0
 62
     0
 10
13.9
 20
6.121825
 30
0.0
 11
16.650245
 21
8.872071
 31
0.0
  0
LINE
  8
0
 62
     0
 10
13.9
 20
5.945049
 30
0.0
 11
16.712035
 21
8.757083
 31
0.0
  0
LINE
  8
0
 62
     0
 10
13.9
 20
5.768272
 30
0.0
 11
16.768067
 21
8.636339
 31
0.0
  0
LINE
  8
0
 62
     0
 10
13.9
 20
5.591495
 30
0.0
 11
16.817955
 21
8.509451
 31
0.0
  0
LINE
  8
0
 62
     0
 10
13.9
 20
5.414719
 30
0.0
 11
16.861189
 21
8.375908
 31
0.0
  0
LINE
  8
0
 62
     0
 10
13.9
 20
5.237942
 30
0.0
 11
16.897097
 21
8.235039
 31
0.0
  0
LINE
  8
0
 62
     0
 10
14.038835
 20
5.2
 30
0.0
 11
16.924779
 21
8.085944
 31
0.0
  0
LINE
  8
0
 62
     0
 10
14.215611
 20
5.2
 30
0.0
 11
16.942997
 21
7.927385
 31
0.0
  0
LINE
  8
0
 62
     0
 10
14.392388
 20
5.2
 30
0.0
 11
16.949987
 21
7.757599
 31
0.0
  0
LINE
  8
0
 62
     0
 10
14.569165
 20
5.2
 30
0.0
 11
16.943101
 21
7.573936
 31
0.0
  0
LINE
  8
0
 62
     0
 10
14.745942
 20
5.2
 30
0.0
 11
16.918037
 21
7.372095
 31
0.0
  0
LINE
  8
0
 62
     0
 10
14.922718
 20
5.2
 30
0.0
 11
16.866909
 21
7.144191
 31
0.0
  0
LINE
  8
0
 62
     0
 10
15.099495
 20
5.2
 30
0.0
 11
16.771715
 21
6.87222
 31
0.0
  0
LINE
  8
0
 62
     0
 10
15.276272
 20
5.2
 30
0.0
 11
15.847951
 21
5.77168
 31
0.0
  0
LINE
  8
0
 62
     0
 10
15.96673
 20
5.890458
 30
0.0
 11
16.559542
 21
6.48327
 31
0.0
  0
LINE
  8
0
 62
     0
 10
15.453048
 20
5.2
 30
0.0
 11
15.970661
 21
5.717613
 31
0.0
  0
LINE
  8
0
 62
     0
 10
15.629825
 20
5.2
 30
0.0
 11
16.088934
 21
5.659109
 31
0.0
  0
LINE
  8
0
 62
     0
 10
15.806602
 20
5.2
 30
0.0
 11
16.202964
 21
5.596363
 31
0.0
  0
LINE
  8
0
 62
     0
 10
15.983378
 20
5.2
 30
0.0
 11
16.312909
 21
5.529531
 31
0.0
  0
LINE
  8
0
 62
     0
 10
16.160155
 20
5.2
 30
0.0
 11
16.418895
 21
5.45874
 31
0.0
  0
LINE
  8
0
 62
     0
 10
16.336932
 20
5.2
 30
0.0
 11
16.521021
 21
5.384089
 31
0.0
  0
LINE
  8
0
 62
     0
 10
16.513708
 20
5.2
 30
0.0
 11
16.619363
 21
5.305655
 31
0.0
  0
LINE
  8
0
 62
     0
 10
16.690485
 20
5.2
 30
0.0
 11
16.713975
 21
5.22349
 31
0.0
  0
ENDBLK
  8
0
  0
BLOCK
  8
0
  2
*X23
 70
    65
 10
0.0
 20
0.0
 30
0.0
  3
*X
  0
LINE
  8
0
 62
     0
 10
13.9
 20
0.818525
 30
0.0
 11
17.39645
 21
4.314974
 31
0.0
  0
LINE
  8
0
 62
     0
 10
13.9
 20
0.995301
 30
0.0
 11
17.336354
 21
4.431655
 31
0.0
  0
LINE
  8
0
 62
     0
 10
13.9
 20
1.172078
 30
0.0
 11
17.272078
 21
4.544156
 31
0.0
  0
LINE
  8
0
 62
     0
 10
13.9
 20
1.348855
 30
0.0
 11
17.203766
 21
4.652621
 31
0.0
  0
LINE
  8
0
 62
     0
 10
13.9
 20
1.525631
 30
0.0
 11
17.131535
 21
4.757167
 31
0.0
  0
LINE
  8
0
 62
     0
 10
13.9
 20
1.702408
 30
0.0
 11
16.997592
 21
4.8
 31
0.0
  0
LINE
  8
0
 62
     0
 10
13.9
 20
1.879185
 30
0.0
 11
16.820815
 21
4.8
 31
0.0
  0
LINE
  8
0
 62
     0
 10
13.9
 20
2.055961
 30
0.0
 11
16.644039
 21
4.8
 31
0.0
  0
LINE
  8
0
 62
     0
 10
13.9
 20
2.232738
 30
0.0
 11
16.467262
 21
4.8
 31
0.0
  0
LINE
  8
0
 62
     0
 10
13.9
 20
2.409515
 30
0.0
 11
16.290485
 21
4.8
 31
0.0
  0
LINE
  8
0
 62
     0
 10
13.9
 20
2.586292
 30
0.0
 11
16.113708
 21
4.8
 31
0.0
  0
LINE
  8
0
 62
     0
 10
13.9
 20
2.763068
 30
0.0
 11
15.936932
 21
4.8
 31
0.0
  0
LINE
  8
0
 62
     0
 10
13.9
 20
2.939845
 30
0.0
 11
15.760155
 21
4.8
 31
0.0
  0
LINE
  8
0
 62
     0
 10
13.9
 20
3.116622
 30
0.0
 11
15.583378
 21
4.8
 31
0.0
  0
LINE
  8
0
 62
     0
 10
13.9
 20
3.293398
 30
0.0
 11
15.406602
 21
4.8
 31
0.0
  0
LINE
  8
0
 62
     0
 10
13.9
 20
3.470175
 30
0.0
 11
15.229825
 21
4.8
 31
0.0
  0
LINE
  8
0
 62
     0
 10
13.9
 20
3.646952
 30
0.0
 11
15.053048
 21
4.8
 31
0.0
  0
LINE
  8
0
 62
     0
 10
13.9
 20
3.823728
 30
0.0
 11
14.876272
 21
4.8
 31
0.0
  0
LINE
  8
0
 62
     0
 10
13.9
 20
4.000505
 30
0.0
 11
14.699495
 21
4.8
 31
0.0
  0
LINE
  8
0
 62
     0
 10
13.9
 20
4.177282
 30
0.0
 11
14.522718
 21
4.8
 31
0.0
  0
LINE
  8
0
 62
     0
 10
13.9
 20
4.354058
 30
0.0
 11
14.345942
 21
4.8
 31
0.0
  0
LINE
  8
0
 62
     0
 10
13.9
 20
4.530835
 30
0.0
 11
14.169165
 21
4.8
 31
0.0
  0
LINE
  8
0
 62
     0
 10
13.9
 20
4.707612
 30
0.0
 11
13.992388
 21
4.8
 31
0.0
  0
LINE
  8
0
 62
     0
 10
13.9
 20
0.641748
 30
0.0
 11
17.452185
 21
4.193933
 31
0.0
  0
LINE
  8
0
 62
     0
 10
13.9
 20
0.464971
 30
0.0
 11
17.503339
 21
4.068311
 31
0.0
  0
LINE
  8
0
 62
     0
 10
13.9
 20
0.288194
 30
0.0
 11
17.549642
 21
3.937837
 31
0.0
  0
LINE
  8
0
 62
     0
 10
13.9
 20
0.111418
 30
0.0
 11
17.590762
 21
3.80218
 31
0.0
  0
LINE
  8
0
 62
     0
 10
13.965359
 20
0.0
 30
0.0
 11
17.62629
 21
3.660931
 31
0.0
  0
LINE
  8
0
 62
     0
 10
14.142136
 20
0.000001
 30
0.0
 11
17.655713
 21
3.513577
 31
0.0
  0
LINE
  8
0
 62
     0
 10
14.318913
 20
0.000001
 30
0.0
 11
17.678385
 21
3.359473
 31
0.0
  0
LINE
  8
0
 62
     0
 10
14.49569
 20
0.000001
 30
0.0
 11
17.693473
 21
3.197784
 31
0.0
  0
LINE
  8
0
 62
     0
 10
14.672467
 20
0.000002
 30
0.0
 11
17.699875
 21
3.027409
 31
0.0
  0
LINE
  8
0
 62
     0
 10
14.853154
 20
0.003912
 30
0.0
 11
17.696088
 21
2.846846
 31
0.0
  0
LINE
  8
0
 62
     0
 10
15.046044
 20
0.020025
 30
0.0
 11
17.679975
 21
2.653956
 31
0.0
  0
LINE
  8
0
 62
     0
 10
15.254483
 20
0.051687
 30
0.0
 11
17.648313
 21
2.445517
 31
0.0
  0
LINE
  8
0
 62
     0
 10
15.483762
 20
0.10419
 30
0.0
 11
17.59581
 21
2.216238
 31
0.0
  0
LINE
  8
0
 62
     0
 10
15.743786
 20
0.187437
 30
0.0
 11
17.512563
 21
1.956214
 31
0.0
  0
LINE
  8
0
 62
     0
 10
16.058176
 20
0.32505
 30
0.0
 11
17.37495
 21
1.641824
 31
0.0
  0
LINE
  8
0
 62
     0
 10
16.54193
 20
0.632028
 30
0.0
 11
17.067972
 21
1.15807
 31
0.0
  0
ENDBLK
  8
0
  0
BLOCK
  8
0
  2
B39
 70
    64
 10
0.0
 20
0.0
 30
0.0
  3
B39
  0
LINE
  8
0
 10
-10.0
 20
2.5
 30
0.0
 11
-11.519867
 21
2.5
 31
0.0
  0
ARC
  8
0
 10
-9.934151
 20
3.75
 30
0.0
 40
1.251733
 50
266.984476
 51
93.015524
  0
LINE
  8
0
 10
-10.0
 20
5.0
 30
0.0
 11
-11.519867
 21
5.0
 31
0.0
  0
LINE
  8
0
 10
-10.0
 20
7.5
 30
0.0
 11
-11.519867
 21
7.5
 31
0.0
  0
ARC
  8
0
 10
-9.934151
 20
6.25
 30
0.0
 40
1.251733
 50
266.984476
 51
93.015524
  0
LINE
  8
0
 10
-5.0
 20
0.0
 30
0.0
 11
-2.5
 21
0.0
 31
0.0
  0
ARC
  8
0
 10
-5.065849
 20
1.25
 30
0.0
 40
1.251733
 50
86.984476
 51
273.015524
  0
ARC
  8
0
 10
-5.065849
 20
3.75
 30
0.0
 40
1.251733
 50
86.984476
 51
273.015524
  0
LINE
  8
0
 10
-5.0
 20
2.5
 30
0.0
 11
-2.5
 21
2.5
 31
0.0
  0
LINE
  8
0
 10
-5.0
 20
5.0
 30
0.0
 11
-2.5
 21
5.0
 31
0.0
  0
LINE
  8
0
 10
-2.5
 20
5.0
 30
0.0
 11
0.0
 21
5.0
 31
0.0
  0
LINE
  8
0
 10
-2.5
 20
0.0
 30
0.0
 11
0.0
 21
0.0
 31
0.0
  0
LINE
  8
0
 10
-2.5
 20
5.0
 30
0.0
 11
0.0
 21
5.0
 31
0.0
  0
LINE
  8
0
 10
-2.5
 20
10.0
 30
0.0
 11
0.0
 21
10.0
 31
0.0
  0
LINE
  8
0
 10
-5.0
 20
10.0
 30
0.0
 11
-2.5
 21
10.0
 31
0.0
  0
LINE
  8
0
 10
-5.0
 20
7.5
 30
0.0
 11
-2.5
 21
7.5
 31
0.0
  0
ARC
  8
0
 10
-5.065849
 20
8.75
 30
0.0
 40
1.251733
 50
86.984476
 51
273.015524
  0
ARC
  8
0
 10
-5.065849
 20
6.25
 30
0.0
 40
1.251733
 50
86.984476
 51
273.015524
  0
LINE
  8
0
 10
-5.0
 20
5.0
 30
0.0
 11
-2.5
 21
5.0
 31
0.0
  0
ENDBLK
  8
0
  0
BLOCK
  8
0
  2
B97
 70
    64
 10
0.0
 20
0.0
 30
0.0
  3
B97
  0
INSERT
  8
0
  6
DASHED
  2
BLC15
 10
-0.142087
 20
-2.191142
 30
0.0
  0
ENDBLK
  8
0
  0
BLOCK
  8
0
  2
*X26
 70
    65
 10
0.0
 20
0.0
 30
0.0
  3
*X
  0
LINE
  8
0
  6
CONTINUOUS
 62
     0
 10
196.030255
 20
208.448149
 30
0.0
 11
196.49078
 21
208.996982
 31
0.0
  0
LINE
  8
0
  6
CONTINUOUS
 62
     0
 10
196.020445
 20
208.452015
 30
0.0
 11
196.471453
 21
208.989505
 31
0.0
  0
LINE
  8
0
  6
CONTINUOUS
 62
     0
 10
196.010635
 20
208.455881
 30
0.0
 11
196.452125
 21
208.982029
 31
0.0
  0
LINE
  8
0
  6
CONTINUOUS
 62
     0
 10
196.000825
 20
208.459747
 30
0.0
 11
196.432797
 21
208.974552
 31
0.0
  0
LINE
  8
0
  6
CONTINUOUS
 62
     0
 10
195.991014
 20
208.463613
 30
0.0
 11
196.41347
 21
208.967076
 31
0.0
  0
LINE
  8
0
  6
CONTINUOUS
 62
     0
 10
195.981204
 20
208.467479
 30
0.0
 11
196.394142
 21
208.959599
 31
0.0
  0
LINE
  8
0
  6
CONTINUOUS
 62
     0
 10
195.971394
 20
208.471345
 30
0.0
 11
196.374814
 21
208.952122
 31
0.0
  0
LINE
  8
0
  6
CONTINUOUS
 62
     0
 10
195.961584
 20
208.47521
 30
0.0
 11
196.355487
 21
208.944646
 31
0.0
  0
LINE
  8
0
  6
CONTINUOUS
 62
     0
 10
195.951773
 20
208.479076
 30
0.0
 11
196.336159
 21
208.937169
 31
0.0
  0
LINE
  8
0
  6
CONTINUOUS
 62
     0
 10
195.941963
 20
208.482942
 30
0.0
 11
196.316831
 21
208.929693
 31
0.0
  0
LINE
  8
0
  6
CONTINUOUS
 62
     0
 10
195.932153
 20
208.486808
 30
0.0
 11
196.297504
 21
208.922216
 31
0.0
  0
LINE
  8
0
  6
CONTINUOUS
 62
     0
 10
195.922343
 20
208.490674
 30
0.0
 11
196.278176
 21
208.91474
 31
0.0
  0
LINE
  8
0
  6
CONTINUOUS
 62
     0
 10
195.912533
 20
208.49454
 30
0.0
 11
196.258848
 21
208.907263
 31
0.0
  0
LINE
  8
0
  6
CONTINUOUS
 62
     0
 10
195.902722
 20
208.498406
 30
0.0
 11
196.239521
 21
208.899786
 31
0.0
  0
LINE
  8
0
  6
CONTINUOUS
 62
     0
 10
195.892912
 20
208.502272
 30
0.0
 11
196.220193
 21
208.89231
 31
0.0
  0
LINE
  8
0
  6
CONTINUOUS
 62
     0
 10
195.883102
 20
208.506137
 30
0.0
 11
196.200865
 21
208.884833
 31
0.0
  0
LINE
  8
0
  6
CONTINUOUS
 62
     0
 10
195.873292
 20
208.510003
 30
0.0
 11
196.181538
 21
208.877357
 31
0.0
  0
LINE
  8
0
  6
CONTINUOUS
 62
     0
 10
195.863481
 20
208.513869
 30
0.0
 11
196.16221
 21
208.86988
 31
0.0
  0
LINE
  8
0
  6
CONTINUOUS
 62
     0
 10
195.853671
 20
208.517735
 30
0.0
 11
196.142882
 21
208.862403
 31
0.0
  0
LINE
  8
0
  6
CONTINUOUS
 62
     0
 10
195.843861
 20
208.521601
 30
0.0
 11
196.123555
 21
208.854927
 31
0.0
  0
LINE
  8
0
  6
CONTINUOUS
 62
     0
 10
195.834051
 20
208.525467
 30
0.0
 11
196.104227
 21
208.84745
 31
0.0
  0
LINE
  8
0
  6
CONTINUOUS
 62
     0
 10
195.82424
 20
208.529333
 30
0.0
 11
196.084899
 21
208.839974
 31
0.0
  0
LINE
  8
0
  6
CONTINUOUS
 62
     0
 10
195.81443
 20
208.533198
 30
0.0
 11
196.065572
 21
208.832497
 31
0.0
  0
LINE
  8
0
  6
CONTINUOUS
 62
     0
 10
195.80462
 20
208.537064
 30
0.0
 11
196.046244
 21
208.82502
 31
0.0
  0
LINE
  8
0
  6
CONTINUOUS
 62
     0
 10
195.79481
 20
208.54093
 30
0.0
 11
196.026916
 21
208.817544
 31
0.0
  0
LINE
  8
0
  6
CONTINUOUS
 62
     0
 10
195.784999
 20
208.544796
 30
0.0
 11
196.007589
 21
208.810067
 31
0.0
  0
LINE
  8
0
  6
CONTINUOUS
 62
     0
 10
195.775189
 20
208.548662
 30
0.0
 11
195.988261
 21
208.802591
 31
0.0
  0
LINE
  8
0
  6
CONTINUOUS
 62
     0
 10
195.765379
 20
208.552528
 30
0.0
 11
195.968933
 21
208.795114
 31
0.0
  0
LINE
  8
0
  6
CONTINUOUS
 62
     0
 10
195.755569
 20
208.556394
 30
0.0
 11
195.949605
 21
208.787637
 31
0.0
  0
LINE
  8
0
  6
CONTINUOUS
 62
     0
 10
195.745759
 20
208.560259
 30
0.0
 11
195.930278
 21
208.780161
 31
0.0
  0
LINE
  8
0
  6
CONTINUOUS
 62
     0
 10
195.735948
 20
208.564125
 30
0.0
 11
195.91095
 21
208.772684
 31
0.0
  0
LINE
  8
0
  6
CONTINUOUS
 62
     0
 10
195.726138
 20
208.567991
 30
0.0
 11
195.891622
 21
208.765208
 31
0.0
  0
LINE
  8
0
  6
CONTINUOUS
 62
     0
 10
195.716328
 20
208.571857
 30
0.0
 11
195.872295
 21
208.757731
 31
0.0
  0
LINE
  8
0
  6
CONTINUOUS
 62
     0
 10
195.706518
 20
208.575723
 30
0.0
 11
195.852967
 21
208.750254
 31
0.0
  0
LINE
  8
0
  6
CONTINUOUS
 62
     0
 10
195.696707
 20
208.579589
 30
0.0
 11
195.833639
 21
208.742778
 31
0.0
  0
LINE
  8
0
  6
CONTINUOUS
 62
     0
 10
195.686897
 20
208.583455
 30
0.0
 11
195.814312
 21
208.735301
 31
0.0
  0
LINE
  8
0
  6
CONTINUOUS
 62
     0
 10
195.677087
 20
208.58732
 30
0.0
 11
195.794984
 21
208.727825
 31
0.0
  0
LINE
  8
0
  6
CONTINUOUS
 62
     0
 10
195.667277
 20
208.591186
 30
0.0
 11
195.775656
 21
208.720348
 31
0.0
  0
LINE
  8
0
  6
CONTINUOUS
 62
     0
 10
195.657466
 20
208.595052
 30
0.0
 11
195.756329
 21
208.712872
 31
0.0
  0
LINE
  8
0
  6
CONTINUOUS
 62
     0
 10
195.647656
 20
208.598918
 30
0.0
 11
195.737001
 21
208.705395
 31
0.0
  0
LINE
  8
0
  6
CONTINUOUS
 62
     0
 10
195.637846
 20
208.602784
 30
0.0
 11
195.717673
 21
208.697918
 31
0.0
  0
LINE
  8
0
  6
CONTINUOUS
 62
     0
 10
195.628036
 20
208.60665
 30
0.0
 11
195.698346
 21
208.690442
 31
0.0
  0
LINE
  8
0
  6
CONTINUOUS
 62
     0
 10
195.618226
 20
208.610516
 30
0.0
 11
195.679018
 21
208.682965
 31
0.0
  0
LINE
  8
0
  6
CONTINUOUS
 62
     0
 10
195.608415
 20
208.614381
 30
0.0
 11
195.65969
 21
208.675489
 31
0.0
  0
LINE
  8
0
  6
CONTINUOUS
 62
     0
 10
195.598605
 20
208.618247
 30
0.0
 11
195.640363
 21
208.668012
 31
0.0
  0
LINE
  8
0
  6
CONTINUOUS
 62
     0
 10
195.588795
 20
208.622113
 30
0.0
 11
195.621035
 21
208.660535
 31
0.0
  0
LINE
  8
0
  6
CONTINUOUS
 62
     0
 10
195.578985
 20
208.625979
 30
0.0
 11
195.601707
 21
208.653059
 31
0.0
  0
LINE
  8
0
  6
CONTINUOUS
 62
     0
 10
195.569174
 20
208.629845
 30
0.0
 11
195.58238
 21
208.645582
 31
0.0
  0
LINE
  8
0
  6
CONTINUOUS
 62
     0
 10
195.559364
 20
208.633711
 30
0.0
 11
195.563052
 21
208.638106
 31
0.0
  0
LINE
  8
0
  6
CONTINUOUS
 62
     0
 10
196.040066
 20
208.444284
 30
0.0
 11
196.510108
 21
209.004459
 31
0.0
  0
LINE
  8
0
  6
CONTINUOUS
 62
     0
 10
196.049876
 20
208.440418
 30
0.0
 11
196.529436
 21
209.011935
 31
0.0
  0
LINE
  8
0
  6
CONTINUOUS
 62
     0
 10
196.059686
 20
208.436552
 30
0.0
 11
196.548764
 21
209.019412
 31
0.0
  0
LINE
  8
0
  6
CONTINUOUS
 62
     0
 10
196.069496
 20
208.432686
 30
0.0
 11
196.568091
 21
209.026888
 31
0.0
  0
LINE
  8
0
  6
CONTINUOUS
 62
     0
 10
196.079306
 20
208.42882
 30
0.0
 11
196.587419
 21
209.034365
 31
0.0
  0
LINE
  8
0
  6
CONTINUOUS
 62
     0
 10
196.089117
 20
208.424954
 30
0.0
 11
196.606747
 21
209.041842
 31
0.0
  0
LINE
  8
0
  6
CONTINUOUS
 62
     0
 10
196.098927
 20
208.421088
 30
0.0
 11
196.626074
 21
209.049318
 31
0.0
  0
LINE
  8
0
  6
CONTINUOUS
 62
     0
 10
196.108737
 20
208.417223
 30
0.0
 11
196.645402
 21
209.056795
 31
0.0
  0
LINE
  8
0
  6
CONTINUOUS
 62
     0
 10
196.118547
 20
208.413357
 30
0.0
 11
196.66473
 21
209.064271
 31
0.0
  0
LINE
  8
0
  6
CONTINUOUS
 62
     0
 10
196.128358
 20
208.409491
 30
0.0
 11
196.684057
 21
209.071748
 31
0.0
  0
LINE
  8
0
  6
CONTINUOUS
 62
     0
 10
196.138168
 20
208.405625
 30
0.0
 11
196.703385
 21
209.079225
 31
0.0
  0
LINE
  8
0
  6
CONTINUOUS
 62
     0
 10
196.147978
 20
208.401759
 30
0.0
 11
196.722713
 21
209.086701
 31
0.0
  0
LINE
  8
0
  6
CONTINUOUS
 62
     0
 10
196.157788
 20
208.397893
 30
0.0
 11
196.74204
 21
209.094178
 31
0.0
  0
LINE
  8
0
  6
CONTINUOUS
 62
     0
 10
196.167599
 20
208.394027
 30
0.0
 11
196.761368
 21
209.101654
 31
0.0
  0
LINE
  8
0
  6
CONTINUOUS
 62
     0
 10
196.177409
 20
208.390162
 30
0.0
 11
196.780696
 21
209.109131
 31
0.0
  0
LINE
  8
0
  6
CONTINUOUS
 62
     0
 10
196.187219
 20
208.386296
 30
0.0
 11
196.800023
 21
209.116608
 31
0.0
  0
LINE
  8
0
  6
CONTINUOUS
 62
     0
 10
196.197029
 20
208.38243
 30
0.0
 11
196.819351
 21
209.124084
 31
0.0
  0
LINE
  8
0
  6
CONTINUOUS
 62
     0
 10
196.206839
 20
208.378564
 30
0.0
 11
196.831691
 21
209.123233
 31
0.0
  0
LINE
  8
0
  6
CONTINUOUS
 62
     0
 10
196.21665
 20
208.374698
 30
0.0
 11
196.831691
 21
209.107676
 31
0.0
  0
LINE
  8
0
  6
CONTINUOUS
 62
     0
 10
196.22646
 20
208.370832
 30
0.0
 11
196.831691
 21
209.092119
 31
0.0
  0
LINE
  8
0
  6
CONTINUOUS
 62
     0
 10
196.23627
 20
208.366966
 30
0.0
 11
196.831691
 21
209.076561
 31
0.0
  0
LINE
  8
0
  6
CONTINUOUS
 62
     0
 10
196.24608
 20
208.363101
 30
0.0
 11
196.831691
 21
209.061004
 31
0.0
  0
LINE
  8
0
  6
CONTINUOUS
 62
     0
 10
196.255891
 20
208.359235
 30
0.0
 11
196.831691
 21
209.045447
 31
0.0
  0
LINE
  8
0
  6
CONTINUOUS
 62
     0
 10
196.265701
 20
208.355369
 30
0.0
 11
196.831691
 21
209.02989
 31
0.0
  0
LINE
  8
0
  6
CONTINUOUS
 62
     0
 10
196.275511
 20
208.351503
 30
0.0
 11
196.831691
 21
209.014333
 31
0.0
  0
LINE
  8
0
  6
CONTINUOUS
 62
     0
 10
196.285321
 20
208.347637
 30
0.0
 11
196.831691
 21
208.998775
 31
0.0
  0
LINE
  8
0
  6
CONTINUOUS
 62
     0
 10
196.295132
 20
208.343771
 30
0.0
 11
196.831691
 21
208.983218
 31
0.0
  0
LINE
  8
0
  6
CONTINUOUS
 62
     0
 10
196.304942
 20
208.339905
 30
0.0
 11
196.831691
 21
208.967661
 31
0.0
  0
LINE
  8
0
  6
CONTINUOUS
 62
     0
 10
196.314752
 20
208.33604
 30
0.0
 11
196.831691
 21
208.952104
 31
0.0
  0
LINE
  8
0
  6
CONTINUOUS
 62
     0
 10
196.324562
 20
208.332174
 30
0.0
 11
196.831691
 21
208.936546
 31
0.0
  0
LINE
  8
0
  6
CONTINUOUS
 62
     0
 10
196.334372
 20
208.328308
 30
0.0
 11
196.831691
 21
208.920989
 31
0.0
  0
LINE
  8
0
  6
CONTINUOUS
 62
     0
 10
196.344183
 20
208.324442
 30
0.0
 11
196.831691
 21
208.905432
 31
0.0
  0
LINE
  8
0
  6
CONTINUOUS
 62
     0
 10
196.353993
 20
208.320576
 30
0.0
 11
196.831691
 21
208.889875
 31
0.0
  0
LINE
  8
0
  6
CONTINUOUS
 62
     0
 10
196.363803
 20
208.31671
 30
0.0
 11
196.831691
 21
208.874317
 31
0.0
  0
LINE
  8
0
  6
CONTINUOUS
 62
     0
 10
196.373613
 20
208.312844
 30
0.0
 11
196.831691
 21
208.85876
 31
0.0
  0
LINE
  8
0
  6
CONTINUOUS
 62
     0
 10
196.383424
 20
208.308979
 30
0.0
 11
196.831691
 21
208.843203
 31
0.0
  0
LINE
  8
0
  6
CONTINUOUS
 62
     0
 10
196.393234
 20
208.305113
 30
0.0
 11
196.831691
 21
208.827646
 31
0.0
  0
LINE
  8
0
  6
CONTINUOUS
 62
     0
 10
196.403044
 20
208.301247
 30
0.0
 11
196.831691
 21
208.812088
 31
0.0
  0
LINE
  8
0
  6
CONTINUOUS
 62
     0
 10
196.412854
 20
208.297381
 30
0.0
 11
196.831691
 21
208.796531
 31
0.0
  0
LINE
  8
0
  6
CONTINUOUS
 62
     0
 10
196.422665
 20
208.293515
 30
0.0
 11
196.831691
 21
208.780974
 31
0.0
  0
LINE
  8
0
  6
CONTINUOUS
 62
     0
 10
196.432475
 20
208.289649
 30
0.0
 11
196.831691
 21
208.765417
 31
0.0
  0
LINE
  8
0
  6
CONTINUOUS
 62
     0
 10
196.442285
 20
208.285783
 30
0.0
 11
196.831691
 21
208.749859
 31
0.0
  0
LINE
  8
0
  6
CONTINUOUS
 62
     0
 10
196.452095
 20
208.281918
 30
0.0
 11
196.831691
 21
208.734302
 31
0.0
  0
LINE
  8
0
  6
CONTINUOUS
 62
     0
 10
196.461905
 20
208.278052
 30
0.0
 11
196.831691
 21
208.718745
 31
0.0
  0
LINE
  8
0
  6
CONTINUOUS
 62
     0
 10
196.471716
 20
208.274186
 30
0.0
 11
196.831691
 21
208.703188
 31
0.0
  0
LINE
  8
0
  6
CONTINUOUS
 62
     0
 10
196.481526
 20
208.27032
 30
0.0
 11
196.831691
 21
208.68763
 31
0.0
  0
LINE
  8
0
  6
CONTINUOUS
 62
     0
 10
196.491336
 20
208.266454
 30
0.0
 11
196.831691
 21
208.672073
 31
0.0
  0
LINE
  8
0
  6
CONTINUOUS
 62
     0
 10
196.501146
 20
208.262588
 30
0.0
 11
196.831691
 21
208.656516
 31
0.0
  0
LINE
  8
0
  6
CONTINUOUS
 62
     0
 10
196.510957
 20
208.258722
 30
0.0
 11
196.831691
 21
208.640959
 31
0.0
  0
LINE
  8
0
  6
CONTINUOUS
 62
     0
 10
196.520767
 20
208.254857
 30
0.0
 11
196.831691
 21
208.625402
 31
0.0
  0
LINE
  8
0
  6
CONTINUOUS
 62
     0
 10
196.530577
 20
208.250991
 30
0.0
 11
196.831691
 21
208.609844
 31
0.0
  0
LINE
  8
0
  6
CONTINUOUS
 62
     0
 10
196.540387
 20
208.247125
 30
0.0
 11
196.831691
 21
208.594287
 31
0.0
  0
LINE
  8
0
  6
CONTINUOUS
 62
     0
 10
196.550198
 20
208.243259
 30
0.0
 11
196.831691
 21
208.57873
 31
0.0
  0
LINE
  8
0
  6
CONTINUOUS
 62
     0
 10
196.560008
 20
208.239393
 30
0.0
 11
196.831691
 21
208.563173
 31
0.0
  0
LINE
  8
0
  6
CONTINUOUS
 62
     0
 10
196.569818
 20
208.235527
 30
0.0
 11
196.831691
 21
208.547615
 31
0.0
  0
LINE
  8
0
  6
CONTINUOUS
 62
     0
 10
196.579628
 20
208.231661
 30
0.0
 11
196.831691
 21
208.532058
 31
0.0
  0
LINE
  8
0
  6
CONTINUOUS
 62
     0
 10
196.589439
 20
208.227796
 30
0.0
 11
196.831691
 21
208.516501
 31
0.0
  0
LINE
  8
0
  6
CONTINUOUS
 62
     0
 10
196.599249
 20
208.22393
 30
0.0
 11
196.831691
 21
208.500944
 31
0.0
  0
LINE
  8
0
  6
CONTINUOUS
 62
     0
 10
196.609059
 20
208.220064
 30
0.0
 11
196.831691
 21
208.485386
 31
0.0
  0
LINE
  8
0
  6
CONTINUOUS
 62
     0
 10
196.618869
 20
208.216198
 30
0.0
 11
196.831691
 21
208.469829
 31
0.0
  0
LINE
  8
0
  6
CONTINUOUS
 62
     0
 10
196.628679
 20
208.212332
 30
0.0
 11
196.831691
 21
208.454272
 31
0.0
  0
LINE
  8
0
  6
CONTINUOUS
 62
     0
 10
196.63849
 20
208.208466
 30
0.0
 11
196.831691
 21
208.438715
 31
0.0
  0
LINE
  8
0
  6
CONTINUOUS
 62
     0
 10
196.6483
 20
208.2046
 30
0.0
 11
196.831691
 21
208.423157
 31
0.0
  0
LINE
  8
0
  6
CONTINUOUS
 62
     0
 10
196.65811
 20
208.200734
 30
0.0
 11
196.831691
 21
208.4076
 31
0.0
  0
LINE
  8
0
  6
CONTINUOUS
 62
     0
 10
196.66792
 20
208.196869
 30
0.0
 11
196.831691
 21
208.392043
 31
0.0
  0
LINE
  8
0
  6
CONTINUOUS
 62
     0
 10
196.677731
 20
208.193003
 30
0.0
 11
196.831691
 21
208.376486
 31
0.0
  0
LINE
  8
0
  6
CONTINUOUS
 62
     0
 10
196.687541
 20
208.189137
 30
0.0
 11
196.831691
 21
208.360928
 31
0.0
  0
LINE
  8
0
  6
CONTINUOUS
 62
     0
 10
196.697351
 20
208.185271
 30
0.0
 11
196.831691
 21
208.345371
 31
0.0
  0
LINE
  8
0
  6
CONTINUOUS
 62
     0
 10
196.707161
 20
208.181405
 30
0.0
 11
196.831691
 21
208.329814
 31
0.0
  0
LINE
  8
0
  6
CONTINUOUS
 62
     0
 10
196.716972
 20
208.177539
 30
0.0
 11
196.831691
 21
208.314257
 31
0.0
  0
LINE
  8
0
  6
CONTINUOUS
 62
     0
 10
196.726782
 20
208.173673
 30
0.0
 11
196.831691
 21
208.2987
 31
0.0
  0
LINE
  8
0
  6
CONTINUOUS
 62
     0
 10
196.736592
 20
208.169808
 30
0.0
 11
196.831691
 21
208.283142
 31
0.0
  0
LINE
  8
0
  6
CONTINUOUS
 62
     0
 10
196.746402
 20
208.165942
 30
0.0
 11
196.831691
 21
208.267585
 31
0.0
  0
LINE
  8
0
  6
CONTINUOUS
 62
     0
 10
196.756212
 20
208.162076
 30
0.0
 11
196.831691
 21
208.252028
 31
0.0
  0
LINE
  8
0
  6
CONTINUOUS
 62
     0
 10
196.766023
 20
208.15821
 30
0.0
 11
196.831691
 21
208.236471
 31
0.0
  0
LINE
  8
0
  6
CONTINUOUS
 62
     0
 10
196.775833
 20
208.154344
 30
0.0
 11
196.831691
 21
208.220913
 31
0.0
  0
LINE
  8
0
  6
CONTINUOUS
 62
     0
 10
196.785643
 20
208.150478
 30
0.0
 11
196.831691
 21
208.205356
 31
0.0
  0
LINE
  8
0
  6
CONTINUOUS
 62
     0
 10
196.795453
 20
208.146612
 30
0.0
 11
196.831691
 21
208.189799
 31
0.0
  0
LINE
  8
0
  6
CONTINUOUS
 62
     0
 10
196.805264
 20
208.142747
 30
0.0
 11
196.831691
 21
208.174242
 31
0.0
  0
LINE
  8
0
  6
CONTINUOUS
 62
     0
 10
196.815074
 20
208.138881
 30
0.0
 11
196.831691
 21
208.158684
 31
0.0
  0
LINE
  8
0
  6
CONTINUOUS
 62
     0
 10
196.824884
 20
208.135015
 30
0.0
 11
196.831691
 21
208.143127
 31
0.0
  0
LINE
  8
0
  6
CONTINUOUS
 62
     0
 10
195.987313
 20
208.802224
 30
0.0
 11
196.744899
 21
208.166534
 31
0.0
  0
LINE
  8
0
  6
CONTINUOUS
 62
     0
 10
195.976665
 20
208.798105
 30
0.0
 11
196.715566
 21
208.178093
 31
0.0
  0
LINE
  8
0
  6
CONTINUOUS
 62
     0
 10
195.966017
 20
208.793986
 30
0.0
 11
196.686234
 21
208.189652
 31
0.0
  0
LINE
  8
0
  6
CONTINUOUS
 62
     0
 10
195.955368
 20
208.789867
 30
0.0
 11
196.656901
 21
208.201211
 31
0.0
  0
LINE
  8
0
  6
CONTINUOUS
 62
     0
 10
195.94472
 20
208.785748
 30
0.0
 11
196.627568
 21
208.21277
 31
0.0
  0
LINE
  8
0
  6
CONTINUOUS
 62
     0
 10
195.934072
 20
208.781628
 30
0.0
 11
196.598236
 21
208.224329
 31
0.0
  0
LINE
  8
0
  6
CONTINUOUS
 62
     0
 10
195.923424
 20
208.777509
 30
0.0
 11
196.568903
 21
208.235888
 31
0.0
  0
LINE
  8
0
  6
CONTINUOUS
 62
     0
 10
195.912775
 20
208.77339
 30
0.0
 11
196.53957
 21
208.247447
 31
0.0
  0
LINE
  8
0
  6
CONTINUOUS
 62
     0
 10
195.902127
 20
208.769271
 30
0.0
 11
196.510238
 21
208.259006
 31
0.0
  0
LINE
  8
0
  6
CONTINUOUS
 62
     0
 10
195.891479
 20
208.765152
 30
0.0
 11
196.480905
 21
208.270565
 31
0.0
  0
LINE
  8
0
  6
CONTINUOUS
 62
     0
 10
195.88083
 20
208.761033
 30
0.0
 11
196.451572
 21
208.282124
 31
0.0
  0
LINE
  8
0
  6
CONTINUOUS
 62
     0
 10
195.870182
 20
208.756914
 30
0.0
 11
196.42224
 21
208.293683
 31
0.0
  0
LINE
  8
0
  6
CONTINUOUS
 62
     0
 10
195.859534
 20
208.752795
 30
0.0
 11
196.392907
 21
208.305241
 31
0.0
  0
LINE
  8
0
  6
CONTINUOUS
 62
     0
 10
195.848886
 20
208.748676
 30
0.0
 11
196.363574
 21
208.3168
 31
0.0
  0
LINE
  8
0
  6
CONTINUOUS
 62
     0
 10
195.838237
 20
208.744557
 30
0.0
 11
196.334242
 21
208.328359
 31
0.0
  0
LINE
  8
0
  6
CONTINUOUS
 62
     0
 10
195.827589
 20
208.740437
 30
0.0
 11
196.304909
 21
208.339918
 31
0.0
  0
LINE
  8
0
  6
CONTINUOUS
 62
     0
 10
195.816941
 20
208.736318
 30
0.0
 11
196.275576
 21
208.351477
 31
0.0
  0
LINE
  8
0
  6
CONTINUOUS
 62
     0
 10
195.806292
 20
208.732199
 30
0.0
 11
196.246244
 21
208.363036
 31
0.0
  0
LINE
  8
0
  6
CONTINUOUS
 62
     0
 10
195.795644
 20
208.72808
 30
0.0
 11
196.216911
 21
208.374595
 31
0.0
  0
LINE
  8
0
  6
CONTINUOUS
 62
     0
 10
195.784996
 20
208.723961
 30
0.0
 11
196.187579
 21
208.386154
 31
0.0
  0
LINE
  8
0
  6
CONTINUOUS
 62
     0
 10
195.774348
 20
208.719842
 30
0.0
 11
196.158246
 21
208.397713
 31
0.0
  0
LINE
  8
0
  6
CONTINUOUS
 62
     0
 10
195.763699
 20
208.715723
 30
0.0
 11
196.128913
 21
208.409272
 31
0.0
  0
LINE
  8
0
  6
CONTINUOUS
 62
     0
 10
195.753051
 20
208.711604
 30
0.0
 11
196.099581
 21
208.420831
 31
0.0
  0
LINE
  8
0
  6
CONTINUOUS
 62
     0
 10
195.742403
 20
208.707485
 30
0.0
 11
196.070248
 21
208.43239
 31
0.0
  0
LINE
  8
0
  6
CONTINUOUS
 62
     0
 10
195.731755
 20
208.703365
 30
0.0
 11
196.040915
 21
208.443949
 31
0.0
  0
LINE
  8
0
  6
CONTINUOUS
 62
     0
 10
195.721106
 20
208.699246
 30
0.0
 11
196.011583
 21
208.455508
 31
0.0
  0
LINE
  8
0
  6
CONTINUOUS
 62
     0
 10
195.710458
 20
208.695127
 30
0.0
 11
195.98225
 21
208.467067
 31
0.0
  0
LINE
  8
0
  6
CONTINUOUS
 62
     0
 10
195.69981
 20
208.691008
 30
0.0
 11
195.952917
 21
208.478626
 31
0.0
  0
LINE
  8
0
  6
CONTINUOUS
 62
     0
 10
195.689161
 20
208.686889
 30
0.0
 11
195.923585
 21
208.490185
 31
0.0
  0
LINE
  8
0
  6
CONTINUOUS
 62
     0
 10
195.678513
 20
208.68277
 30
0.0
 11
195.894252
 21
208.501743
 31
0.0
  0
LINE
  8
0
  6
CONTINUOUS
 62
     0
 10
195.667865
 20
208.678651
 30
0.0
 11
195.864919
 21
208.513302
 31
0.0
  0
LINE
  8
0
  6
CONTINUOUS
 62
     0
 10
195.657217
 20
208.674532
 30
0.0
 11
195.835587
 21
208.524861
 31
0.0
  0
LINE
  8
0
  6
CONTINUOUS
 62
     0
 10
195.646568
 20
208.670413
 30
0.0
 11
195.806254
 21
208.53642
 31
0.0
  0
LINE
  8
0
  6
CONTINUOUS
 62
     0
 10
195.63592
 20
208.666293
 30
0.0
 11
195.776922
 21
208.547979
 31
0.0
  0
LINE
  8
0
  6
CONTINUOUS
 62
     0
 10
195.625272
 20
208.662174
 30
0.0
 11
195.747589
 21
208.559538
 31
0.0
  0
LINE
  8
0
  6
CONTINUOUS
 62
     0
 10
195.614624
 20
208.658055
 30
0.0
 11
195.718256
 21
208.571097
 31
0.0
  0
LINE
  8
0
  6
CONTINUOUS
 62
     0
 10
195.603975
 20
208.653936
 30
0.0
 11
195.688924
 21
208.582656
 31
0.0
  0
LINE
  8
0
  6
CONTINUOUS
 62
     0
 10
195.593327
 20
208.649817
 30
0.0
 11
195.659591
 21
208.594215
 31
0.0
  0
LINE
  8
0
  6
CONTINUOUS
 62
     0
 10
195.582679
 20
208.645698
 30
0.0
 11
195.630258
 21
208.605774
 31
0.0
  0
LINE
  8
0
  6
CONTINUOUS
 62
     0
 10
195.57203
 20
208.641579
 30
0.0
 11
195.600926
 21
208.617333
 31
0.0
  0
LINE
  8
0
  6
CONTINUOUS
 62
     0
 10
195.561382
 20
208.63746
 30
0.0
 11
195.571593
 21
208.628892
 31
0.0
  0
LINE
  8
0
  6
CONTINUOUS
 62
     0
 10
195.997961
 20
208.806343
 30
0.0
 11
196.774231
 21
208.154975
 31
0.0
  0
LINE
  8
0
  6
CONTINUOUS
 62
     0
 10
196.00861
 20
208.810462
 30
0.0
 11
196.803564
 21
208.143416
 31
0.0
  0
LINE
  8
0
  6
CONTINUOUS
 62
     0
 10
196.019258
 20
208.814581
 30
0.0
 11
196.831691
 21
208.132869
 31
0.0
  0
LINE
  8
0
  6
CONTINUOUS
 62
     0
 10
196.029906
 20
208.8187
 30
0.0
 11
196.831691
 21
208.145923
 31
0.0
  0
LINE
  8
0
  6
CONTINUOUS
 62
     0
 10
196.040555
 20
208.82282
 30
0.0
 11
196.831691
 21
208.158977
 31
0.0
  0
LINE
  8
0
  6
CONTINUOUS
 62
     0
 10
196.051203
 20
208.826939
 30
0.0
 11
196.831691
 21
208.172031
 31
0.0
  0
LINE
  8
0
  6
CONTINUOUS
 62
     0
 10
196.061851
 20
208.831058
 30
0.0
 11
196.831691
 21
208.185085
 31
0.0
  0
LINE
  8
0
  6
CONTINUOUS
 62
     0
 10
196.072499
 20
208.835177
 30
0.0
 11
196.831691
 21
208.198139
 31
0.0
  0
LINE
  8
0
  6
CONTINUOUS
 62
     0
 10
196.083148
 20
208.839296
 30
0.0
 11
196.831691
 21
208.211194
 31
0.0
  0
LINE
  8
0
  6
CONTINUOUS
 62
     0
 10
196.093796
 20
208.843415
 30
0.0
 11
196.831691
 21
208.224248
 31
0.0
  0
LINE
  8
0
  6
CONTINUOUS
 62
     0
 10
196.104444
 20
208.847534
 30
0.0
 11
196.831691
 21
208.237302
 31
0.0
  0
LINE
  8
0
  6
CONTINUOUS
 62
     0
 10
196.115092
 20
208.851653
 30
0.0
 11
196.831691
 21
208.250356
 31
0.0
  0
LINE
  8
0
  6
CONTINUOUS
 62
     0
 10
196.125741
 20
208.855772
 30
0.0
 11
196.831691
 21
208.26341
 31
0.0
  0
LINE
  8
0
  6
CONTINUOUS
 62
     0
 10
196.136389
 20
208.859892
 30
0.0
 11
196.831691
 21
208.276464
 31
0.0
  0
LINE
  8
0
  6
CONTINUOUS
 62
     0
 10
196.147037
 20
208.864011
 30
0.0
 11
196.831691
 21
208.289518
 31
0.0
  0
LINE
  8
0
  6
CONTINUOUS
 62
     0
 10
196.157686
 20
208.86813
 30
0.0
 11
196.831691
 21
208.302572
 31
0.0
  0
LINE
  8
0
  6
CONTINUOUS
 62
     0
 10
196.168334
 20
208.872249
 30
0.0
 11
196.831691
 21
208.315626
 31
0.0
  0
LINE
  8
0
  6
CONTINUOUS
 62
     0
 10
196.178982
 20
208.876368
 30
0.0
 11
196.831691
 21
208.32868
 31
0.0
  0
LINE
  8
0
  6
CONTINUOUS
 62
     0
 10
196.18963
 20
208.880487
 30
0.0
 11
196.831691
 21
208.341734
 31
0.0
  0
LINE
  8
0
  6
CONTINUOUS
 62
     0
 10
196.200279
 20
208.884606
 30
0.0
 11
196.831691
 21
208.354788
 31
0.0
  0
LINE
  8
0
  6
CONTINUOUS
 62
     0
 10
196.210927
 20
208.888725
 30
0.0
 11
196.831691
 21
208.367842
 31
0.0
  0
LINE
  8
0
  6
CONTINUOUS
 62
     0
 10
196.221575
 20
208.892844
 30
0.0
 11
196.831691
 21
208.380896
 31
0.0
  0
LINE
  8
0
  6
CONTINUOUS
 62
     0
 10
196.232223
 20
208.896964
 30
0.0
 11
196.831691
 21
208.393951
 31
0.0
  0
LINE
  8
0
  6
CONTINUOUS
 62
     0
 10
196.242872
 20
208.901083
 30
0.0
 11
196.831691
 21
208.407005
 31
0.0
  0
LINE
  8
0
  6
CONTINUOUS
 62
     0
 10
196.25352
 20
208.905202
 30
0.0
 11
196.831691
 21
208.420059
 31
0.0
  0
LINE
  8
0
  6
CONTINUOUS
 62
     0
 10
196.264168
 20
208.909321
 30
0.0
 11
196.831691
 21
208.433113
 31
0.0
  0
LINE
  8
0
  6
CONTINUOUS
 62
     0
 10
196.274817
 20
208.91344
 30
0.0
 11
196.831691
 21
208.446167
 31
0.0
  0
LINE
  8
0
  6
CONTINUOUS
 62
     0
 10
196.285465
 20
208.917559
 30
0.0
 11
196.831691
 21
208.459221
 31
0.0
  0
LINE
  8
0
  6
CONTINUOUS
 62
     0
 10
196.296113
 20
208.921678
 30
0.0
 11
196.831691
 21
208.472275
 31
0.0
  0
LINE
  8
0
  6
CONTINUOUS
 62
     0
 10
196.306761
 20
208.925797
 30
0.0
 11
196.831691
 21
208.485329
 31
0.0
  0
LINE
  8
0
  6
CONTINUOUS
 62
     0
 10
196.31741
 20
208.929916
 30
0.0
 11
196.831691
 21
208.498383
 31
0.0
  0
LINE
  8
0
  6
CONTINUOUS
 62
     0
 10
196.328058
 20
208.934036
 30
0.0
 11
196.831691
 21
208.511437
 31
0.0
  0
LINE
  8
0
  6
CONTINUOUS
 62
     0
 10
196.338706
 20
208.938155
 30
0.0
 11
196.831691
 21
208.524491
 31
0.0
  0
LINE
  8
0
  6
CONTINUOUS
 62
     0
 10
196.349355
 20
208.942274
 30
0.0
 11
196.831691
 21
208.537545
 31
0.0
  0
LINE
  8
0
  6
CONTINUOUS
 62
     0
 10
196.360003
 20
208.946393
 30
0.0
 11
196.831691
 21
208.550599
 31
0.0
  0
LINE
  8
0
  6
CONTINUOUS
 62
     0
 10
196.370651
 20
208.950512
 30
0.0
 11
196.831691
 21
208.563653
 31
0.0
  0
LINE
  8
0
  6
CONTINUOUS
 62
     0
 10
196.381299
 20
208.954631
 30
0.0
 11
196.831691
 21
208.576708
 31
0.0
  0
LINE
  8
0
  6
CONTINUOUS
 62
     0
 10
196.391948
 20
208.95875
 30
0.0
 11
196.831691
 21
208.589762
 31
0.0
  0
LINE
  8
0
  6
CONTINUOUS
 62
     0
 10
196.402596
 20
208.962869
 30
0.0
 11
196.831691
 21
208.602816
 31
0.0
  0
LINE
  8
0
  6
CONTINUOUS
 62
     0
 10
196.413244
 20
208.966988
 30
0.0
 11
196.831691
 21
208.61587
 31
0.0
  0
LINE
  8
0
  6
CONTINUOUS
 62
     0
 10
196.423892
 20
208.971108
 30
0.0
 11
196.831691
 21
208.628924
 31
0.0
  0
LINE
  8
0
  6
CONTINUOUS
 62
     0
 10
196.434541
 20
208.975227
 30
0.0
 11
196.831691
 21
208.641978
 31
0.0
  0
LINE
  8
0
  6
CONTINUOUS
 62
     0
 10
196.445189
 20
208.979346
 30
0.0
 11
196.831691
 21
208.655032
 31
0.0
  0
LINE
  8
0
  6
CONTINUOUS
 62
     0
 10
196.455837
 20
208.983465
 30
0.0
 11
196.831691
 21
208.668086
 31
0.0
  0
LINE
  8
0
  6
CONTINUOUS
 62
     0
 10
196.466486
 20
208.987584
 30
0.0
 11
196.831691
 21
208.68114
 31
0.0
  0
LINE
  8
0
  6
CONTINUOUS
 62
     0
 10
196.477134
 20
208.991703
 30
0.0
 11
196.831691
 21
208.694194
 31
0.0
  0
LINE
  8
0
  6
CONTINUOUS
 62
     0
 10
196.487782
 20
208.995822
 30
0.0
 11
196.831691
 21
208.707248
 31
0.0
  0
LINE
  8
0
  6
CONTINUOUS
 62
     0
 10
196.49843
 20
208.999941
 30
0.0
 11
196.831691
 21
208.720302
 31
0.0
  0
LINE
  8
0
  6
CONTINUOUS
 62
     0
 10
196.509079
 20
209.00406
 30
0.0
 11
196.831691
 21
208.733356
 31
0.0
  0
LINE
  8
0
  6
CONTINUOUS
 62
     0
 10
196.519727
 20
209.00818
 30
0.0
 11
196.831691
 21
208.74641
 31
0.0
  0
LINE
  8
0
  6
CONTINUOUS
 62
     0
 10
196.530375
 20
209.012299
 30
0.0
 11
196.831691
 21
208.759465
 31
0.0
  0
LINE
  8
0
  6
CONTINUOUS
 62
     0
 10
196.541023
 20
209.016418
 30
0.0
 11
196.831691
 21
208.772519
 31
0.0
  0
LINE
  8
0
  6
CONTINUOUS
 62
     0
 10
196.551672
 20
209.020537
 30
0.0
 11
196.831691
 21
208.785573
 31
0.0
  0
LINE
  8
0
  6
CONTINUOUS
 62
     0
 10
196.56232
 20
209.024656
 30
0.0
 11
196.831691
 21
208.798627
 31
0.0
  0
LINE
  8
0
  6
CONTINUOUS
 62
     0
 10
196.572968
 20
209.028775
 30
0.0
 11
196.831691
 21
208.811681
 31
0.0
  0
LINE
  8
0
  6
CONTINUOUS
 62
     0
 10
196.583617
 20
209.032894
 30
0.0
 11
196.831691
 21
208.824735
 31
0.0
  0
LINE
  8
0
  6
CONTINUOUS
 62
     0
 10
196.594265
 20
209.037013
 30
0.0
 11
196.831691
 21
208.837789
 31
0.0
  0
LINE
  8
0
  6
CONTINUOUS
 62
     0
 10
196.604913
 20
209.041132
 30
0.0
 11
196.831691
 21
208.850843
 31
0.0
  0
LINE
  8
0
  6
CONTINUOUS
 62
     0
 10
196.615561
 20
209.045251
 30
0.0
 11
196.831691
 21
208.863897
 31
0.0
  0
LINE
  8
0
  6
CONTINUOUS
 62
     0
 10
196.62621
 20
209.049371
 30
0.0
 11
196.831691
 21
208.876951
 31
0.0
  0
LINE
  8
0
  6
CONTINUOUS
 62
     0
 10
196.636858
 20
209.05349
 30
0.0
 11
196.831691
 21
208.890005
 31
0.0
  0
LINE
  8
0
  6
CONTINUOUS
 62
     0
 10
196.647506
 20
209.057609
 30
0.0
 11
196.831691
 21
208.903059
 31
0.0
  0
LINE
  8
0
  6
CONTINUOUS
 62
     0
 10
196.658155
 20
209.061728
 30
0.0
 11
196.831691
 21
208.916113
 31
0.0
  0
LINE
  8
0
  6
CONTINUOUS
 62
     0
 10
196.668803
 20
209.065847
 30
0.0
 11
196.831691
 21
208.929168
 31
0.0
  0
LINE
  8
0
  6
CONTINUOUS
 62
     0
 10
196.679451
 20
209.069966
 30
0.0
 11
196.831691
 21
208.942222
 31
0.0
  0
LINE
  8
0
  6
CONTINUOUS
 62
     0
 10
196.690099
 20
209.074085
 30
0.0
 11
196.831691
 21
208.955276
 31
0.0
  0
LINE
  8
0
  6
CONTINUOUS
 62
     0
 10
196.700748
 20
209.078204
 30
0.0
 11
196.831691
 21
208.96833
 31
0.0
  0
LINE
  8
0
  6
CONTINUOUS
 62
     0
 10
196.711396
 20
209.082323
 30
0.0
 11
196.831691
 21
208.981384
 31
0.0
  0
LINE
  8
0
  6
CONTINUOUS
 62
     0
 10
196.722044
 20
209.086443
 30
0.0
 11
196.831691
 21
208.994438
 31
0.0
  0
LINE
  8
0
  6
CONTINUOUS
 62
     0
 10
196.732692
 20
209.090562
 30
0.0
 11
196.831691
 21
209.007492
 31
0.0
  0
LINE
  8
0
  6
CONTINUOUS
 62
     0
 10
196.743341
 20
209.094681
 30
0.0
 11
196.831691
 21
209.020546
 31
0.0
  0
LINE
  8
0
  6
CONTINUOUS
 62
     0
 10
196.753989
 20
209.0988
 30
0.0
 11
196.831691
 21
209.0336
 31
0.0
  0
LINE
  8
0
  6
CONTINUOUS
 62
     0
 10
196.764637
 20
209.102919
 30
0.0
 11
196.831691
 21
209.046654
 31
0.0
  0
LINE
  8
0
  6
CONTINUOUS
 62
     0
 10
196.775286
 20
209.107038
 30
0.0
 11
196.831691
 21
209.059708
 31
0.0
  0
LINE
  8
0
  6
CONTINUOUS
 62
     0
 10
196.785934
 20
209.111157
 30
0.0
 11
196.831691
 21
209.072762
 31
0.0
  0
LINE
  8
0
  6
CONTINUOUS
 62
     0
 10
196.796582
 20
209.115276
 30
0.0
 11
196.831691
 21
209.085816
 31
0.0
  0
LINE
  8
0
  6
CONTINUOUS
 62
     0
 10
196.80723
 20
209.119395
 30
0.0
 11
196.831691
 21
209.09887
 31
0.0
  0
LINE
  8
0
  6
CONTINUOUS
 62
     0
 10
196.817879
 20
209.123515
 30
0.0
 11
196.831691
 21
209.111925
 31
0.0
  0
LINE
  8
0
  6
CONTINUOUS
 62
     0
 10
196.828527
 20
209.127634
 30
0.0
 11
196.831691
 21
209.124979
 31
0.0
  0
ENDBLK
  8
0
  0
BLOCK
  8
0
  2
B108
 70
     0
 10
0.0
 20
0.0
 30
0.0
  3
B108
  0
LINE
  8
0
  6
CONTINUOUS
 10
11.65991
 20
17.699
 30
0.0
 11
14.005675
 21
16.363646
 31
0.0
  0
LINE
  8
0
  6
CONTINUOUS
 10
14.005675
 20
16.363646
 30
0.0
 11
11.65991
 21
15.173727
 31
0.0
  0
LINE
  8
0
  6
CONTINUOUS
 10
15.004825
 20
6.79554
 30
0.0
 11
12.659059
 21
5.605621
 31
0.0
  0
LINE
  8
0
  6
CONTINUOUS
 10
12.659059
 20
8.130894
 30
0.0
 11
15.004825
 21
6.79554
 31
0.0
  0
LINE
  8
0
  6
CONTINUOUS
 10
11.43177
 20
8.130894
 30
0.0
 11
13.777535
 21
6.79554
 31
0.0
  0
LINE
  8
0
  6
CONTINUOUS
 10
13.777535
 20
6.79554
 30
0.0
 11
11.43177
 21
5.605621
 31
0.0
  0
LINE
  8
0
  6
CONTINUOUS
 10
9.791993
 20
7.694005
 30
0.0
 11
9.791993
 21
6.339735
 31
0.0
  0
LINE
  8
0
  6
CONTINUOUS
 10
8.581765
 20
6.339735
 30
0.0
 11
9.776106
 21
6.339735
 31
0.0
  0
LINE
  8
0
  6
CONTINUOUS
 10
9.776106
 20
6.339735
 30
0.0
 11
10.970447
 21
6.339735
 31
0.0
  0
LINE
  8
0
  6
CONTINUOUS
 10
8.96017
 20
5.860124
 30
0.0
 11
10.544742
 21
5.860124
 31
0.0
  0
LINE
  8
0
  6
CONTINUOUS
 10
9.291275
 20
5.37195
 30
0.0
 11
10.178162
 21
5.37195
 31
0.0
  0
LINE
  8
0
  6
CONTINUOUS
 10
9.291275
 20
14.878642
 30
0.0
 11
10.178162
 21
14.878642
 31
0.0
  0
LINE
  8
0
  6
CONTINUOUS
 10
8.96017
 20
15.366817
 30
0.0
 11
10.544742
 21
15.366817
 31
0.0
  0
LINE
  8
0
  6
CONTINUOUS
 10
9.776106
 20
15.846427
 30
0.0
 11
10.970447
 21
15.846427
 31
0.0
  0
LINE
  8
0
  6
CONTINUOUS
 10
8.581765
 20
15.846427
 30
0.0
 11
9.776106
 21
15.846427
 31
0.0
  0
LINE
  8
0
  6
CONTINUOUS
 10
9.791993
 20
17.200697
 30
0.0
 11
9.791993
 21
15.846427
 31
0.0
  0
TEXT
  8
0
  6
CONTINUOUS
 10
6.232767
 20
5.651948
 30
0.0
 40
2.5
  1
U
  0
TEXT
  8
0
  6
CONTINUOUS
 10
6.232767
 20
15.118448
 30
0.0
 40
2.5
  1
U
  0
TEXT
  8
0
  6
DASHED
 10
0.926636
 20
-12.887787
 30
0.0
 40
2.0
  1
GENERATORSKYDD
  0
TEXT
  8
0
  6
DASHED
 10
0.926636
 20
-9.554454
 30
0.0
 40
2.0
  1
PROTECTION
  0
TEXT
  8
0
  6
DASHED
 10
0.926636
 20
-6.221121
 30
0.0
 40
2.0
  1
GENERATOR
  0
LINE
  8
0
  6
CONTINUOUS
 10
0.0
 20
0.0
 30
0.0
 11
20.0
 21
0.0
 31
0.0
  0
LINE
  8
0
  6
CONTINUOUS
 10
5.600275
 20
12.706143
 30
0.0
 11
5.600275
 21
10.918012
 31
0.0
  0
LINE
  8
0
  6
CONTINUOUS
 10
5.631307
 20
11.860865
 30
0.0
 11
13.419512
 21
11.860865
 31
0.0
  0
LINE
  8
0
  6
CONTINUOUS
 10
10.460859
 20
14.059027
 30
0.0
 11
11.361536
 21
12.935278
 31
0.0
  0
LINE
  8
0
  6
CONTINUOUS
 10
8.015452
 20
10.693262
 30
0.0
 11
10.891562
 21
13.521821
 31
0.0
  0
LINE
  8
0
  6
CONTINUOUS
 10
13.414971
 20
12.706143
 30
0.0
 11
13.414971
 21
10.918012
 31
0.0
  0
LINE
  8
0
  6
CONTINUOUS
 10
13.414971
 20
3.052173
 30
0.0
 11
13.414971
 21
1.264041
 31
0.0
  0
LINE
  8
0
  6
CONTINUOUS
 10
10.460859
 20
4.405057
 30
0.0
 11
11.361536
 21
3.281308
 31
0.0
  0
LINE
  8
0
  6
CONTINUOUS
 10
8.015452
 20
1.039291
 30
0.0
 11
10.891562
 21
3.86785
 31
0.0
  0
LINE
  8
0
  6
CONTINUOUS
 10
5.631307
 20
2.206894
 30
0.0
 11
13.419512
 21
2.206894
 31
0.0
  0
LINE
  8
0
  6
CONTINUOUS
 10
5.600275
 20
3.052173
 30
0.0
 11
5.600275
 21
1.264041
 31
0.0
  0
LINE
  8
0
  6
CONTINUOUS
 10
5.561603
 20
44.128388
 30
0.0
 11
5.561603
 21
42.340256
 31
0.0
  0
LINE
  8
0
  6
CONTINUOUS
 10
5.592635
 20
43.283109
 30
0.0
 11
13.38084
 21
43.283109
 31
0.0
  0
LINE
  8
0
  6
CONTINUOUS
 10
7.976779
 20
42.115506
 30
0.0
 11
10.85289
 21
44.944065
 31
0.0
  0
LINE
  8
0
  6
CONTINUOUS
 10
10.398767
 20
45.481272
 30
0.0
 11
11.299444
 21
44.357523
 31
0.0
  0
LINE
  8
0
  6
CONTINUOUS
 10
13.376298
 20
44.128388
 30
0.0
 11
13.376298
 21
42.340256
 31
0.0
  0
LINE
  8
0
  6
CONTINUOUS
 10
13.376298
 20
52.646501
 30
0.0
 11
13.376298
 21
50.85837
 31
0.0
  0
LINE
  8
0
  6
CONTINUOUS
 10
10.398767
 20
53.999385
 30
0.0
 11
11.299444
 21
52.875636
 31
0.0
  0
LINE
  8
0
  6
CONTINUOUS
 10
7.976779
 20
50.63362
 30
0.0
 11
10.85289
 21
53.462178
 31
0.0
  0
LINE
  8
0
  6
CONTINUOUS
 10
5.592635
 20
51.801223
 30
0.0
 11
13.38084
 21
51.801223
 31
0.0
  0
LINE
  8
0
  6
CONTINUOUS
 10
5.561603
 20
52.646501
 30
0.0
 11
5.561603
 21
50.85837
 31
0.0
  0
INSERT
  8
0
  6
CONTINUOUS
  2
*X28
 10
-184.701809
 20
-161.567847
 30
0.0
  0
LINE
  8
0
  6
CONTINUOUS
 10
10.853754
 20
47.067362
 30
0.0
 11
12.129882
 21
46.564486
 31
0.0
  0
LINE
  8
0
  6
CONTINUOUS
 10
12.129882
 20
47.561011
 30
0.0
 11
10.853754
 21
47.067362
 31
0.0
  0
LINE
  8
0
  6
CONTINUOUS
 10
12.129882
 20
47.062748
 30
0.0
 11
12.129882
 21
46.564486
 31
0.0
  0
LINE
  8
0
  6
CONTINUOUS
 10
12.129882
 20
47.062748
 30
0.0
 11
12.129882
 21
47.561011
 31
0.0
  0
LINE
  8
0
  6
CONTINUOUS
 10
10.87228
 20
47.063562
 30
0.0
 11
14.696237
 21
47.063562
 31
0.0
  0
TEXT
  8
0
  6
CONTINUOUS
 10
8.039335
 20
45.897957
 30
0.0
 40
2.5
  1
P
  0
LINE
  8
0
  6
CONTINUOUS
 10
13.193211
 20
56.565916
 30
0.0
 11
10.847445
 21
55.375997
 31
0.0
  0
LINE
  8
0
  6
CONTINUOUS
 10
10.847445
 20
57.90127
 30
0.0
 11
13.193211
 21
56.565916
 31
0.0
  0
LINE
  8
0
  6
CONTINUOUS
 10
12.074735
 20
57.90127
 30
0.0
 11
14.4205
 21
56.565916
 31
0.0
  0
LINE
  8
0
  6
CONTINUOUS
 10
14.4205
 20
56.565916
 30
0.0
 11
12.074735
 21
55.375997
 31
0.0
  0
TEXT
  8
0
  6
CONTINUOUS
 10
7.943096
 20
55.283565
 30
0.0
 40
2.5
  1
U
  0
LINE
  8
0
  6
CONTINUOUS
 10
5.561603
 20
61.865043
 30
0.0
 11
5.561603
 21
60.076912
 31
0.0
  0
LINE
  8
0
  6
CONTINUOUS
 10
5.592635
 20
61.019764
 30
0.0
 11
13.38084
 21
61.019764
 31
0.0
  0
LINE
  8
0
  6
CONTINUOUS
 10
7.976779
 20
59.852162
 30
0.0
 11
10.85289
 21
62.68072
 31
0.0
  0
LINE
  8
0
  6
CONTINUOUS
 10
10.398767
 20
63.217927
 30
0.0
 11
11.299444
 21
62.094178
 31
0.0
  0
LINE
  8
0
  6
CONTINUOUS
 10
13.376298
 20
61.865043
 30
0.0
 11
13.376298
 21
60.076912
 31
0.0
  0
TEXT
  8
0
  6
CONTINUOUS
 10
7.927497
 20
64.79306
 30
0.0
 40
2.5
  1
U
  0
LINE
  8
0
  6
CONTINUOUS
 10
13.427186
 20
66.075411
 30
0.0
 11
11.08142
 21
64.885492
 31
0.0
  0
LINE
  8
0
  6
CONTINUOUS
 10
11.08142
 20
67.410765
 30
0.0
 11
13.427186
 21
66.075411
 31
0.0
  0
LINE
  8
0
  6
CONTINUOUS
 10
0.0
 20
20.0
 30
0.0
 11
20.0
 21
20.0
 31
0.0
  0
LINE
  8
0
  6
CONTINUOUS
 10
0.0
 20
0.0
 30
0.0
 11
0.0
 21
70.0
 31
0.0
  0
LINE
  8
0
  6
CONTINUOUS
 10
20.0
 20
70.0
 30
0.0
 11
20.0
 21
0.0
 31
0.0
  0
LINE
  8
0
  6
CONTINUOUS
 10
0.0
 20
70.0
 30
0.0
 11
20.0
 21
70.0
 31
0.0
  0
LINE
  8
0
  6
CONTINUOUS
 10
0.0
 20
40.0
 30
0.0
 11
20.0
 21
40.0
 31
0.0
  0
LINE
  8
0
  6
CONTINUOUS
 10
5.600275
 20
23.052173
 30
0.0
 11
5.600275
 21
21.264041
 31
0.0
  0
LINE
  8
0
  6
CONTINUOUS
 10
5.631307
 20
22.206894
 30
0.0
 11
13.419512
 21
22.206894
 31
0.0
  0
LINE
  8
0
  6
CONTINUOUS
 10
8.015452
 20
21.039291
 30
0.0
 11
10.891562
 21
23.86785
 31
0.0
  0
LINE
  8
0
  6
CONTINUOUS
 10
10.460859
 20
24.405057
 30
0.0
 11
11.361536
 21
23.281308
 31
0.0
  0
LINE
  8
0
  6
CONTINUOUS
 10
13.414971
 20
23.052173
 30
0.0
 11
13.414971
 21
21.264041
 31
0.0
  0
LINE
  8
0
  6
CONTINUOUS
 10
14.666159
 20
27.00956
 30
0.0
 11
12.320394
 21
25.819641
 31
0.0
  0
LINE
  8
0
  6
CONTINUOUS
 10
12.320394
 20
28.344914
 30
0.0
 11
14.666159
 21
27.00956
 31
0.0
  0
LINE
  8
0
  6
CONTINUOUS
 10
11.093104
 20
28.344914
 30
0.0
 11
13.438869
 21
27.00956
 31
0.0
  0
LINE
  8
0
  6
CONTINUOUS
 10
13.438869
 20
27.00956
 30
0.0
 11
11.093104
 21
25.819641
 31
0.0
  0
TEXT
  8
0
  6
DASHED
 10
6.443359
 20
25.782752
 30
0.0
 40
2.5
  1
3I
  0
LINE
  8
0
  6
CONTINUOUS
 10
13.414971
 20
32.706143
 30
0.0
 11
13.414971
 21
30.918012
 31
0.0
  0
LINE
  8
0
  6
CONTINUOUS
 10
8.015452
 20
30.693262
 30
0.0
 11
10.891562
 21
33.521821
 31
0.0
  0
ARC
  8
0
  6
HIDDEN
 10
12.326175
 20
35.789409
 30
0.0
 40
4.998196
 50
206.402922
 51
282.21115
  0
LINE
  8
0
  6
CONTINUOUS
 10
10.460859
 20
34.059027
 30
0.0
 11
11.361536
 21
32.935278
 31
0.0
  0
LINE
  8
0
  6
CONTINUOUS
 10
5.631307
 20
31.860865
 30
0.0
 11
13.419512
 21
31.860865
 31
0.0
  0
LINE
  8
0
  6
CONTINUOUS
 10
5.600275
 20
32.706143
 30
0.0
 11
5.600275
 21
30.918012
 31
0.0
  0
LINE
  8
0
  6
CONTINUOUS
 10
13.196345
 20
36.9814
 30
0.0
 11
10.850579
 21
35.791481
 31
0.0
  0
LINE
  8
0
  6
CONTINUOUS
 10
10.850579
 20
38.316754
 30
0.0
 11
13.196345
 21
36.9814
 31
0.0
  0
TEXT
  8
0
  6
DASHED
 10
6.443359
 20
35.768474
 30
0.0
 40
2.5
  1
3I
  0
ENDBLK
  8
0
  0
BLOCK
  8
0
  2
*X28
 70
    65
 10
0.0
 20
0.0
 30
0.0
  3
*X
  0
LINE
  8
0
  6
CONTINUOUS
 62
     0
 10
196.030255
 20
208.448149
 30
0.0
 11
196.49078
 21
208.996982
 31
0.0
  0
LINE
  8
0
  6
CONTINUOUS
 62
     0
 10
196.020445
 20
208.452015
 30
0.0
 11
196.471453
 21
208.989505
 31
0.0
  0
LINE
  8
0
  6
CONTINUOUS
 62
     0
 10
196.010635
 20
208.455881
 30
0.0
 11
196.452125
 21
208.982029
 31
0.0
  0
LINE
  8
0
  6
CONTINUOUS
 62
     0
 10
196.000825
 20
208.459747
 30
0.0
 11
196.432797
 21
208.974552
 31
0.0
  0
LINE
  8
0
  6
CONTINUOUS
 62
     0
 10
195.991014
 20
208.463613
 30
0.0
 11
196.41347
 21
208.967076
 31
0.0
  0
LINE
  8
0
  6
CONTINUOUS
 62
     0
 10
195.981204
 20
208.467479
 30
0.0
 11
196.394142
 21
208.959599
 31
0.0
  0
LINE
  8
0
  6
CONTINUOUS
 62
     0
 10
195.971394
 20
208.471345
 30
0.0
 11
196.374814
 21
208.952122
 31
0.0
  0
LINE
  8
0
  6
CONTINUOUS
 62
     0
 10
195.961584
 20
208.47521
 30
0.0
 11
196.355487
 21
208.944646
 31
0.0
  0
LINE
  8
0
  6
CONTINUOUS
 62
     0
 10
195.951773
 20
208.479076
 30
0.0
 11
196.336159
 21
208.937169
 31
0.0
  0
LINE
  8
0
  6
CONTINUOUS
 62
     0
 10
195.941963
 20
208.482942
 30
0.0
 11
196.316831
 21
208.929693
 31
0.0
  0
LINE
  8
0
  6
CONTINUOUS
 62
     0
 10
195.932153
 20
208.486808
 30
0.0
 11
196.297504
 21
208.922216
 31
0.0
  0
LINE
  8
0
  6
CONTINUOUS
 62
     0
 10
195.922343
 20
208.490674
 30
0.0
 11
196.278176
 21
208.91474
 31
0.0
  0
LINE
  8
0
  6
CONTINUOUS
 62
     0
 10
195.912533
 20
208.49454
 30
0.0
 11
196.258848
 21
208.907263
 31
0.0
  0
LINE
  8
0
  6
CONTINUOUS
 62
     0
 10
195.902722
 20
208.498406
 30
0.0
 11
196.239521
 21
208.899786
 31
0.0
  0
LINE
  8
0
  6
CONTINUOUS
 62
     0
 10
195.892912
 20
208.502272
 30
0.0
 11
196.220193
 21
208.89231
 31
0.0
  0
LINE
  8
0
  6
CONTINUOUS
 62
     0
 10
195.883102
 20
208.506137
 30
0.0
 11
196.200865
 21
208.884833
 31
0.0
  0
LINE
  8
0
  6
CONTINUOUS
 62
     0
 10
195.873292
 20
208.510003
 30
0.0
 11
196.181538
 21
208.877357
 31
0.0
  0
LINE
  8
0
  6
CONTINUOUS
 62
     0
 10
195.863481
 20
208.513869
 30
0.0
 11
196.16221
 21
208.86988
 31
0.0
  0
LINE
  8
0
  6
CONTINUOUS
 62
     0
 10
195.853671
 20
208.517735
 30
0.0
 11
196.142882
 21
208.862403
 31
0.0
  0
LINE
  8
0
  6
CONTINUOUS
 62
     0
 10
195.843861
 20
208.521601
 30
0.0
 11
196.123555
 21
208.854927
 31
0.0
  0
LINE
  8
0
  6
CONTINUOUS
 62
     0
 10
195.834051
 20
208.525467
 30
0.0
 11
196.104227
 21
208.84745
 31
0.0
  0
LINE
  8
0
  6
CONTINUOUS
 62
     0
 10
195.82424
 20
208.529333
 30
0.0
 11
196.084899
 21
208.839974
 31
0.0
  0
LINE
  8
0
  6
CONTINUOUS
 62
     0
 10
195.81443
 20
208.533198
 30
0.0
 11
196.065572
 21
208.832497
 31
0.0
  0
LINE
  8
0
  6
CONTINUOUS
 62
     0
 10
195.80462
 20
208.537064
 30
0.0
 11
196.046244
 21
208.82502
 31
0.0
  0
LINE
  8
0
  6
CONTINUOUS
 62
     0
 10
195.79481
 20
208.54093
 30
0.0
 11
196.026916
 21
208.817544
 31
0.0
  0
LINE
  8
0
  6
CONTINUOUS
 62
     0
 10
195.784999
 20
208.544796
 30
0.0
 11
196.007589
 21
208.810067
 31
0.0
  0
LINE
  8
0
  6
CONTINUOUS
 62
     0
 10
195.775189
 20
208.548662
 30
0.0
 11
195.988261
 21
208.802591
 31
0.0
  0
LINE
  8
0
  6
CONTINUOUS
 62
     0
 10
195.765379
 20
208.552528
 30
0.0
 11
195.968933
 21
208.795114
 31
0.0
  0
LINE
  8
0
  6
CONTINUOUS
 62
     0
 10
195.755569
 20
208.556394
 30
0.0
 11
195.949605
 21
208.787637
 31
0.0
  0
LINE
  8
0
  6
CONTINUOUS
 62
     0
 10
195.745759
 20
208.560259
 30
0.0
 11
195.930278
 21
208.780161
 31
0.0
  0
LINE
  8
0
  6
CONTINUOUS
 62
     0
 10
195.735948
 20
208.564125
 30
0.0
 11
195.91095
 21
208.772684
 31
0.0
  0
LINE
  8
0
  6
CONTINUOUS
 62
     0
 10
195.726138
 20
208.567991
 30
0.0
 11
195.891622
 21
208.765208
 31
0.0
  0
LINE
  8
0
  6
CONTINUOUS
 62
     0
 10
195.716328
 20
208.571857
 30
0.0
 11
195.872295
 21
208.757731
 31
0.0
  0
LINE
  8
0
  6
CONTINUOUS
 62
     0
 10
195.706518
 20
208.575723
 30
0.0
 11
195.852967
 21
208.750254
 31
0.0
  0
LINE
  8
0
  6
CONTINUOUS
 62
     0
 10
195.696707
 20
208.579589
 30
0.0
 11
195.833639
 21
208.742778
 31
0.0
  0
LINE
  8
0
  6
CONTINUOUS
 62
     0
 10
195.686897
 20
208.583455
 30
0.0
 11
195.814312
 21
208.735301
 31
0.0
  0
LINE
  8
0
  6
CONTINUOUS
 62
     0
 10
195.677087
 20
208.58732
 30
0.0
 11
195.794984
 21
208.727825
 31
0.0
  0
LINE
  8
0
  6
CONTINUOUS
 62
     0
 10
195.667277
 20
208.591186
 30
0.0
 11
195.775656
 21
208.720348
 31
0.0
  0
LINE
  8
0
  6
CONTINUOUS
 62
     0
 10
195.657466
 20
208.595052
 30
0.0
 11
195.756329
 21
208.712872
 31
0.0
  0
LINE
  8
0
  6
CONTINUOUS
 62
     0
 10
195.647656
 20
208.598918
 30
0.0
 11
195.737001
 21
208.705395
 31
0.0
  0
LINE
  8
0
  6
CONTINUOUS
 62
     0
 10
195.637846
 20
208.602784
 30
0.0
 11
195.717673
 21
208.697918
 31
0.0
  0
LINE
  8
0
  6
CONTINUOUS
 62
     0
 10
195.628036
 20
208.60665
 30
0.0
 11
195.698346
 21
208.690442
 31
0.0
  0
LINE
  8
0
  6
CONTINUOUS
 62
     0
 10
195.618226
 20
208.610516
 30
0.0
 11
195.679018
 21
208.682965
 31
0.0
  0
LINE
  8
0
  6
CONTINUOUS
 62
     0
 10
195.608415
 20
208.614381
 30
0.0
 11
195.65969
 21
208.675489
 31
0.0
  0
LINE
  8
0
  6
CONTINUOUS
 62
     0
 10
195.598605
 20
208.618247
 30
0.0
 11
195.640363
 21
208.668012
 31
0.0
  0
LINE
  8
0
  6
CONTINUOUS
 62
     0
 10
195.588795
 20
208.622113
 30
0.0
 11
195.621035
 21
208.660535
 31
0.0
  0
LINE
  8
0
  6
CONTINUOUS
 62
     0
 10
195.578985
 20
208.625979
 30
0.0
 11
195.601707
 21
208.653059
 31
0.0
  0
LINE
  8
0
  6
CONTINUOUS
 62
     0
 10
195.569174
 20
208.629845
 30
0.0
 11
195.58238
 21
208.645582
 31
0.0
  0
LINE
  8
0
  6
CONTINUOUS
 62
     0
 10
195.559364
 20
208.633711
 30
0.0
 11
195.563052
 21
208.638106
 31
0.0
  0
LINE
  8
0
  6
CONTINUOUS
 62
     0
 10
196.040066
 20
208.444284
 30
0.0
 11
196.510108
 21
209.004459
 31
0.0
  0
LINE
  8
0
  6
CONTINUOUS
 62
     0
 10
196.049876
 20
208.440418
 30
0.0
 11
196.529436
 21
209.011935
 31
0.0
  0
LINE
  8
0
  6
CONTINUOUS
 62
     0
 10
196.059686
 20
208.436552
 30
0.0
 11
196.548764
 21
209.019412
 31
0.0
  0
LINE
  8
0
  6
CONTINUOUS
 62
     0
 10
196.069496
 20
208.432686
 30
0.0
 11
196.568091
 21
209.026888
 31
0.0
  0
LINE
  8
0
  6
CONTINUOUS
 62
     0
 10
196.079306
 20
208.42882
 30
0.0
 11
196.587419
 21
209.034365
 31
0.0
  0
LINE
  8
0
  6
CONTINUOUS
 62
     0
 10
196.089117
 20
208.424954
 30
0.0
 11
196.606747
 21
209.041842
 31
0.0
  0
LINE
  8
0
  6
CONTINUOUS
 62
     0
 10
196.098927
 20
208.421088
 30
0.0
 11
196.626074
 21
209.049318
 31
0.0
  0
LINE
  8
0
  6
CONTINUOUS
 62
     0
 10
196.108737
 20
208.417223
 30
0.0
 11
196.645402
 21
209.056795
 31
0.0
  0
LINE
  8
0
  6
CONTINUOUS
 62
     0
 10
196.118547
 20
208.413357
 30
0.0
 11
196.66473
 21
209.064271
 31
0.0
  0
LINE
  8
0
  6
CONTINUOUS
 62
     0
 10
196.128358
 20
208.409491
 30
0.0
 11
196.684057
 21
209.071748
 31
0.0
  0
LINE
  8
0
  6
CONTINUOUS
 62
     0
 10
196.138168
 20
208.405625
 30
0.0
 11
196.703385
 21
209.079225
 31
0.0
  0
LINE
  8
0
  6
CONTINUOUS
 62
     0
 10
196.147978
 20
208.401759
 30
0.0
 11
196.722713
 21
209.086701
 31
0.0
  0
LINE
  8
0
  6
CONTINUOUS
 62
     0
 10
196.157788
 20
208.397893
 30
0.0
 11
196.74204
 21
209.094178
 31
0.0
  0
LINE
  8
0
  6
CONTINUOUS
 62
     0
 10
196.167599
 20
208.394027
 30
0.0
 11
196.761368
 21
209.101654
 31
0.0
  0
LINE
  8
0
  6
CONTINUOUS
 62
     0
 10
196.177409
 20
208.390162
 30
0.0
 11
196.780696
 21
209.109131
 31
0.0
  0
LINE
  8
0
  6
CONTINUOUS
 62
     0
 10
196.187219
 20
208.386296
 30
0.0
 11
196.800023
 21
209.116608
 31
0.0
  0
LINE
  8
0
  6
CONTINUOUS
 62
     0
 10
196.197029
 20
208.38243
 30
0.0
 11
196.819351
 21
209.124084
 31
0.0
  0
LINE
  8
0
  6
CONTINUOUS
 62
     0
 10
196.206839
 20
208.378564
 30
0.0
 11
196.831691
 21
209.123233
 31
0.0
  0
LINE
  8
0
  6
CONTINUOUS
 62
     0
 10
196.21665
 20
208.374698
 30
0.0
 11
196.831691
 21
209.107676
 31
0.0
  0
LINE
  8
0
  6
CONTINUOUS
 62
     0
 10
196.22646
 20
208.370832
 30
0.0
 11
196.831691
 21
209.092119
 31
0.0
  0
LINE
  8
0
  6
CONTINUOUS
 62
     0
 10
196.23627
 20
208.366966
 30
0.0
 11
196.831691
 21
209.076561
 31
0.0
  0
LINE
  8
0
  6
CONTINUOUS
 62
     0
 10
196.24608
 20
208.363101
 30
0.0
 11
196.831691
 21
209.061004
 31
0.0
  0
LINE
  8
0
  6
CONTINUOUS
 62
     0
 10
196.255891
 20
208.359235
 30
0.0
 11
196.831691
 21
209.045447
 31
0.0
  0
LINE
  8
0
  6
CONTINUOUS
 62
     0
 10
196.265701
 20
208.355369
 30
0.0
 11
196.831691
 21
209.02989
 31
0.0
  0
LINE
  8
0
  6
CONTINUOUS
 62
     0
 10
196.275511
 20
208.351503
 30
0.0
 11
196.831691
 21
209.014333
 31
0.0
  0
LINE
  8
0
  6
CONTINUOUS
 62
     0
 10
196.285321
 20
208.347637
 30
0.0
 11
196.831691
 21
208.998775
 31
0.0
  0
LINE
  8
0
  6
CONTINUOUS
 62
     0
 10
196.295132
 20
208.343771
 30
0.0
 11
196.831691
 21
208.983218
 31
0.0
  0
LINE
  8
0
  6
CONTINUOUS
 62
     0
 10
196.304942
 20
208.339905
 30
0.0
 11
196.831691
 21
208.967661
 31
0.0
  0
LINE
  8
0
  6
CONTINUOUS
 62
     0
 10
196.314752
 20
208.33604
 30
0.0
 11
196.831691
 21
208.952104
 31
0.0
  0
LINE
  8
0
  6
CONTINUOUS
 62
     0
 10
196.324562
 20
208.332174
 30
0.0
 11
196.831691
 21
208.936546
 31
0.0
  0
LINE
  8
0
  6
CONTINUOUS
 62
     0
 10
196.334372
 20
208.328308
 30
0.0
 11
196.831691
 21
208.920989
 31
0.0
  0
LINE
  8
0
  6
CONTINUOUS
 62
     0
 10
196.344183
 20
208.324442
 30
0.0
 11
196.831691
 21
208.905432
 31
0.0
  0
LINE
  8
0
  6
CONTINUOUS
 62
     0
 10
196.353993
 20
208.320576
 30
0.0
 11
196.831691
 21
208.889875
 31
0.0
  0
LINE
  8
0
  6
CONTINUOUS
 62
     0
 10
196.363803
 20
208.31671
 30
0.0
 11
196.831691
 21
208.874317
 31
0.0
  0
LINE
  8
0
  6
CONTINUOUS
 62
     0
 10
196.373613
 20
208.312844
 30
0.0
 11
196.831691
 21
208.85876
 31
0.0
  0
LINE
  8
0
  6
CONTINUOUS
 62
     0
 10
196.383424
 20
208.308979
 30
0.0
 11
196.831691
 21
208.843203
 31
0.0
  0
LINE
  8
0
  6
CONTINUOUS
 62
     0
 10
196.393234
 20
208.305113
 30
0.0
 11
196.831691
 21
208.827646
 31
0.0
  0
LINE
  8
0
  6
CONTINUOUS
 62
     0
 10
196.403044
 20
208.301247
 30
0.0
 11
196.831691
 21
208.812088
 31
0.0
  0
LINE
  8
0
  6
CONTINUOUS
 62
     0
 10
196.412854
 20
208.297381
 30
0.0
 11
196.831691
 21
208.796531
 31
0.0
  0
LINE
  8
0
  6
CONTINUOUS
 62
     0
 10
196.422665
 20
208.293515
 30
0.0
 11
196.831691
 21
208.780974
 31
0.0
  0
LINE
  8
0
  6
CONTINUOUS
 62
     0
 10
196.432475
 20
208.289649
 30
0.0
 11
196.831691
 21
208.765417
 31
0.0
  0
LINE
  8
0
  6
CONTINUOUS
 62
     0
 10
196.442285
 20
208.285783
 30
0.0
 11
196.831691
 21
208.749859
 31
0.0
  0
LINE
  8
0
  6
CONTINUOUS
 62
     0
 10
196.452095
 20
208.281918
 30
0.0
 11
196.831691
 21
208.734302
 31
0.0
  0
LINE
  8
0
  6
CONTINUOUS
 62
     0
 10
196.461905
 20
208.278052
 30
0.0
 11
196.831691
 21
208.718745
 31
0.0
  0
LINE
  8
0
  6
CONTINUOUS
 62
     0
 10
196.471716
 20
208.274186
 30
0.0
 11
196.831691
 21
208.703188
 31
0.0
  0
LINE
  8
0
  6
CONTINUOUS
 62
     0
 10
196.481526
 20
208.27032
 30
0.0
 11
196.831691
 21
208.68763
 31
0.0
  0
LINE
  8
0
  6
CONTINUOUS
 62
     0
 10
196.491336
 20
208.266454
 30
0.0
 11
196.831691
 21
208.672073
 31
0.0
  0
LINE
  8
0
  6
CONTINUOUS
 62
     0
 10
196.501146
 20
208.262588
 30
0.0
 11
196.831691
 21
208.656516
 31
0.0
  0
LINE
  8
0
  6
CONTINUOUS
 62
     0
 10
196.510957
 20
208.258722
 30
0.0
 11
196.831691
 21
208.640959
 31
0.0
  0
LINE
  8
0
  6
CONTINUOUS
 62
     0
 10
196.520767
 20
208.254857
 30
0.0
 11
196.831691
 21
208.625402
 31
0.0
  0
LINE
  8
0
  6
CONTINUOUS
 62
     0
 10
196.530577
 20
208.250991
 30
0.0
 11
196.831691
 21
208.609844
 31
0.0
  0
LINE
  8
0
  6
CONTINUOUS
 62
     0
 10
196.540387
 20
208.247125
 30
0.0
 11
196.831691
 21
208.594287
 31
0.0
  0
LINE
  8
0
  6
CONTINUOUS
 62
     0
 10
196.550198
 20
208.243259
 30
0.0
 11
196.831691
 21
208.57873
 31
0.0
  0
LINE
  8
0
  6
CONTINUOUS
 62
     0
 10
196.560008
 20
208.239393
 30
0.0
 11
196.831691
 21
208.563173
 31
0.0
  0
LINE
  8
0
  6
CONTINUOUS
 62
     0
 10
196.569818
 20
208.235527
 30
0.0
 11
196.831691
 21
208.547615
 31
0.0
  0
LINE
  8
0
  6
CONTINUOUS
 62
     0
 10
196.579628
 20
208.231661
 30
0.0
 11
196.831691
 21
208.532058
 31
0.0
  0
LINE
  8
0
  6
CONTINUOUS
 62
     0
 10
196.589439
 20
208.227796
 30
0.0
 11
196.831691
 21
208.516501
 31
0.0
  0
LINE
  8
0
  6
CONTINUOUS
 62
     0
 10
196.599249
 20
208.22393
 30
0.0
 11
196.831691
 21
208.500944
 31
0.0
  0
LINE
  8
0
  6
CONTINUOUS
 62
     0
 10
196.609059
 20
208.220064
 30
0.0
 11
196.831691
 21
208.485386
 31
0.0
  0
LINE
  8
0
  6
CONTINUOUS
 62
     0
 10
196.618869
 20
208.216198
 30
0.0
 11
196.831691
 21
208.469829
 31
0.0
  0
LINE
  8
0
  6
CONTINUOUS
 62
     0
 10
196.628679
 20
208.212332
 30
0.0
 11
196.831691
 21
208.454272
 31
0.0
  0
LINE
  8
0
  6
CONTINUOUS
 62
     0
 10
196.63849
 20
208.208466
 30
0.0
 11
196.831691
 21
208.438715
 31
0.0
  0
LINE
  8
0
  6
CONTINUOUS
 62
     0
 10
196.6483
 20
208.2046
 30
0.0
 11
196.831691
 21
208.423157
 31
0.0
  0
LINE
  8
0
  6
CONTINUOUS
 62
     0
 10
196.65811
 20
208.200734
 30
0.0
 11
196.831691
 21
208.4076
 31
0.0
  0
LINE
  8
0
  6
CONTINUOUS
 62
     0
 10
196.66792
 20
208.196869
 30
0.0
 11
196.831691
 21
208.392043
 31
0.0
  0
LINE
  8
0
  6
CONTINUOUS
 62
     0
 10
196.677731
 20
208.193003
 30
0.0
 11
196.831691
 21
208.376486
 31
0.0
  0
LINE
  8
0
  6
CONTINUOUS
 62
     0
 10
196.687541
 20
208.189137
 30
0.0
 11
196.831691
 21
208.360928
 31
0.0
  0
LINE
  8
0
  6
CONTINUOUS
 62
     0
 10
196.697351
 20
208.185271
 30
0.0
 11
196.831691
 21
208.345371
 31
0.0
  0
LINE
  8
0
  6
CONTINUOUS
 62
     0
 10
196.707161
 20
208.181405
 30
0.0
 11
196.831691
 21
208.329814
 31
0.0
  0
LINE
  8
0
  6
CONTINUOUS
 62
     0
 10
196.716972
 20
208.177539
 30
0.0
 11
196.831691
 21
208.314257
 31
0.0
  0
LINE
  8
0
  6
CONTINUOUS
 62
     0
 10
196.726782
 20
208.173673
 30
0.0
 11
196.831691
 21
208.2987
 31
0.0
  0
LINE
  8
0
  6
CONTINUOUS
 62
     0
 10
196.736592
 20
208.169808
 30
0.0
 11
196.831691
 21
208.283142
 31
0.0
  0
LINE
  8
0
  6
CONTINUOUS
 62
     0
 10
196.746402
 20
208.165942
 30
0.0
 11
196.831691
 21
208.267585
 31
0.0
  0
LINE
  8
0
  6
CONTINUOUS
 62
     0
 10
196.756212
 20
208.162076
 30
0.0
 11
196.831691
 21
208.252028
 31
0.0
  0
LINE
  8
0
  6
CONTINUOUS
 62
     0
 10
196.766023
 20
208.15821
 30
0.0
 11
196.831691
 21
208.236471
 31
0.0
  0
LINE
  8
0
  6
CONTINUOUS
 62
     0
 10
196.775833
 20
208.154344
 30
0.0
 11
196.831691
 21
208.220913
 31
0.0
  0
LINE
  8
0
  6
CONTINUOUS
 62
     0
 10
196.785643
 20
208.150478
 30
0.0
 11
196.831691
 21
208.205356
 31
0.0
  0
LINE
  8
0
  6
CONTINUOUS
 62
     0
 10
196.795453
 20
208.146612
 30
0.0
 11
196.831691
 21
208.189799
 31
0.0
  0
LINE
  8
0
  6
CONTINUOUS
 62
     0
 10
196.805264
 20
208.142747
 30
0.0
 11
196.831691
 21
208.174242
 31
0.0
  0
LINE
  8
0
  6
CONTINUOUS
 62
     0
 10
196.815074
 20
208.138881
 30
0.0
 11
196.831691
 21
208.158684
 31
0.0
  0
LINE
  8
0
  6
CONTINUOUS
 62
     0
 10
196.824884
 20
208.135015
 30
0.0
 11
196.831691
 21
208.143127
 31
0.0
  0
LINE
  8
0
  6
CONTINUOUS
 62
     0
 10
195.987313
 20
208.802224
 30
0.0
 11
196.744899
 21
208.166534
 31
0.0
  0
LINE
  8
0
  6
CONTINUOUS
 62
     0
 10
195.976665
 20
208.798105
 30
0.0
 11
196.715566
 21
208.178093
 31
0.0
  0
LINE
  8
0
  6
CONTINUOUS
 62
     0
 10
195.966017
 20
208.793986
 30
0.0
 11
196.686234
 21
208.189652
 31
0.0
  0
LINE
  8
0
  6
CONTINUOUS
 62
     0
 10
195.955368
 20
208.789867
 30
0.0
 11
196.656901
 21
208.201211
 31
0.0
  0
LINE
  8
0
  6
CONTINUOUS
 62
     0
 10
195.94472
 20
208.785748
 30
0.0
 11
196.627568
 21
208.21277
 31
0.0
  0
LINE
  8
0
  6
CONTINUOUS
 62
     0
 10
195.934072
 20
208.781628
 30
0.0
 11
196.598236
 21
208.224329
 31
0.0
  0
LINE
  8
0
  6
CONTINUOUS
 62
     0
 10
195.923424
 20
208.777509
 30
0.0
 11
196.568903
 21
208.235888
 31
0.0
  0
LINE
  8
0
  6
CONTINUOUS
 62
     0
 10
195.912775
 20
208.77339
 30
0.0
 11
196.53957
 21
208.247447
 31
0.0
  0
LINE
  8
0
  6
CONTINUOUS
 62
     0
 10
195.902127
 20
208.769271
 30
0.0
 11
196.510238
 21
208.259006
 31
0.0
  0
LINE
  8
0
  6
CONTINUOUS
 62
     0
 10
195.891479
 20
208.765152
 30
0.0
 11
196.480905
 21
208.270565
 31
0.0
  0
LINE
  8
0
  6
CONTINUOUS
 62
     0
 10
195.88083
 20
208.761033
 30
0.0
 11
196.451572
 21
208.282124
 31
0.0
  0
LINE
  8
0
  6
CONTINUOUS
 62
     0
 10
195.870182
 20
208.756914
 30
0.0
 11
196.42224
 21
208.293683
 31
0.0
  0
LINE
  8
0
  6
CONTINUOUS
 62
     0
 10
195.859534
 20
208.752795
 30
0.0
 11
196.392907
 21
208.305241
 31
0.0
  0
LINE
  8
0
  6
CONTINUOUS
 62
     0
 10
195.848886
 20
208.748676
 30
0.0
 11
196.363574
 21
208.3168
 31
0.0
  0
LINE
  8
0
  6
CONTINUOUS
 62
     0
 10
195.838237
 20
208.744557
 30
0.0
 11
196.334242
 21
208.328359
 31
0.0
  0
LINE
  8
0
  6
CONTINUOUS
 62
     0
 10
195.827589
 20
208.740437
 30
0.0
 11
196.304909
 21
208.339918
 31
0.0
  0
LINE
  8
0
  6
CONTINUOUS
 62
     0
 10
195.816941
 20
208.736318
 30
0.0
 11
196.275576
 21
208.351477
 31
0.0
  0
LINE
  8
0
  6
CONTINUOUS
 62
     0
 10
195.806292
 20
208.732199
 30
0.0
 11
196.246244
 21
208.363036
 31
0.0
  0
LINE
  8
0
  6
CONTINUOUS
 62
     0
 10
195.795644
 20
208.72808
 30
0.0
 11
196.216911
 21
208.374595
 31
0.0
  0
LINE
  8
0
  6
CONTINUOUS
 62
     0
 10
195.784996
 20
208.723961
 30
0.0
 11
196.187579
 21
208.386154
 31
0.0
  0
LINE
  8
0
  6
CONTINUOUS
 62
     0
 10
195.774348
 20
208.719842
 30
0.0
 11
196.158246
 21
208.397713
 31
0.0
  0
LINE
  8
0
  6
CONTINUOUS
 62
     0
 10
195.763699
 20
208.715723
 30
0.0
 11
196.128913
 21
208.409272
 31
0.0
  0
LINE
  8
0
  6
CONTINUOUS
 62
     0
 10
195.753051
 20
208.711604
 30
0.0
 11
196.099581
 21
208.420831
 31
0.0
  0
LINE
  8
0
  6
CONTINUOUS
 62
     0
 10
195.742403
 20
208.707485
 30
0.0
 11
196.070248
 21
208.43239
 31
0.0
  0
LINE
  8
0
  6
CONTINUOUS
 62
     0
 10
195.731755
 20
208.703365
 30
0.0
 11
196.040915
 21
208.443949
 31
0.0
  0
LINE
  8
0
  6
CONTINUOUS
 62
     0
 10
195.721106
 20
208.699246
 30
0.0
 11
196.011583
 21
208.455508
 31
0.0
  0
LINE
  8
0
  6
CONTINUOUS
 62
     0
 10
195.710458
 20
208.695127
 30
0.0
 11
195.98225
 21
208.467067
 31
0.0
  0
LINE
  8
0
  6
CONTINUOUS
 62
     0
 10
195.69981
 20
208.691008
 30
0.0
 11
195.952917
 21
208.478626
 31
0.0
  0
LINE
  8
0
  6
CONTINUOUS
 62
     0
 10
195.689161
 20
208.686889
 30
0.0
 11
195.923585
 21
208.490185
 31
0.0
  0
LINE
  8
0
  6
CONTINUOUS
 62
     0
 10
195.678513
 20
208.68277
 30
0.0
 11
195.894252
 21
208.501743
 31
0.0
  0
LINE
  8
0
  6
CONTINUOUS
 62
     0
 10
195.667865
 20
208.678651
 30
0.0
 11
195.864919
 21
208.513302
 31
0.0
  0
LINE
  8
0
  6
CONTINUOUS
 62
     0
 10
195.657217
 20
208.674532
 30
0.0
 11
195.835587
 21
208.524861
 31
0.0
  0
LINE
  8
0
  6
CONTINUOUS
 62
     0
 10
195.646568
 20
208.670413
 30
0.0
 11
195.806254
 21
208.53642
 31
0.0
  0
LINE
  8
0
  6
CONTINUOUS
 62
     0
 10
195.63592
 20
208.666293
 30
0.0
 11
195.776922
 21
208.547979
 31
0.0
  0
LINE
  8
0
  6
CONTINUOUS
 62
     0
 10
195.625272
 20
208.662174
 30
0.0
 11
195.747589
 21
208.559538
 31
0.0
  0
LINE
  8
0
  6
CONTINUOUS
 62
     0
 10
195.614624
 20
208.658055
 30
0.0
 11
195.718256
 21
208.571097
 31
0.0
  0
LINE
  8
0
  6
CONTINUOUS
 62
     0
 10
195.603975
 20
208.653936
 30
0.0
 11
195.688924
 21
208.582656
 31
0.0
  0
LINE
  8
0
  6
CONTINUOUS
 62
     0
 10
195.593327
 20
208.649817
 30
0.0
 11
195.659591
 21
208.594215
 31
0.0
  0
LINE
  8
0
  6
CONTINUOUS
 62
     0
 10
195.582679
 20
208.645698
 30
0.0
 11
195.630258
 21
208.605774
 31
0.0
  0
LINE
  8
0
  6
CONTINUOUS
 62
     0
 10
195.57203
 20
208.641579
 30
0.0
 11
195.600926
 21
208.617333
 31
0.0
  0
LINE
  8
0
  6
CONTINUOUS
 62
     0
 10
195.561382
 20
208.63746
 30
0.0
 11
195.571593
 21
208.628892
 31
0.0
  0
LINE
  8
0
  6
CONTINUOUS
 62
     0
 10
195.997961
 20
208.806343
 30
0.0
 11
196.774231
 21
208.154975
 31
0.0
  0
LINE
  8
0
  6
CONTINUOUS
 62
     0
 10
196.00861
 20
208.810462
 30
0.0
 11
196.803564
 21
208.143416
 31
0.0
  0
LINE
  8
0
  6
CONTINUOUS
 62
     0
 10
196.019258
 20
208.814581
 30
0.0
 11
196.831691
 21
208.132869
 31
0.0
  0
LINE
  8
0
  6
CONTINUOUS
 62
     0
 10
196.029906
 20
208.8187
 30
0.0
 11
196.831691
 21
208.145923
 31
0.0
  0
LINE
  8
0
  6
CONTINUOUS
 62
     0
 10
196.040555
 20
208.82282
 30
0.0
 11
196.831691
 21
208.158977
 31
0.0
  0
LINE
  8
0
  6
CONTINUOUS
 62
     0
 10
196.051203
 20
208.826939
 30
0.0
 11
196.831691
 21
208.172031
 31
0.0
  0
LINE
  8
0
  6
CONTINUOUS
 62
     0
 10
196.061851
 20
208.831058
 30
0.0
 11
196.831691
 21
208.185085
 31
0.0
  0
LINE
  8
0
  6
CONTINUOUS
 62
     0
 10
196.072499
 20
208.835177
 30
0.0
 11
196.831691
 21
208.198139
 31
0.0
  0
LINE
  8
0
  6
CONTINUOUS
 62
     0
 10
196.083148
 20
208.839296
 30
0.0
 11
196.831691
 21
208.211194
 31
0.0
  0
LINE
  8
0
  6
CONTINUOUS
 62
     0
 10
196.093796
 20
208.843415
 30
0.0
 11
196.831691
 21
208.224248
 31
0.0
  0
LINE
  8
0
  6
CONTINUOUS
 62
     0
 10
196.104444
 20
208.847534
 30
0.0
 11
196.831691
 21
208.237302
 31
0.0
  0
LINE
  8
0
  6
CONTINUOUS
 62
     0
 10
196.115092
 20
208.851653
 30
0.0
 11
196.831691
 21
208.250356
 31
0.0
  0
LINE
  8
0
  6
CONTINUOUS
 62
     0
 10
196.125741
 20
208.855772
 30
0.0
 11
196.831691
 21
208.26341
 31
0.0
  0
LINE
  8
0
  6
CONTINUOUS
 62
     0
 10
196.136389
 20
208.859892
 30
0.0
 11
196.831691
 21
208.276464
 31
0.0
  0
LINE
  8
0
  6
CONTINUOUS
 62
     0
 10
196.147037
 20
208.864011
 30
0.0
 11
196.831691
 21
208.289518
 31
0.0
  0
LINE
  8
0
  6
CONTINUOUS
 62
     0
 10
196.157686
 20
208.86813
 30
0.0
 11
196.831691
 21
208.302572
 31
0.0
  0
LINE
  8
0
  6
CONTINUOUS
 62
     0
 10
196.168334
 20
208.872249
 30
0.0
 11
196.831691
 21
208.315626
 31
0.0
  0
LINE
  8
0
  6
CONTINUOUS
 62
     0
 10
196.178982
 20
208.876368
 30
0.0
 11
196.831691
 21
208.32868
 31
0.0
  0
LINE
  8
0
  6
CONTINUOUS
 62
     0
 10
196.18963
 20
208.880487
 30
0.0
 11
196.831691
 21
208.341734
 31
0.0
  0
LINE
  8
0
  6
CONTINUOUS
 62
     0
 10
196.200279
 20
208.884606
 30
0.0
 11
196.831691
 21
208.354788
 31
0.0
  0
LINE
  8
0
  6
CONTINUOUS
 62
     0
 10
196.210927
 20
208.888725
 30
0.0
 11
196.831691
 21
208.367842
 31
0.0
  0
LINE
  8
0
  6
CONTINUOUS
 62
     0
 10
196.221575
 20
208.892844
 30
0.0
 11
196.831691
 21
208.380896
 31
0.0
  0
LINE
  8
0
  6
CONTINUOUS
 62
     0
 10
196.232223
 20
208.896964
 30
0.0
 11
196.831691
 21
208.393951
 31
0.0
  0
LINE
  8
0
  6
CONTINUOUS
 62
     0
 10
196.242872
 20
208.901083
 30
0.0
 11
196.831691
 21
208.407005
 31
0.0
  0
LINE
  8
0
  6
CONTINUOUS
 62
     0
 10
196.25352
 20
208.905202
 30
0.0
 11
196.831691
 21
208.420059
 31
0.0
  0
LINE
  8
0
  6
CONTINUOUS
 62
     0
 10
196.264168
 20
208.909321
 30
0.0
 11
196.831691
 21
208.433113
 31
0.0
  0
LINE
  8
0
  6
CONTINUOUS
 62
     0
 10
196.274817
 20
208.91344
 30
0.0
 11
196.831691
 21
208.446167
 31
0.0
  0
LINE
  8
0
  6
CONTINUOUS
 62
     0
 10
196.285465
 20
208.917559
 30
0.0
 11
196.831691
 21
208.459221
 31
0.0
  0
LINE
  8
0
  6
CONTINUOUS
 62
     0
 10
196.296113
 20
208.921678
 30
0.0
 11
196.831691
 21
208.472275
 31
0.0
  0
LINE
  8
0
  6
CONTINUOUS
 62
     0
 10
196.306761
 20
208.925797
 30
0.0
 11
196.831691
 21
208.485329
 31
0.0
  0
LINE
  8
0
  6
CONTINUOUS
 62
     0
 10
196.31741
 20
208.929916
 30
0.0
 11
196.831691
 21
208.498383
 31
0.0
  0
LINE
  8
0
  6
CONTINUOUS
 62
     0
 10
196.328058
 20
208.934036
 30
0.0
 11
196.831691
 21
208.511437
 31
0.0
  0
LINE
  8
0
  6
CONTINUOUS
 62
     0
 10
196.338706
 20
208.938155
 30
0.0
 11
196.831691
 21
208.524491
 31
0.0
  0
LINE
  8
0
  6
CONTINUOUS
 62
     0
 10
196.349355
 20
208.942274
 30
0.0
 11
196.831691
 21
208.537545
 31
0.0
  0
LINE
  8
0
  6
CONTINUOUS
 62
     0
 10
196.360003
 20
208.946393
 30
0.0
 11
196.831691
 21
208.550599
 31
0.0
  0
LINE
  8
0
  6
CONTINUOUS
 62
     0
 10
196.370651
 20
208.950512
 30
0.0
 11
196.831691
 21
208.563653
 31
0.0
  0
LINE
  8
0
  6
CONTINUOUS
 62
     0
 10
196.381299
 20
208.954631
 30
0.0
 11
196.831691
 21
208.576708
 31
0.0
  0
LINE
  8
0
  6
CONTINUOUS
 62
     0
 10
196.391948
 20
208.95875
 30
0.0
 11
196.831691
 21
208.589762
 31
0.0
  0
LINE
  8
0
  6
CONTINUOUS
 62
     0
 10
196.402596
 20
208.962869
 30
0.0
 11
196.831691
 21
208.602816
 31
0.0
  0
LINE
  8
0
  6
CONTINUOUS
 62
     0
 10
196.413244
 20
208.966988
 30
0.0
 11
196.831691
 21
208.61587
 31
0.0
  0
LINE
  8
0
  6
CONTINUOUS
 62
     0
 10
196.423892
 20
208.971108
 30
0.0
 11
196.831691
 21
208.628924
 31
0.0
  0
LINE
  8
0
  6
CONTINUOUS
 62
     0
 10
196.434541
 20
208.975227
 30
0.0
 11
196.831691
 21
208.641978
 31
0.0
  0
LINE
  8
0
  6
CONTINUOUS
 62
     0
 10
196.445189
 20
208.979346
 30
0.0
 11
196.831691
 21
208.655032
 31
0.0
  0
LINE
  8
0
  6
CONTINUOUS
 62
     0
 10
196.455837
 20
208.983465
 30
0.0
 11
196.831691
 21
208.668086
 31
0.0
  0
LINE
  8
0
  6
CONTINUOUS
 62
     0
 10
196.466486
 20
208.987584
 30
0.0
 11
196.831691
 21
208.68114
 31
0.0
  0
LINE
  8
0
  6
CONTINUOUS
 62
     0
 10
196.477134
 20
208.991703
 30
0.0
 11
196.831691
 21
208.694194
 31
0.0
  0
LINE
  8
0
  6
CONTINUOUS
 62
     0
 10
196.487782
 20
208.995822
 30
0.0
 11
196.831691
 21
208.707248
 31
0.0
  0
LINE
  8
0
  6
CONTINUOUS
 62
     0
 10
196.49843
 20
208.999941
 30
0.0
 11
196.831691
 21
208.720302
 31
0.0
  0
LINE
  8
0
  6
CONTINUOUS
 62
     0
 10
196.509079
 20
209.00406
 30
0.0
 11
196.831691
 21
208.733356
 31
0.0
  0
LINE
  8
0
  6
CONTINUOUS
 62
     0
 10
196.519727
 20
209.00818
 30
0.0
 11
196.831691
 21
208.74641
 31
0.0
  0
LINE
  8
0
  6
CONTINUOUS
 62
     0
 10
196.530375
 20
209.012299
 30
0.0
 11
196.831691
 21
208.759465
 31
0.0
  0
LINE
  8
0
  6
CONTINUOUS
 62
     0
 10
196.541023
 20
209.016418
 30
0.0
 11
196.831691
 21
208.772519
 31
0.0
  0
LINE
  8
0
  6
CONTINUOUS
 62
     0
 10
196.551672
 20
209.020537
 30
0.0
 11
196.831691
 21
208.785573
 31
0.0
  0
LINE
  8
0
  6
CONTINUOUS
 62
     0
 10
196.56232
 20
209.024656
 30
0.0
 11
196.831691
 21
208.798627
 31
0.0
  0
LINE
  8
0
  6
CONTINUOUS
 62
     0
 10
196.572968
 20
209.028775
 30
0.0
 11
196.831691
 21
208.811681
 31
0.0
  0
LINE
  8
0
  6
CONTINUOUS
 62
     0
 10
196.583617
 20
209.032894
 30
0.0
 11
196.831691
 21
208.824735
 31
0.0
  0
LINE
  8
0
  6
CONTINUOUS
 62
     0
 10
196.594265
 20
209.037013
 30
0.0
 11
196.831691
 21
208.837789
 31
0.0
  0
LINE
  8
0
  6
CONTINUOUS
 62
     0
 10
196.604913
 20
209.041132
 30
0.0
 11
196.831691
 21
208.850843
 31
0.0
  0
LINE
  8
0
  6
CONTINUOUS
 62
     0
 10
196.615561
 20
209.045251
 30
0.0
 11
196.831691
 21
208.863897
 31
0.0
  0
LINE
  8
0
  6
CONTINUOUS
 62
     0
 10
196.62621
 20
209.049371
 30
0.0
 11
196.831691
 21
208.876951
 31
0.0
  0
LINE
  8
0
  6
CONTINUOUS
 62
     0
 10
196.636858
 20
209.05349
 30
0.0
 11
196.831691
 21
208.890005
 31
0.0
  0
LINE
  8
0
  6
CONTINUOUS
 62
     0
 10
196.647506
 20
209.057609
 30
0.0
 11
196.831691
 21
208.903059
 31
0.0
  0
LINE
  8
0
  6
CONTINUOUS
 62
     0
 10
196.658155
 20
209.061728
 30
0.0
 11
196.831691
 21
208.916113
 31
0.0
  0
LINE
  8
0
  6
CONTINUOUS
 62
     0
 10
196.668803
 20
209.065847
 30
0.0
 11
196.831691
 21
208.929168
 31
0.0
  0
LINE
  8
0
  6
CONTINUOUS
 62
     0
 10
196.679451
 20
209.069966
 30
0.0
 11
196.831691
 21
208.942222
 31
0.0
  0
LINE
  8
0
  6
CONTINUOUS
 62
     0
 10
196.690099
 20
209.074085
 30
0.0
 11
196.831691
 21
208.955276
 31
0.0
  0
LINE
  8
0
  6
CONTINUOUS
 62
     0
 10
196.700748
 20
209.078204
 30
0.0
 11
196.831691
 21
208.96833
 31
0.0
  0
LINE
  8
0
  6
CONTINUOUS
 62
     0
 10
196.711396
 20
209.082323
 30
0.0
 11
196.831691
 21
208.981384
 31
0.0
  0
LINE
  8
0
  6
CONTINUOUS
 62
     0
 10
196.722044
 20
209.086443
 30
0.0
 11
196.831691
 21
208.994438
 31
0.0
  0
LINE
  8
0
  6
CONTINUOUS
 62
     0
 10
196.732692
 20
209.090562
 30
0.0
 11
196.831691
 21
209.007492
 31
0.0
  0
LINE
  8
0
  6
CONTINUOUS
 62
     0
 10
196.743341
 20
209.094681
 30
0.0
 11
196.831691
 21
209.020546
 31
0.0
  0
LINE
  8
0
  6
CONTINUOUS
 62
     0
 10
196.753989
 20
209.0988
 30
0.0
 11
196.831691
 21
209.0336
 31
0.0
  0
LINE
  8
0
  6
CONTINUOUS
 62
     0
 10
196.764637
 20
209.102919
 30
0.0
 11
196.831691
 21
209.046654
 31
0.0
  0
LINE
  8
0
  6
CONTINUOUS
 62
     0
 10
196.775286
 20
209.107038
 30
0.0
 11
196.831691
 21
209.059708
 31
0.0
  0
LINE
  8
0
  6
CONTINUOUS
 62
     0
 10
196.785934
 20
209.111157
 30
0.0
 11
196.831691
 21
209.072762
 31
0.0
  0
LINE
  8
0
  6
CONTINUOUS
 62
     0
 10
196.796582
 20
209.115276
 30
0.0
 11
196.831691
 21
209.085816
 31
0.0
  0
LINE
  8
0
  6
CONTINUOUS
 62
     0
 10
196.80723
 20
209.119395
 30
0.0
 11
196.831691
 21
209.09887
 31
0.0
  0
LINE
  8
0
  6
CONTINUOUS
 62
     0
 10
196.817879
 20
209.123515
 30
0.0
 11
196.831691
 21
209.111925
 31
0.0
  0
LINE
  8
0
  6
CONTINUOUS
 62
     0
 10
196.828527
 20
209.127634
 30
0.0
 11
196.831691
 21
209.124979
 31
0.0
  0
ENDBLK
  8
0
  0
BLOCK
  8
0
  2
B155
 70
    64
 10
0.0
 20
0.0
 30
0.0
  3
B155
  0
LINE
  8
0
  6
CONTINUOUS
 10
0.0
 20
0.0
 30
0.0
 11
0.0
 21
-1.35427
 31
0.0
  0
LINE
  8
0
  6
CONTINUOUS
 10
-1.210228
 20
-1.35427
 30
0.0
 11
-0.015887
 21
-1.35427
 31
0.0
  0
LINE
  8
0
  6
CONTINUOUS
 10
-0.015887
 20
-1.35427
 30
0.0
 11
1.178454
 21
-1.35427
 31
0.0
  0
LINE
  8
0
  6
CONTINUOUS
 10
-0.831823
 20
-1.833881
 30
0.0
 11
0.752749
 21
-1.833881
 31
0.0
  0
LINE
  8
0
  6
CONTINUOUS
 10
-0.500718
 20
-2.322055
 30
0.0
 11
0.386169
 21
-2.322055
 31
0.0
  0
ENDBLK
  8
0
  0
BLOCK
  8
0
  2
P1
 70
     0
 10
0.0
 20
0.0
 30
0.0
  3
P1
  0
LINE
  8
BASE
  6
CONTINUOUS
 10
4.212288
 20
0.845279
 30
0.0
 11
4.212288
 21
-0.942853
 31
0.0
  0
LINE
  8
BASE
  6
CONTINUOUS
 10
1.258175
 20
2.198163
 30
0.0
 11
2.158852
 21
1.074414
 31
0.0
  0
LINE
  8
BASE
  6
CONTINUOUS
 10
-1.187232
 20
-1.167603
 30
0.0
 11
1.688879
 21
1.660956
 31
0.0
  0
LINE
  8
BASE
  6
CONTINUOUS
 10
-3.571376
 20
0.0
 30
0.0
 11
4.216829
 21
0.0
 31
0.0
  0
LINE
  8
BASE
  6
CONTINUOUS
 10
-3.602408
 20
0.845279
 30
0.0
 11
-3.602408
 21
-0.942853
 31
0.0
  0
ENDBLK
  8
0
  0
BLOCK
  8
0
  2
B22
 70
     0
 10
0.0
 20
0.0
 30
0.0
  3
B22
  0
CIRCLE
  8
BASE
  6
CONTINUOUS
 10
-2.949561
 20
-1.638589
 30
0.0
 40
0.705054
  0
CIRCLE
  8
BASE
  6
CONTINUOUS
 10
-2.949561
 20
-1.638589
 30
0.0
 40
1.252595
  0
LINE
  8
BASE
  6
CONTINUOUS
 10
-10.000117
 20
0.000025
 30
0.0
 11
0.011081
 21
0.000025
 31
0.0
  0
LINE
  8
BASE
  6
CONTINUOUS
 10
-27.5
 20
-0.008493
 30
0.0
 11
-17.5
 21
-0.008493
 31
0.0
  0
LINE
  8
BASE
  6
CONTINUOUS
 10
-11.481965
 20
-0.006589
 30
0.0
 11
-18.162841
 21
2.434804
 31
0.0
  0
LINE
  8
BASE
  6
CONTINUOUS
 10
-17.5
 20
-0.008493
 30
0.0
 11
-17.5
 21
2.765661
 31
0.0
  0
LINE
  8
BASE
  6
CONTINUOUS
 10
-18.162841
 20
2.434804
 30
0.0
 11
-18.607734
 21
1.549106
 31
0.0
  0
CIRCLE
  8
BASE
  6
CONTINUOUS
 10
-10.741055
 20
0.0
 30
0.0
 40
0.740939
  0
ENDBLK
  8
0
  0
BLOCK
  8
0
  2
B37
 70
     0
 10
0.0
 20
0.0
 30
0.0
  3
B37
  0
LINE
  8
BASE
  6
CONTINUOUS
 10
-0.006589
 20
-6.018035
 30
0.0
 11
2.434804
 21
0.662841
 31
0.0
  0
LINE
  8
BASE
  6
CONTINUOUS
 10
0.0
 20
0.0
 30
0.0
 11
2.765661
 21
0.0
 31
0.0
  0
LINE
  8
BASE
  6
CONTINUOUS
 10
2.434804
 20
0.662841
 30
0.0
 11
1.549106
 21
1.107734
 31
0.0
  0
CIRCLE
  8
BASE
  6
CONTINUOUS
 10
0.0
 20
-6.758945
 30
0.0
 40
0.740939
  0
ENDBLK
  8
0
  0
BLOCK
  8
0
  2
B204
 70
     0
 10
0.0
 20
0.0
 30
0.0
  3
B204
  0
TEXT
  8
BASE
  6
CONTINUOUS
 10
-5.818294
 20
-13.161989
 30
0.0
 40
2.0
  1
12A
  0
TEXT
  8
BASE
  6
CONTINUOUS
 10
-5.818294
 20
-3.442734
 30
0.0
 40
2.0
  1
11A
  0
LINE
  8
BASE
  6
CONTINUOUS
 10
-5.0
 20
-10.0
 30
0.0
 11
0.0
 21
-10.0
 31
0.0
  0
LINE
  8
BASE
  6
CONTINUOUS
 10
-20.0
 20
-10.017028
 30
0.0
 11
-10.0
 21
-10.017028
 31
0.0
  0
LINE
  8
BASE
  6
CONTINUOUS
 10
-10.0
 20
-10.017028
 30
0.0
 11
-10.0
 21
-7.234339
 31
0.0
  0
LINE
  8
BASE
  6
CONTINUOUS
 10
-10.897173
 20
-7.565196
 30
0.0
 11
-11.342066
 21
-8.450894
 31
0.0
  0
LINE
  8
BASE
  6
CONTINUOUS
 10
-10.897173
 20
-7.565196
 30
0.0
 11
-5.0
 21
-10.0
 31
0.0
  0
LINE
  8
BASE
  6
CONTINUOUS
 10
-10.897173
 20
2.434804
 30
0.0
 11
-5.0
 21
0.0
 31
0.0
  0
LINE
  8
BASE
  6
CONTINUOUS
 10
-10.897173
 20
2.434804
 30
0.0
 11
-11.342066
 21
1.549106
 31
0.0
  0
LINE
  8
BASE
  6
CONTINUOUS
 10
-10.0
 20
-0.017028
 30
0.0
 11
-10.0
 21
2.765661
 31
0.0
  0
LINE
  8
BASE
  6
CONTINUOUS
 10
-20.0
 20
-0.017028
 30
0.0
 11
-10.0
 21
-0.017028
 31
0.0
  0
LINE
  8
BASE
  6
CONTINUOUS
 10
-5.0
 20
0.0
 30
0.0
 11
0.0
 21
0.0
 31
0.0
  0
ENDBLK
  8
0
  0
BLOCK
  8
0
  2
BK
 70
     0
 10
0.0
 20
0.0
 30
0.0
  3
BK
  0
TEXT
  8
0
  6
DASHED
 10
0.0
 20
0.374693
 30
0.0
 40
2.0
  1
REDRAW WITH AUTOCAD               / RITU Power
  0
ENDBLK
  8
0
  0
ENDSEC
  0
SECTION
  2
ENTITIES
  0
INSERT
  8
0
  2
1
 10
65.405438
 20
98.713066
 30
0.0
  0
INSERT
  8
0
  2
1
 10
72.541652
 20
49.71056
 30
0.0
  0
INSERT
  8
0
  2
1
 10
85.390443
 20
73.497234
 30
0.0
  0
LINE
  8
0
  6
CENTER
 62
   249
 10
252.5
 20
247.5
 30
0.0
 11
252.5
 21
80.0
 31
0.0
  0
LINE
  8
0
  6
CONTINUOUS
 62
   249
 10
227.5
 20
95.0
 30
0.0
 11
237.5
 21
95.0
 31
0.0
  0
LINE
  8
0
  6
CONTINUOUS
 62
   249
 10
227.5
 20
95.0
 30
0.0
 11
230.0
 21
97.5
 31
0.0
  0
LINE
  8
0
  6
CONTINUOUS
 62
   249
 10
232.5
 20
95.0
 30
0.0
 11
235.0
 21
97.5
 31
0.0
  0
LINE
  8
0
  6
CONTINUOUS
 62
   249
 10
237.5
 20
95.0
 30
0.0
 11
240.0
 21
97.5
 31
0.0
  0
LINE
  8
0
  6
CONTINUOUS
 62
   249
 10
232.5
 20
95.0
 30
0.0
 11
232.5
 21
80.0
 31
0.0
  0
LINE
  8
0
  6
CONTINUOUS
 62
   249
 10
220.0
 20
97.5
 30
0.0
 11
220.0
 21
80.0
 31
0.0
  0
LINE
  8
0
  6
CONTINUOUS
 62
   249
 10
215.0
 20
97.5
 30
0.0
 11
215.0
 21
80.0
 31
0.0
  0
LINE
  8
0
  6
CENTER
 62
   249
 10
52.5
 20
247.5
 30
0.0
 11
52.5
 21
80.0
 31
0.0
  0
TEXT
  8
0
  6
DASHED
 62
   249
 10
73.197373
 20
150.903492
 30
0.0
 40
2.0
  1
A
  0
TEXT
  8
0
  6
DASHED
 62
   249
 10
91.643373
 20
141.274588
 30
0.0
 40
2.0
  1
B
  0
TEXT
  8
0
  6
DASHED
 62
   249
 10
101.055109
 20
130.634364
 30
0.0
 40
2.0
  1
C
  0
TEXT
  8
0
  6
DASHED
 62
   249
 10
110.984014
 20
120.755752
 30
0.0
 40
2.0
  1
D
  0
TEXT
  8
0
  6
DASHED
 62
   249
 10
120.671573
 20
110.864654
 30
0.0
 40
2.0
  1
E
  0
LINE
  8
0
  6
CENTER
 62
   249
 10
52.5
 20
80.0
 30
0.0
 11
252.5
 21
80.0
 31
0.0
  0
LINE
  8
0
  6
CONTINUOUS
 62
   249
 10
170.0
 20
90.0
 30
0.0
 11
170.0
 21
80.0
 31
0.0
  0
LINE
  8
0
  6
CONTINUOUS
 62
   249
 10
195.0
 20
140.0
 30
0.0
 11
195.0
 21
80.0
 31
0.0
  0
LINE
  8
0
  6
CENTER
 62
   249
 10
252.5
 20
247.5
 30
0.0
 11
52.5
 21
247.5
 31
0.0
  0
LINE
  8
0
  6
CONTINUOUS
 62
   249
 10
117.5
 20
165.0
 30
0.0
 11
117.5
 21
160.0
 31
0.0
  0
LINE
  8
0
  6
CONTINUOUS
 62
   249
 10
97.5
 20
165.0
 30
0.0
 11
97.5
 21
160.0
 31
0.0
  0
LINE
  8
0
  6
CONTINUOUS
 62
   249
 10
85.0
 20
150.0
 30
0.0
 11
200.0
 21
150.0
 31
0.0
  0
LINE
  8
0
  6
CONTINUOUS
 62
   249
 10
173.01266
 20
172.5
 30
0.0
 11
152.5
 21
172.5
 31
0.0
  0
LINE
  8
0
  6
DASHED
 62
   249
 10
127.5
 20
160.0
 30
0.0
 11
127.5
 21
108.600824
 31
0.0
  0
LINE
  8
0
  6
DASHED
 62
   249
 10
117.5
 20
160.0
 30
0.0
 11
117.5
 21
118.600824
 31
0.0
  0
LINE
  8
0
  6
DASHED
 62
   249
 10
107.5
 20
160.0
 30
0.0
 11
107.5
 21
128.600824
 31
0.0
  0
LINE
  8
0
  6
DASHED
 62
   249
 10
97.5
 20
160.0
 30
0.0
 11
97.5
 21
138.600824
 31
0.0
  0
LINE
  8
0
  6
DASHED
 62
   249
 10
77.5
 20
160.0
 30
0.0
 11
77.5
 21
148.600824
 31
0.0
  0
TEXT
  8
0
  6
CONTINUOUS
 62
   249
 10
56.409343
 20
174.240907
 30
0.0
 40
2.0
  1
SGR
  0
LINE
  8
0
  6
CONTINUOUS
 62
   249
 10
232.5
 20
185.0
 30
0.0
 11
232.5
 21
165.0
 31
0.0
  0
LINE
  8
0
  6
CONTINUOUS
 62
   249
 10
232.5
 20
215.0
 30
0.0
 11
232.5
 21
185.0
 31
0.0
  0
LINE
  8
0
  6
CONTINUOUS
 62
   249
 10
232.5
 20
215.0
 30
0.0
 11
233.5
 21
216.0
 31
0.0
  0
LINE
  8
0
  6
CONTINUOUS
 62
   249
 10
232.5
 20
165.0
 30
0.0
 11
233.5
 21
164.0
 31
0.0
  0
LINE
  8
0
  6
CONTINUOUS
 62
   249
 10
252.5
 20
182.5
 30
0.0
 11
252.5
 21
182.5
 31
0.0
  0
LINE
  8
0
  6
CONTINUOUS
 62
   249
 10
62.5
 20
162.5
 30
0.0
 11
92.5
 21
162.5
 31
0.0
  0
LINE
  8
0
  6
CONTINUOUS
 62
   249
 10
62.5
 20
170.0
 30
0.0
 11
62.5
 21
162.5
 31
0.0
  0
LINE
  8
0
  6
CONTINUOUS
 62
   249
 10
92.5
 20
170.0
 30
0.0
 11
92.5
 21
162.5
 31
0.0
  0
LINE
  8
0
  6
CONTINUOUS
 62
   249
 10
92.5
 20
170.0
 30
0.0
 11
62.5
 21
170.0
 31
0.0
  0
LINE
  8
0
  6
CONTINUOUS
 62
   249
 10
76.448723
 20
166.049601
 30
0.0
 11
74.102957
 21
164.859682
 31
0.0
  0
LINE
  8
0
  6
CONTINUOUS
 62
   249
 10
74.094915
 20
164.059668
 30
0.0
 11
76.478376
 21
165.24786
 31
0.0
  0
LINE
  8
0
  6
CONTINUOUS
 62
   249
 10
74.102957
 20
167.384954
 30
0.0
 11
76.448723
 21
166.049601
 31
0.0
  0
TEXT
  8
0
  6
CONTINUOUS
 62
   249
 10
78.536819
 20
164.724861
 30
0.0
 40
2.5
  1
1
 11
78.536819
 21
163.891527
 31
0.0
 73
     1
  0
LINE
  8
0
  6
CONTINUOUS
 62
   249
 10
75.0
 20
172.5
 30
0.0
 11
73.718969
 21
177.664082
 31
0.0
  0
LINE
  8
0
  6
CONTINUOUS
 62
   249
 10
75.0
 20
172.5
 30
0.0
 11
75.0
 21
170.0
 31
0.0
  0
LINE
  8
0
  6
CONTINUOUS
 62
   249
 10
70.0
 20
172.5
 30
0.0
 11
70.0
 21
170.0
 31
0.0
  0
LINE
  8
0
  6
CONTINUOUS
 62
   249
 10
70.0
 20
172.5
 30
0.0
 11
68.718969
 21
177.664082
 31
0.0
  0
LINE
  8
0
  6
CONTINUOUS
 62
   249
 10
65.0
 20
172.5
 30
0.0
 11
63.718969
 21
177.664082
 31
0.0
  0
LINE
  8
0
  6
CONTINUOUS
 62
   249
 10
65.0
 20
172.5
 30
0.0
 11
65.0
 21
170.0
 31
0.0
  0
LINE
  8
0
  6
CONTINUOUS
 62
   249
 10
80.0
 20
172.5
 30
0.0
 11
80.0
 21
170.0
 31
0.0
  0
LINE
  8
0
  6
CONTINUOUS
 62
   249
 10
80.0
 20
172.5
 30
0.0
 11
78.718969
 21
177.664082
 31
0.0
  0
LINE
  8
0
  6
CONTINUOUS
 62
   249
 10
85.0
 20
172.5
 30
0.0
 11
83.718969
 21
177.664082
 31
0.0
  0
LINE
  8
0
  6
CONTINUOUS
 62
   249
 10
85.0
 20
172.5
 30
0.0
 11
85.0
 21
170.0
 31
0.0
  0
LINE
  8
0
  6
CONTINUOUS
 62
   249
 10
90.0
 20
172.5
 30
0.0
 11
90.0
 21
170.0
 31
0.0
  0
LINE
  8
0
  6
CONTINUOUS
 62
   249
 10
90.0
 20
172.5
 30
0.0
 11
88.718969
 21
177.664082
 31
0.0
  0
LINE
  8
0
  6
CONTINUOUS
 62
   249
 10
77.5
 20
162.5
 30
0.0
 11
77.5
 21
160.0
 31
0.0
  0
LINE
  8
0
  6
CONTINUOUS
 62
   249
 10
130.0
 20
100.0
 30
0.0
 11
135.0
 21
100.0
 31
0.0
  0
LINE
  8
0
  6
CONTINUOUS
 62
   249
 10
140.0
 20
100.0
 30
0.0
 11
134.256076
 21
96.785297
 31
0.0
  0
LINE
  8
0
  6
CONTINUOUS
 62
   249
 10
140.0
 20
100.0
 30
0.0
 11
145.0
 21
100.0
 31
0.0
  0
LINE
  8
0
  6
CONTINUOUS
 62
   249
 10
135.0
 20
95.0
 30
0.0
 11
135.0
 21
97.5
 31
0.0
  0
LINE
  8
0
  6
CONTINUOUS
 62
   249
 10
135.0
 20
95.0
 30
0.0
 11
130.0
 21
95.0
 31
0.0
  0
TEXT
  8
0
  6
DASHED
 62
   249
 10
133.566284
 20
100.736332
 30
0.0
 40
2.0
  1
F
  0
LINE
  8
0
  6
DASHED
 62
   249
 10
137.5
 20
160.0
 30
0.0
 11
137.5
 21
98.600824
 31
0.0
  0
LINE
  8
0
  6
CONTINUOUS
 62
   249
 10
70.0
 20
145.0
 30
0.0
 11
52.5
 21
145.0
 31
0.0
  0
LINE
  8
0
  6
CONTINUOUS
 62
   249
 10
70.0
 20
150.0
 30
0.0
 11
52.5
 21
150.0
 31
0.0
  0
LINE
  8
0
  6
CONTINUOUS
 62
   249
 10
135.0
 20
172.5
 30
0.0
 11
133.718969
 21
177.664082
 31
0.0
  0
LINE
  8
0
  6
CONTINUOUS
 62
   249
 10
140.0
 20
172.5
 30
0.0
 11
138.718969
 21
177.664082
 31
0.0
  0
LINE
  8
0
  6
CONTINUOUS
 62
   249
 10
140.0
 20
172.5
 30
0.0
 11
140.0
 21
170.0
 31
0.0
  0
LINE
  8
0
  6
CONTINUOUS
 62
   249
 10
135.0
 20
172.5
 30
0.0
 11
135.0
 21
170.0
 31
0.0
  0
LINE
  8
0
  6
CONTINUOUS
 62
   249
 10
132.5
 20
170.0
 30
0.0
 11
142.5
 21
170.0
 31
0.0
  0
LINE
  8
0
  6
CONTINUOUS
 62
   249
 10
142.5
 20
170.0
 30
0.0
 11
142.5
 21
162.5
 31
0.0
  0
LINE
  8
0
  6
CONTINUOUS
 62
   249
 10
142.5
 20
162.5
 30
0.0
 11
132.5
 21
162.5
 31
0.0
  0
LINE
  8
0
  6
CONTINUOUS
 62
   249
 10
132.5
 20
162.5
 30
0.0
 11
132.5
 21
170.0
 31
0.0
  0
TEXT
  8
0
  6
CONTINUOUS
 62
   249
 10
139.130246
 20
164.724861
 30
0.0
 40
2.5
  1
1
 11
139.130246
 21
163.891527
 31
0.0
 73
     1
  0
LINE
  8
0
  6
CONTINUOUS
 62
   249
 10
134.696384
 20
167.384954
 30
0.0
 11
137.04215
 21
166.049601
 31
0.0
  0
LINE
  8
0
  6
CONTINUOUS
 62
   249
 10
134.688342
 20
164.059668
 30
0.0
 11
137.071803
 21
165.24786
 31
0.0
  0
LINE
  8
0
  6
CONTINUOUS
 62
   249
 10
137.04215
 20
166.049601
 30
0.0
 11
134.696384
 21
164.859682
 31
0.0
  0
LINE
  8
0
  6
CONTINUOUS
 62
   249
 10
137.5
 20
160.0
 30
0.0
 11
137.5
 21
162.5
 31
0.0
  0
LINE
  8
0
  6
CONTINUOUS
 62
   249
 10
65.0
 20
177.5
 30
0.0
 11
65.0
 21
230.858787
 31
0.0
  0
LINE
  8
0
  6
CONTINUOUS
 62
   249
 10
175.0
 20
230.858787
 30
0.0
 11
65.0
 21
230.858787
 31
0.0
  0
LINE
  8
0
  6
CONTINUOUS
 62
   249
 10
175.0
 20
218.799022
 30
0.0
 11
70.0
 21
218.799022
 31
0.0
  0
LINE
  8
0
  6
CONTINUOUS
 62
   249
 10
70.0
 20
177.5
 30
0.0
 11
70.0
 21
218.799022
 31
0.0
  0
LINE
  8
0
  6
CONTINUOUS
 62
   249
 10
75.0
 20
177.5
 30
0.0
 11
75.0
 21
210.0
 31
0.0
  0
LINE
  8
0
  6
CONTINUOUS
 62
   249
 10
75.0
 20
210.0
 30
0.0
 11
175.0
 21
210.0
 31
0.0
  0
LINE
  8
0
  6
CONTINUOUS
 62
   249
 10
175.0
 20
200.0
 30
0.0
 11
80.0
 21
200.0
 31
0.0
  0
LINE
  8
0
  6
CONTINUOUS
 62
   249
 10
80.0
 20
200.0
 30
0.0
 11
80.0
 21
177.5
 31
0.0
  0
LINE
  8
0
  6
CONTINUOUS
 62
   249
 10
175.0
 20
190.0
 30
0.0
 11
85.0
 21
190.0
 31
0.0
  0
LINE
  8
0
  6
CONTINUOUS
 62
   249
 10
85.0
 20
190.0
 30
0.0
 11
85.0
 21
177.5
 31
0.0
  0
LINE
  8
0
  6
CONTINUOUS
 62
   249
 10
90.0
 20
177.5
 30
0.0
 11
90.0
 21
180.0
 31
0.0
  0
LINE
  8
0
  6
CONTINUOUS
 62
   249
 10
90.0
 20
180.0
 30
0.0
 11
175.0
 21
180.0
 31
0.0
  0
LINE
  8
0
  6
CONTINUOUS
 62
   249
 10
97.5
 20
165.0
 30
0.0
 11
97.5
 21
200.0
 31
0.0
  0
LINE
  8
0
  6
CONTINUOUS
 62
   249
 10
107.5
 20
160.0
 30
0.0
 11
107.5
 21
210.0
 31
0.0
  0
LINE
  8
0
  6
CONTINUOUS
 62
   249
 10
117.5
 20
165.0
 30
0.0
 11
117.5
 21
230.858787
 31
0.0
  0
LINE
  8
0
  6
CONTINUOUS
 62
   249
 10
127.5
 20
160.0
 30
0.0
 11
127.5
 21
218.799022
 31
0.0
  0
LINE
  8
0
  6
CONTINUOUS
 62
   249
 10
140.0
 20
177.5
 30
0.0
 11
140.0
 21
180.0
 31
0.0
  0
LINE
  8
0
  6
CONTINUOUS
 62
   249
 10
135.0
 20
177.5
 30
0.0
 11
135.0
 21
190.0
 31
0.0
  0
TEXT
  8
0
  6
CONTINUOUS
 62
   249
 10
144.456485
 20
174.240907
 30
0.0
 40
2.0
  1
SGR
  0
TEXT
  8
0
  6
CONTINUOUS
 62
   249
 10
66.434621
 20
175.0
 30
0.0
 40
2.0
  1
1
  0
TEXT
  8
0
  6
CONTINUOUS
 62
   249
 10
71.434621
 20
175.0
 30
0.0
 40
2.0
  1
2
  0
TEXT
  8
0
  6
CONTINUOUS
 62
   249
 10
76.434621
 20
175.0
 30
0.0
 40
2.0
  1
3
  0
TEXT
  8
0
  6
CONTINUOUS
 62
   249
 10
81.434621
 20
175.0
 30
0.0
 40
2.0
  1
4
  0
TEXT
  8
0
  6
CONTINUOUS
 62
   249
 10
86.434621
 20
175.0
 30
0.0
 40
2.0
  1
5
  0
TEXT
  8
0
  6
CONTINUOUS
 62
   249
 10
91.434621
 20
175.0
 30
0.0
 40
2.0
  1
6
  0
TEXT
  8
0
  6
CONTINUOUS
 62
   249
 10
136.145852
 20
175.0
 30
0.0
 40
2.0
  1
7
  0
TEXT
  8
0
  6
CONTINUOUS
 62
   249
 10
141.145852
 20
175.0
 30
0.0
 40
2.0
  1
8
  0
LINE
  8
0
  6
CONTINUOUS
 62
   249
 10
90.0
 20
140.0
 30
0.0
 11
52.5
 21
140.0
 31
0.0
  0
LINE
  8
0
  6
CONTINUOUS
 62
   249
 10
90.0
 20
135.0
 30
0.0
 11
52.5
 21
135.0
 31
0.0
  0
LINE
  8
0
  6
CONTINUOUS
 62
   249
 10
100.0
 20
130.0
 30
0.0
 11
52.5
 21
130.0
 31
0.0
  0
LINE
  8
0
  6
CONTINUOUS
 62
   249
 10
100.0
 20
125.0
 30
0.0
 11
52.5
 21
125.0
 31
0.0
  0
LINE
  8
0
  6
CONTINUOUS
 62
   249
 10
110.0
 20
120.0
 30
0.0
 11
52.5
 21
120.0
 31
0.0
  0
LINE
  8
0
  6
CONTINUOUS
 62
   249
 10
110.0
 20
115.0
 30
0.0
 11
52.5
 21
115.0
 31
0.0
  0
LINE
  8
0
  6
CONTINUOUS
 62
   249
 10
120.0
 20
110.0
 30
0.0
 11
52.5
 21
110.0
 31
0.0
  0
LINE
  8
0
  6
CONTINUOUS
 62
   249
 10
120.0
 20
105.0
 30
0.0
 11
52.5
 21
105.0
 31
0.0
  0
LINE
  8
0
  6
CONTINUOUS
 62
   249
 10
130.0
 20
100.0
 30
0.0
 11
52.5
 21
100.0
 31
0.0
  0
LINE
  8
0
  6
CONTINUOUS
 62
   249
 10
130.0
 20
95.0
 30
0.0
 11
52.5
 21
95.0
 31
0.0
  0
LINE
  8
0
  6
CONTINUOUS
 62
   249
 10
145.0
 20
90.0
 30
0.0
 11
52.5
 21
90.0
 31
0.0
  0
LINE
  8
0
  6
CONTINUOUS
 62
   249
 10
145.0
 20
85.0
 30
0.0
 11
52.5
 21
85.0
 31
0.0
  0
TEXT
  8
0
  6
CONTINUOUS
 62
   249
 10
146.779625
 20
90.829936
 30
0.0
 40
2.0
  1
G
  0
LINE
  8
0
  6
DASHED
 62
   249
 10
152.5
 20
160.0
 30
0.0
 11
152.5
 21
88.600824
 31
0.0
  0
LINE
  8
0
  6
CONTINUOUS
 62
   249
 10
145.0
 20
90.0
 30
0.0
 11
150.0
 21
90.0
 31
0.0
  0
LINE
  8
0
  6
CONTINUOUS
 62
   249
 10
150.0
 20
85.0
 30
0.0
 11
145.0
 21
85.0
 31
0.0
  0
LINE
  8
0
  6
CONTINUOUS
 62
   249
 10
150.0
 20
85.0
 30
0.0
 11
150.0
 21
87.5
 31
0.0
  0
LINE
  8
0
  6
CONTINUOUS
 62
   249
 10
155.0
 20
90.0
 30
0.0
 11
170.0
 21
90.0
 31
0.0
  0
LINE
  8
0
  6
CONTINUOUS
 62
   249
 10
155.0
 20
90.0
 30
0.0
 11
149.256076
 21
86.785297
 31
0.0
  0
LINE
  8
0
  6
CONTINUOUS
 62
   249
 10
120.0
 20
110.0
 30
0.0
 11
125.0
 21
110.0
 31
0.0
  0
LINE
  8
0
  6
CONTINUOUS
 62
   249
 10
125.0
 20
105.0
 30
0.0
 11
120.0
 21
105.0
 31
0.0
  0
LINE
  8
0
  6
CONTINUOUS
 62
   249
 10
125.0
 20
105.0
 30
0.0
 11
125.0
 21
107.5
 31
0.0
  0
LINE
  8
0
  6
CONTINUOUS
 62
   249
 10
130.0
 20
110.0
 30
0.0
 11
135.0
 21
110.0
 31
0.0
  0
LINE
  8
0
  6
CONTINUOUS
 62
   249
 10
130.0
 20
110.0
 30
0.0
 11
124.256076
 21
106.785297
 31
0.0
  0
LINE
  8
0
  6
CONTINUOUS
 62
   249
 10
110.0
 20
120.0
 30
0.0
 11
115.0
 21
120.0
 31
0.0
  0
LINE
  8
0
  6
CONTINUOUS
 62
   249
 10
115.0
 20
115.0
 30
0.0
 11
110.0
 21
115.0
 31
0.0
  0
LINE
  8
0
  6
CONTINUOUS
 62
   249
 10
115.0
 20
115.0
 30
0.0
 11
115.0
 21
117.5
 31
0.0
  0
LINE
  8
0
  6
CONTINUOUS
 62
   249
 10
120.0
 20
120.0
 30
0.0
 11
125.0
 21
120.0
 31
0.0
  0
LINE
  8
0
  6
CONTINUOUS
 62
   249
 10
120.0
 20
120.0
 30
0.0
 11
114.256076
 21
116.785297
 31
0.0
  0
LINE
  8
0
  6
CONTINUOUS
 62
   249
 10
100.0
 20
130.0
 30
0.0
 11
105.0
 21
130.0
 31
0.0
  0
LINE
  8
0
  6
CONTINUOUS
 62
   249
 10
105.0
 20
125.0
 30
0.0
 11
100.0
 21
125.0
 31
0.0
  0
LINE
  8
0
  6
CONTINUOUS
 62
   249
 10
105.0
 20
125.0
 30
0.0
 11
105.0
 21
127.5
 31
0.0
  0
LINE
  8
0
  6
CONTINUOUS
 62
   249
 10
110.0
 20
130.0
 30
0.0
 11
115.0
 21
130.0
 31
0.0
  0
LINE
  8
0
  6
CONTINUOUS
 62
   249
 10
110.0
 20
130.0
 30
0.0
 11
104.256076
 21
126.785297
 31
0.0
  0
LINE
  8
0
  6
CONTINUOUS
 62
   249
 10
90.0
 20
140.0
 30
0.0
 11
95.0
 21
140.0
 31
0.0
  0
LINE
  8
0
  6
CONTINUOUS
 62
   249
 10
95.0
 20
135.0
 30
0.0
 11
90.0
 21
135.0
 31
0.0
  0
LINE
  8
0
  6
CONTINUOUS
 62
   249
 10
95.0
 20
135.0
 30
0.0
 11
95.0
 21
137.5
 31
0.0
  0
LINE
  8
0
  6
CONTINUOUS
 62
   249
 10
100.0
 20
140.0
 30
0.0
 11
105.0
 21
140.0
 31
0.0
  0
LINE
  8
0
  6
CONTINUOUS
 62
   249
 10
100.0
 20
140.0
 30
0.0
 11
94.256076
 21
136.785297
 31
0.0
  0
LINE
  8
0
  6
CONTINUOUS
 62
   249
 10
70.0
 20
150.0
 30
0.0
 11
75.0
 21
150.0
 31
0.0
  0
LINE
  8
0
  6
CONTINUOUS
 62
   249
 10
75.0
 20
145.0
 30
0.0
 11
70.0
 21
145.0
 31
0.0
  0
LINE
  8
0
  6
CONTINUOUS
 62
   249
 10
75.0
 20
145.0
 30
0.0
 11
75.0
 21
147.5
 31
0.0
  0
LINE
  8
0
  6
CONTINUOUS
 62
   249
 10
80.0
 20
150.0
 30
0.0
 11
85.0
 21
150.0
 31
0.0
  0
LINE
  8
0
  6
CONTINUOUS
 62
   249
 10
80.0
 20
150.0
 30
0.0
 11
74.256076
 21
146.785297
 31
0.0
  0
LINE
  8
0
  6
CONTINUOUS
 62
   249
 10
152.5
 20
160.0
 30
0.0
 11
152.5
 21
172.5
 31
0.0
  0
LINE
  8
0
  6
CONTINUOUS
 62
   249
 10
105.0
 20
140.0
 30
0.0
 11
195.0
 21
140.0
 31
0.0
  0
LINE
  8
0
  6
CONTINUOUS
 62
   249
 10
115.0
 20
130.0
 30
0.0
 11
190.0
 21
130.0
 31
0.0
  0
LINE
  8
0
  6
CONTINUOUS
 62
   249
 10
125.0
 20
120.0
 30
0.0
 11
185.0
 21
120.0
 31
0.0
  0
LINE
  8
0
  6
CONTINUOUS
 62
   249
 10
135.0
 20
110.0
 30
0.0
 11
180.0
 21
110.0
 31
0.0
  0
LINE
  8
0
  6
CONTINUOUS
 62
   249
 10
145.0
 20
100.0
 30
0.0
 11
175.0
 21
100.0
 31
0.0
  0
LINE
  8
0
  6
CONTINUOUS
 62
   249
 10
230.0
 20
185.0
 30
0.0
 11
231.0
 21
184.0
 31
0.0
  0
LINE
  8
0
  6
CONTINUOUS
 62
   249
 10
230.0
 20
215.0
 30
0.0
 11
231.0
 21
216.0
 31
0.0
  0
LINE
  8
0
  6
CONTINUOUS
 62
   249
 10
230.0
 20
215.0
 30
0.0
 11
230.0
 21
185.0
 31
0.0
  0
LINE
  8
0
  6
CONTINUOUS
 62
   249
 10
230.0
 20
200.0
 30
0.0
 11
225.0
 21
200.0
 31
0.0
  0
LINE
  8
0
  6
CONTINUOUS
 62
   249
 10
225.0
 20
200.0
 30
0.0
 11
225.0
 21
222.5
 31
0.0
  0
LINE
  8
0
  6
CONTINUOUS
 62
   249
 10
225.0
 20
222.5
 30
0.0
 11
207.5
 21
222.5
 31
0.0
  0
LINE
  8
0
  6
CONTINUOUS
 62
   249
 10
232.5
 20
152.5
 30
0.0
 11
217.5
 21
152.5
 31
0.0
  0
LINE
  8
0
  6
CONTINUOUS
 62
   249
 10
217.5
 20
152.5
 30
0.0
 11
217.5
 21
230.0
 31
0.0
  0
LINE
  8
0
  6
CONTINUOUS
 62
   249
 10
217.5
 20
230.0
 30
0.0
 11
207.5
 21
230.0
 31
0.0
  0
LINE
  8
0
  6
CONTINUOUS
 62
   249
 10
207.5
 20
185.0
 30
0.0
 11
212.5
 21
185.0
 31
0.0
  0
LINE
  8
0
  6
CONTINUOUS
 62
   249
 10
220.0
 20
205.0
 30
0.0
 11
207.5
 21
205.0
 31
0.0
  0
LINE
  8
0
  6
CONTINUOUS
 62
   249
 10
220.0
 20
205.0
 30
0.0
 11
220.0
 21
177.5
 31
0.0
  0
LINE
  8
0
  6
CONTINUOUS
 62
   249
 10
220.0
 20
177.5
 30
0.0
 11
232.5
 21
177.5
 31
0.0
  0
TEXT
  8
0
  6
DASHED
 62
   249
 10
328.313409
 20
132.478238
 30
0.0
 40
2.0
  1
1) ALARM ETC / SIGNAL MM.
  0
TEXT
  8
0
  6
DASHED
 62
   249
 10
327.689475
 20
126.644905
 30
0.0
 40
2.0
  1
2) TRIP FROM OVERCURRENT MODULE
  0
TEXT
  8
0
  6
DASHED
 62
   249
 10
329.030933
 20
123.311571
 30
0.0
 40
2.0
  1
  UTLÖSNING FRÅN
  0
TEXT
  8
0
  6
DASHED
 62
   249
 10
329.030933
 20
119.978238
 30
0.0
 40
2.0
  1
  ÖVERSTRÖMSRELÄMODUL
  0
TEXT
  8
0
  6
DASHED
 62
   249
 10
327.689475
 20
114.144905
 30
0.0
 40
2.0
  1
3) TRIP FROM OVERVOLTAGE AND
  0
TEXT
  8
0
  6
DASHED
 62
   249
 10
329.030933
 20
110.811571
 30
0.0
 40
2.0
  1
  REVERSE POWER MODULE
  0
TEXT
  8
0
  6
DASHED
 62
   249
 10
329.030933
 20
107.478238
 30
0.0
 40
2.0
  1
  UTLÖSNING FRÅN ÖVERSPÄNNINGS-
  0
TEXT
  8
0
  6
DASHED
 62
   249
 10
328.968539
 20
104.144905
 30
0.0
 40
2.0
  1
  OCH BAKEFFEKTRELÄMODUL
  0
TEXT
  8
0
  6
DASHED
 62
   249
 10
327.689475
 20
82.478238
 30
0.0
 40
2.0
  1
5) INTERNAL RELAY FAULT
  0
TEXT
  8
0
  6
DASHED
 62
   249
 10
328.968539
 20
79.144905
 30
0.0
 40
2.0
  1
  INTERNT RELÄFEL
  0
TEXT
  8
0
  6
DASHED
 62
   249
 10
10.654291
 20
148.975105
 30
0.0
 40
2.0
  1
1)
  0
TEXT
  8
0
  6
DASHED
 62
   249
 10
10.0
 20
138.994864
 30
0.0
 40
2.0
  1
2)
  0
TEXT
  8
0
  6
DASHED
 62
   249
 10
10.0
 20
118.997104
 30
0.0
 40
2.0
  1
3)
  0
TEXT
  8
0
  6
DASHED
 62
   249
 10
10.0
 20
99.076487
 30
0.0
 40
2.0
  1
4)
  0
TEXT
  8
0
  6
DASHED
 62
   249
 10
10.0
 20
84.017479
 30
0.0
 40
2.0
  1
5)
  0
TEXT
  8
0
  6
DASHED
 62
   249
 10
372.5
 20
13.271426
 30
0.0
 40
2.0
  1
1
  0
LINE
  8
0
  6
CONTINUOUS
 62
   249
 10
247.5
 20
217.5
 30
0.0
 11
252.5
 21
217.5
 31
0.0
  0
LINE
  8
0
  6
CONTINUOUS
 62
   249
 10
247.5
 20
212.5
 30
0.0
 11
252.5
 21
212.5
 31
0.0
  0
LINE
  8
0
  6
CONTINUOUS
 62
   249
 10
247.5
 20
207.5
 30
0.0
 11
252.5
 21
207.5
 31
0.0
  0
LINE
  8
0
  6
CONTINUOUS
 62
   249
 10
247.5
 20
187.5
 30
0.0
 11
252.5
 21
187.5
 31
0.0
  0
LINE
  8
0
  6
CONTINUOUS
 62
   249
 10
247.5
 20
192.5
 30
0.0
 11
252.5
 21
192.5
 31
0.0
  0
LINE
  8
0
  6
CONTINUOUS
 62
   249
 10
247.5
 20
197.5
 30
0.0
 11
252.5
 21
197.5
 31
0.0
  0
LINE
  8
0
  6
CONTINUOUS
 62
   249
 10
247.5
 20
177.5
 30
0.0
 11
252.5
 21
177.5
 31
0.0
  0
LINE
  8
0
  6
CONTINUOUS
 62
   249
 10
247.5
 20
172.5
 30
0.0
 11
252.5
 21
172.5
 31
0.0
  0
LINE
  8
0
  6
CONTINUOUS
 62
   249
 10
247.5
 20
167.5
 30
0.0
 11
252.5
 21
167.5
 31
0.0
  0
LINE
  8
0
  6
CONTINUOUS
 62
   249
 10
246.619525
 20
217.5
 30
0.0
 11
250.190383
 21
217.5
 31
0.0
  0
TEXT
  8
0
  6
CONTINUOUS
 62
   249
 10
260.634884
 20
184.482309
 30
0.0
 40
2.0
  1
SI
  0
TEXT
  8
0
  6
CONTINUOUS
 62
   249
 10
260.634884
 20
194.241882
 30
0.0
 40
2.0
  1
SI
  0
TEXT
  8
0
  6
CONTINUOUS
 62
   249
 10
265.387383
 20
226.586709
 30
0.0
 40
2.0
  1
101
  0
TEXT
  8
0
  6
CONTINUOUS
 62
   249
 10
260.673717
 20
204.280776
 30
0.0
 40
2.0
  1
RI
  0
TEXT
  8
0
  6
CONTINUOUS
 62
   249
 10
260.673717
 20
174.358735
 30
0.0
 40
2.0
  1
TI
  0
TEXT
  8
0
  6
CONTINUOUS
 62
   249
 10
260.673717
 20
164.573925
 30
0.0
 40
2.0
  1
TI
  0
TEXT
  8
0
  6
CONTINUOUS
 62
   249
 10
260.673717
 20
214.132598
 30
0.0
 40
2.0
  1
RI
  0
LINE
  8
0
  6
CONTINUOUS
 62
   249
 10
258.5
 20
179.0
 30
0.0
 11
257.5
 21
180.0
 31
0.0
  0
LINE
  8
0
  6
CONTINUOUS
 62
   249
 10
258.5
 20
179.0
 30
0.0
 11
258.5
 21
172.0
 31
0.0
  0
LINE
  8
0
  6
CONTINUOUS
 62
   249
 10
258.5
 20
172.0
 30
0.0
 11
257.5
 21
171.0
 31
0.0
  0
TEXT
  8
0
  6
DASHED
 62
   249
 10
267.217817
 20
164.386254
 30
0.0
 40
2.0
  1
8B
 11
267.217817
 21
163.719587
 31
0.0
 73
     1
  0
TEXT
  8
0
  6
DASHED
 62
   249
 10
267.038363
 20
174.408775
 30
0.0
 40
2.0
  1
7B
 11
267.038363
 21
173.742108
 31
0.0
 73
     1
  0
TEXT
  8
0
  6
DASHED
 62
   249
 10
267.038363
 20
184.431297
 30
0.0
 40
2.0
  1
6B
 11
267.038363
 21
183.76463
 31
0.0
 73
     1
  0
TEXT
  8
0
  6
DASHED
 62
   249
 10
267.038363
 20
194.271858
 30
0.0
 40
2.0
  1
5B
 11
267.038363
 21
193.605192
 31
0.0
 73
     1
  0
TEXT
  8
0
  6
DASHED
 62
   249
 10
267.038363
 20
204.285715
 30
0.0
 40
2.0
  1
4B
 11
267.038363
 21
203.619049
 31
0.0
 73
     1
  0
TEXT
  8
0
  6
DASHED
 62
   249
 10
267.038363
 20
214.134942
 30
0.0
 40
2.0
  1
3B
 11
267.038363
 21
213.468275
 31
0.0
 73
     1
  0
LINE
  8
0
  6
CONTINUOUS
 62
   249
 10
262.5
 20
197.5
 30
0.0
 11
258.5
 21
197.5
 31
0.0
  0
LINE
  8
0
  6
CONTINUOUS
 62
   249
 10
262.5
 20
177.5
 30
0.0
 11
258.5
 21
177.5
 31
0.0
  0
LINE
  8
0
  6
CONTINUOUS
 62
   249
 10
258.5
 20
192.0
 30
0.0
 11
257.5
 21
191.0
 31
0.0
  0
LINE
  8
0
  6
CONTINUOUS
 62
   249
 10
258.5
 20
199.0
 30
0.0
 11
258.5
 21
192.0
 31
0.0
  0
LINE
  8
0
  6
CONTINUOUS
 62
   249
 10
258.5
 20
199.0
 30
0.0
 11
257.5
 21
200.0
 31
0.0
  0
LINE
  8
0
  6
CONTINUOUS
 62
   249
 10
258.5
 20
219.0
 30
0.0
 11
257.5
 21
220.0
 31
0.0
  0
LINE
  8
0
  6
CONTINUOUS
 62
   249
 10
258.5
 20
212.0
 30
0.0
 11
257.5
 21
211.0
 31
0.0
  0
LINE
  8
0
  6
CONTINUOUS
 62
   249
 10
258.5
 20
219.0
 30
0.0
 11
258.5
 21
212.0
 31
0.0
  0
LINE
  8
0
 62
   249
 10
268.88095
 20
169.444425
 30
0.0
 11
269.560313
 21
168.508681
 31
0.0
  0
LINE
  8
0
 62
   249
 10
267.5
 20
167.5
 30
0.0
 11
270.0
 21
167.5
 31
0.0
  0
CIRCLE
  8
0
  6
CONTINUOUS
 62
   249
 10
275.949551
 20
172.471218
 30
0.0
 40
1.0
  0
LINE
  8
0
 62
   249
 10
270.0
 20
167.5
 30
0.0
 11
270.0
 21
170.4
 31
0.0
  0
LINE
  8
0
 62
   249
 10
274.949552
 20
172.469558
 30
0.0
 11
269.2
 21
169.0
 31
0.0
  0
CIRCLE
  8
0
  6
CONTINUOUS
 62
   249
 10
275.949551
 20
182.471218
 30
0.0
 40
1.0
  0
LINE
  8
0
 62
   249
 10
267.5
 20
172.498451
 30
0.0
 11
270.0
 21
172.498451
 31
0.0
  0
LINE
  8
0
 62
   249
 10
267.5
 20
172.49845
 30
0.0
 11
265.0
 21
172.49845
 31
0.0
  0
LINE
  8
0
 62
   249
 10
265.0
 20
172.49845
 30
0.0
 11
265.0
 21
182.49845
 31
0.0
  0
LINE
  8
0
 62
   249
 10
274.949552
 20
182.469558
 30
0.0
 11
269.2
 21
179.0
 31
0.0
  0
LINE
  8
0
 62
   249
 10
268.88095
 20
179.444425
 30
0.0
 11
269.560313
 21
178.508681
 31
0.0
  0
LINE
  8
0
 62
   249
 10
270.0
 20
177.5
 30
0.0
 11
270.0
 21
180.4
 31
0.0
  0
LINE
  8
0
 62
   249
 10
267.5
 20
177.5
 30
0.0
 11
270.0
 21
177.5
 31
0.0
  0
LINE
  8
0
 62
   249
 10
262.5
 20
177.5
 30
0.0
 11
267.5
 21
177.5
 31
0.0
  0
LINE
  8
0
 62
   249
 10
265.0
 20
182.49845
 30
0.0
 11
267.5
 21
182.49845
 31
0.0
  0
LINE
  8
0
 62
   249
 10
267.5
 20
182.5
 30
0.0
 11
270.0
 21
182.5
 31
0.0
  0
CIRCLE
  8
0
  6
CONTINUOUS
 62
   249
 10
275.949551
 20
192.471218
 30
0.0
 40
1.0
  0
LINE
  8
0
 62
   249
 10
267.5
 20
187.5
 30
0.0
 11
270.0
 21
187.5
 31
0.0
  0
LINE
  8
0
 62
   249
 10
270.0
 20
187.5
 30
0.0
 11
270.0
 21
190.4
 31
0.0
  0
LINE
  8
0
 62
   249
 10
274.949552
 20
192.469558
 30
0.0
 11
269.2
 21
189.0
 31
0.0
  0
LINE
  8
0
 62
   249
 10
268.88095
 20
189.444425
 30
0.0
 11
269.560313
 21
188.508681
 31
0.0
  0
LINE
  8
0
 62
   249
 10
267.5
 20
192.5
 30
0.0
 11
270.0
 21
192.5
 31
0.0
  0
LINE
  8
0
 62
   249
 10
267.5
 20
192.49845
 30
0.0
 11
265.0
 21
192.49845
 31
0.0
  0
LINE
  8
0
 62
   249
 10
265.0
 20
192.49845
 30
0.0
 11
265.0
 21
202.49845
 31
0.0
  0
CIRCLE
  8
0
  6
CONTINUOUS
 62
   249
 10
275.949551
 20
202.471218
 30
0.0
 40
1.0
  0
LINE
  8
0
 62
   249
 10
267.5
 20
202.5
 30
0.0
 11
270.0
 21
202.5
 31
0.0
  0
LINE
  8
0
 62
   249
 10
265.0
 20
202.49845
 30
0.0
 11
267.5
 21
202.49845
 31
0.0
  0
LINE
  8
0
 62
   249
 10
262.5
 20
197.5
 30
0.0
 11
267.5
 21
197.5
 31
0.0
  0
LINE
  8
0
 62
   249
 10
267.5
 20
197.5
 30
0.0
 11
270.0
 21
197.5
 31
0.0
  0
LINE
  8
0
 62
   249
 10
270.0
 20
197.5
 30
0.0
 11
270.0
 21
200.4
 31
0.0
  0
LINE
  8
0
 62
   249
 10
268.88095
 20
199.444425
 30
0.0
 11
269.560313
 21
198.508681
 31
0.0
  0
LINE
  8
0
 62
   249
 10
274.949552
 20
202.469558
 30
0.0
 11
269.2
 21
199.0
 31
0.0
  0
CIRCLE
  8
0
  6
CONTINUOUS
 62
   249
 10
275.949551
 20
212.471218
 30
0.0
 40
1.0
  0
LINE
  8
0
 62
   249
 10
270.0
 20
207.5
 30
0.0
 11
270.0
 21
210.4
 31
0.0
  0
LINE
  8
0
 62
   249
 10
267.5
 20
207.5
 30
0.0
 11
270.0
 21
207.5
 31
0.0
  0
LINE
  8
0
 62
   249
 10
268.88095
 20
209.444425
 30
0.0
 11
269.560313
 21
208.508681
 31
0.0
  0
LINE
  8
0
 62
   249
 10
274.949552
 20
212.469558
 30
0.0
 11
269.2
 21
209.0
 31
0.0
  0
LINE
  8
0
  6
CONTINUOUS
 62
   249
 10
262.5
 20
217.5
 30
0.0
 11
258.5
 21
217.5
 31
0.0
  0
LINE
  8
0
 62
   249
 10
267.5
 20
212.5
 30
0.0
 11
270.0
 21
212.5
 31
0.0
  0
LINE
  8
0
 62
   249
 10
267.5
 20
212.49845
 30
0.0
 11
265.0
 21
212.49845
 31
0.0
  0
LINE
  8
0
 62
   249
 10
274.949552
 20
222.469558
 30
0.0
 11
269.2
 21
219.0
 31
0.0
  0
LINE
  8
0
 62
   249
 10
268.88095
 20
219.444425
 30
0.0
 11
269.560313
 21
218.508681
 31
0.0
  0
LINE
  8
0
 62
   249
 10
270.0
 20
217.5
 30
0.0
 11
270.0
 21
220.4
 31
0.0
  0
LINE
  8
0
 62
   249
 10
267.5
 20
217.5
 30
0.0
 11
270.0
 21
217.5
 31
0.0
  0
LINE
  8
0
 62
   249
 10
262.5
 20
217.5
 30
0.0
 11
267.5
 21
217.5
 31
0.0
  0
LINE
  8
0
 62
   249
 10
265.0
 20
222.49845
 30
0.0
 11
267.5
 21
222.49845
 31
0.0
  0
LINE
  8
0
 62
   249
 10
267.5
 20
222.5
 30
0.0
 11
270.0
 21
222.5
 31
0.0
  0
LINE
  8
0
 62
   249
 10
265.0
 20
212.49845
 30
0.0
 11
265.0
 21
222.49845
 31
0.0
  0
CIRCLE
  8
0
  6
CONTINUOUS
 62
   249
 10
275.949551
 20
222.471218
 30
0.0
 40
1.0
  0
LINE
  8
0
  6
CONTINUOUS
 62
   249
 10
267.5
 20
167.5
 30
0.0
 11
252.5
 21
167.5
 31
0.0
  0
LINE
  8
0
  6
CONTINUOUS
 62
   249
 10
252.5
 20
172.5
 30
0.0
 11
256.766471
 21
172.5
 31
0.0
  0
LINE
  8
0
  6
CONTINUOUS
 62
   249
 10
252.5
 20
177.5
 30
0.0
 11
256.766471
 21
177.5
 31
0.0
  0
LINE
  8
0
  6
CONTINUOUS
 62
   249
 10
267.5
 20
187.5
 30
0.0
 11
252.5
 21
187.5
 31
0.0
  0
LINE
  8
0
  6
CONTINUOUS
 62
   249
 10
252.5
 20
192.5
 30
0.0
 11
256.766471
 21
192.5
 31
0.0
  0
LINE
  8
0
  6
CONTINUOUS
 62
   249
 10
252.5
 20
197.5
 30
0.0
 11
256.766471
 21
197.5
 31
0.0
  0
LINE
  8
0
  6
CONTINUOUS
 62
   249
 10
252.5
 20
207.5
 30
0.0
 11
267.5
 21
207.5
 31
0.0
  0
LINE
  8
0
  6
CONTINUOUS
 62
   249
 10
252.5
 20
212.5
 30
0.0
 11
256.766471
 21
212.5
 31
0.0
  0
LINE
  8
0
  6
CONTINUOUS
 62
   249
 10
252.5
 20
217.5
 30
0.0
 11
256.766471
 21
217.5
 31
0.0
  0
TEXT
  8
0
  6
DASHED
 62
   249
 10
278.980523
 20
219.071249
 30
0.0
 40
2.0
  1
3A
 11
278.980523
 21
218.404582
 31
0.0
 73
     1
  0
TEXT
  8
0
  6
DASHED
 62
   249
 10
278.980523
 20
209.13905
 30
0.0
 40
2.0
  1
4A
 11
278.980523
 21
208.472383
 31
0.0
 73
     1
  0
TEXT
  8
0
  6
DASHED
 62
   249
 10
278.980523
 20
198.842931
 30
0.0
 40
2.0
  1
5A
 11
278.980523
 21
198.176265
 31
0.0
 73
     1
  0
TEXT
  8
0
  6
DASHED
 62
   249
 10
278.980523
 20
189.092692
 30
0.0
 40
2.0
  1
6A
 11
278.980523
 21
188.426025
 31
0.0
 73
     1
  0
TEXT
  8
0
  6
DASHED
 62
   249
 10
278.980523
 20
179.13905
 30
0.0
 40
2.0
  1
7A
 11
278.980523
 21
178.472383
 31
0.0
 73
     1
  0
TEXT
  8
0
  6
DASHED
 62
   249
 10
278.980523
 20
168.851596
 30
0.0
 40
2.0
  1
8A
 11
278.980523
 21
168.184929
 31
0.0
 73
     1
  0
LINE
  8
0
  6
CONTINUOUS
 62
   249
 10
276.949137
 20
172.5
 30
0.0
 11
285.0
 21
172.5
 31
0.0
  0
LINE
  8
0
  6
CONTINUOUS
 62
   249
 10
276.949137
 20
182.5
 30
0.0
 11
285.0
 21
182.5
 31
0.0
  0
LINE
  8
0
  6
CONTINUOUS
 62
   249
 10
276.949137
 20
192.5
 30
0.0
 11
285.0
 21
192.5
 31
0.0
  0
LINE
  8
0
  6
CONTINUOUS
 62
   249
 10
276.949137
 20
202.5
 30
0.0
 11
285.0
 21
202.5
 31
0.0
  0
LINE
  8
0
  6
CONTINUOUS
 62
   249
 10
276.949137
 20
212.5
 30
0.0
 11
285.0
 21
212.5
 31
0.0
  0
LINE
  8
0
  6
CONTINUOUS
 62
   249
 10
276.949137
 20
222.5
 30
0.0
 11
285.0
 21
222.5
 31
0.0
  0
TEXT
  8
0
  6
CONTINUOUS
 62
   249
 10
65.345452
 20
249.148081
 30
0.0
 40
2.0
  1
108
  0
LINE
  8
0
  6
CONTINUOUS
 62
   249
 10
175.0
 20
80.0
 30
0.0
 11
175.0
 21
100.0
 31
0.0
  0
LINE
  8
0
  6
CONTINUOUS
 62
   249
 10
180.0
 20
80.0
 30
0.0
 11
180.0
 21
110.0
 31
0.0
  0
LINE
  8
0
  6
CONTINUOUS
 62
   249
 10
185.0
 20
80.0
 30
0.0
 11
185.0
 21
120.0
 31
0.0
  0
LINE
  8
0
  6
CONTINUOUS
 62
   249
 10
190.0
 20
80.0
 30
0.0
 11
190.0
 21
130.0
 31
0.0
  0
LINE
  8
0
  6
CONTINUOUS
 62
   249
 10
200.0
 20
150.0
 30
0.0
 11
200.0
 21
80.0
 31
0.0
  0
TEXT
  8
0
  6
CONTINUOUS
 62
   249
 10
56.369447
 20
146.265718
 30
0.0
 40
2.0
  1
65
  0
TEXT
  8
0
  6
CONTINUOUS
 62
   249
 10
56.55204
 20
141.31239
 30
0.0
 40
2.0
  1
64
  0
TEXT
  8
0
  6
CONTINUOUS
 62
   249
 10
56.369447
 20
136.359062
 30
0.0
 40
2.0
  1
68
  0
TEXT
  8
0
  6
CONTINUOUS
 62
   249
 10
56.369447
 20
131.394714
 30
0.0
 40
2.0
  1
67
  0
TEXT
  8
0
  6
CONTINUOUS
 62
   249
 10
56.369447
 20
126.430366
 30
0.0
 40
2.0
  1
74
  0
TEXT
  8
0
  6
CONTINUOUS
 62
   249
 10
56.369447
 20
121.113366
 30
0.0
 40
2.0
  1
73
  0
TEXT
  8
0
  6
CONTINUOUS
 62
   249
 10
56.369447
 20
116.51269
 30
0.0
 40
2.0
  1
77
  0
TEXT
  8
0
  6
CONTINUOUS
 62
   249
 10
56.369447
 20
111.372015
 30
0.0
 40
2.0
  1
76
  0
TEXT
  8
0
  6
CONTINUOUS
 62
   249
 10
56.369447
 20
106.407667
 30
0.0
 40
2.0
  1
80
  0
TEXT
  8
0
  6
CONTINUOUS
 62
   249
 10
56.369447
 20
101.454339
 30
0.0
 40
2.0
  1
79
  0
TEXT
  8
0
  6
CONTINUOUS
 62
   249
 10
56.369447
 20
96.489991
 30
0.0
 40
2.0
  1
83
  0
TEXT
  8
0
  6
CONTINUOUS
 62
   249
 10
56.369447
 20
91.349316
 30
0.0
 40
2.0
  1
82
  0
TEXT
  8
0
  6
CONTINUOUS
 62
   249
 10
56.369447
 20
86.384968
 30
0.0
 40
2.0
  1
70
  0
TEXT
  8
0
  6
CONTINUOUS
 62
   249
 10
56.369447
 20
81.43164
 30
0.0
 40
2.0
  1
71
  0
TEXT
  8
0
  6
CONTINUOUS
 62
   249
 10
173.896962
 20
82.365778
 30
0.0
 40
2.0
  1
72
 50
90.0
  0
TEXT
  8
0
  6
CONTINUOUS
 62
   249
 10
178.797551
 20
82.365778
 30
0.0
 40
2.0
  1
84
 50
90.0
  0
TEXT
  8
0
  6
CONTINUOUS
 62
   249
 10
183.850302
 20
82.365778
 30
0.0
 40
2.0
  1
81
 50
90.0
  0
TEXT
  8
0
  6
CONTINUOUS
 62
   249
 10
188.887836
 20
82.365778
 30
0.0
 40
2.0
  1
78
 50
90.0
  0
TEXT
  8
0
  6
CONTINUOUS
 62
   249
 10
193.92537
 20
82.365778
 30
0.0
 40
2.0
  1
75
 50
90.0
  0
TEXT
  8
0
  6
CONTINUOUS
 62
   249
 10
198.841176
 20
82.365778
 30
0.0
 40
2.0
  1
69
 50
90.0
  0
TEXT
  8
0
  6
CONTINUOUS
 62
   249
 10
204.000439
 20
82.365778
 30
0.0
 40
2.0
  1
66
 50
90.0
  0
TEXT
  8
0
  6
CONTINUOUS
 62
   249
 10
218.411078
 20
82.365778
 30
0.0
 40
2.0
  1
61
 50
90.0
  0
TEXT
  8
0
  6
CONTINUOUS
 62
   249
 10
223.950742
 20
82.365778
 30
0.0
 40
2.0
  1
62
 50
90.0
  0
TEXT
  8
0
  6
CONTINUOUS
 62
   249
 10
236.474588
 20
82.365778
 30
0.0
 40
2.0
  1
63
 50
90.0
  0
TEXT
  8
0
  6
CONTINUOUS
 62
   249
 10
248.80572
 20
214.73146
 30
0.0
 40
2.0
  1
3
  0
TEXT
  8
0
  6
CONTINUOUS
 62
   249
 10
248.80572
 20
209.778132
 30
0.0
 40
2.0
  1
2
  0
TEXT
  8
0
  6
CONTINUOUS
 62
   249
 10
249.170906
 20
204.615417
 30
0.0
 40
2.0
  1
1
  0
TEXT
  8
0
  6
CONTINUOUS
 62
   249
 10
248.80572
 20
194.570678
 30
0.0
 40
2.0
  1
6
  0
TEXT
  8
0
  6
CONTINUOUS
 62
   249
 10
248.80572
 20
189.716533
 30
0.0
 40
2.0
  1
5
  0
TEXT
  8
0
  6
CONTINUOUS
 62
   249
 10
248.80572
 20
184.641981
 30
0.0
 40
2.0
  1
4
  0
TEXT
  8
0
  6
CONTINUOUS
 62
   249
 10
248.80572
 20
174.718466
 30
0.0
 40
2.0
  1
9
  0
TEXT
  8
0
  6
CONTINUOUS
 62
   249
 10
248.80572
 20
169.743097
 30
0.0
 40
2.0
  1
8
  0
TEXT
  8
0
  6
CONTINUOUS
 62
   249
 10
248.80572
 20
164.723647
 30
0.0
 40
2.0
  1
7
  0
TEXT
  8
0
  6
CONTINUOUS
 62
   249
 10
259.270001
 20
218.624188
 30
0.0
 40
2.0
  1
6)
  0
TEXT
  8
0
  6
CONTINUOUS
 62
   249
 10
259.270001
 20
198.624188
 30
0.0
 40
2.0
  1
6)
  0
TEXT
  8
0
  6
CONTINUOUS
 62
   249
 10
259.270001
 20
178.624188
 30
0.0
 40
2.0
  1
6)
  0
TEXT
  8
0
  6
CONTINUOUS
 62
   249
 10
193.519596
 20
64.287845
 30
0.0
 40
2.0
  1
101
 50
90.0
  0
TEXT
  8
0
  6
CONTINUOUS
 62
   249
 10
210.710796
 20
56.789853
 30
0.0
 40
2.0
  1
18A
 50
90.0
  0
TEXT
  8
0
  6
CONTINUOUS
 62
   249
 10
198.042942
 20
56.789853
 30
0.0
 40
2.0
  1
1A
 50
90.0
  0
TEXT
  8
0
  6
CONTINUOUS
 62
   249
 10
203.078553
 20
56.789853
 30
0.0
 40
2.0
  1
2A
 50
90.0
  0
LINE
  8
0
  6
CONTINUOUS
 62
   249
 10
207.5
 20
62.5
 30
0.0
 11
207.5
 21
55.0
 31
0.0
  0
CIRCLE
  8
0
  6
CONTINUOUS
 62
   249
 10
207.5
 20
63.241055
 30
0.0
 40
0.740939
  0
LINE
  8
0
  6
CONTINUOUS
 62
   249
 10
207.5
 20
75.0
 30
0.0
 11
207.5
 21
70.0
 31
0.0
  0
LINE
  8
0
  6
CONTINUOUS
 62
   249
 10
201.365905
 20
75.813541
 30
0.0
 11
201.365905
 21
77.500506
 31
0.0
  0
LINE
  8
0
  6
CONTINUOUS
 62
   249
 10
201.365905
 20
77.500506
 30
0.0
 11
203.033279
 21
77.500506
 31
0.0
  0
LINE
  8
0
  6
CONTINUOUS
 62
   249
 10
203.033279
 20
77.500506
 30
0.0
 11
203.033279
 21
75.813541
 31
0.0
  0
LINE
  8
0
  6
CONTINUOUS
 62
   249
 10
203.033279
 20
75.813541
 30
0.0
 11
201.365905
 21
75.813541
 31
0.0
  0
TEXT
  8
0
  6
DASHED
 62
   249
 10
210.718527
 20
71.84782
 30
0.0
 40
2.0
  1
18B-
 50
90.0
  0
TEXT
  8
0
  6
DASHED
 62
   249
 10
198.045377
 20
71.84782
 30
0.0
 40
2.0
  1
1B+
 50
90.0
  0
TEXT
  8
0
  6
DASHED
 62
   249
 10
203.214777
 20
71.84782
 30
0.0
 40
2.0
  1
2B
 50
90.0
  0
LINE
  8
0
  6
CONTINUOUS
 62
   249
 10
195.0
 20
80.0
 30
0.0
 11
195.0
 21
70.0
 31
0.0
  0
CIRCLE
  8
0
  6
CONTINUOUS
 62
   249
 10
195.0
 20
63.241055
 30
0.0
 40
0.740939
  0
LINE
  8
0
  6
CONTINUOUS
 62
   249
 10
195.0
 20
62.5
 30
0.0
 11
195.0
 21
55.0
 31
0.0
  0
LINE
  8
0
  6
CONTINUOUS
 62
   249
 10
200.0
 20
62.5
 30
0.0
 11
200.0
 21
55.0
 31
0.0
  0
CIRCLE
  8
0
  6
CONTINUOUS
 62
   249
 10
200.0
 20
63.241055
 30
0.0
 40
0.740939
  0
LINE
  8
0
  6
CONTINUOUS
 62
   249
 10
200.0
 20
80.0
 30
0.0
 11
200.0
 21
70.0
 31
0.0
  0
LINE
  8
0
  6
CONTINUOUS
 62
   249
 10
175.0
 20
80.0
 30
0.0
 11
175.0
 21
75.0
 31
0.0
  0
LINE
  8
0
  6
CONTINUOUS
 62
   249
 10
175.0
 20
75.0
 30
0.0
 11
195.0
 21
75.0
 31
0.0
  0
LINE
  8
0
  6
CONTINUOUS
 62
   249
 10
180.0
 20
80.0
 30
0.0
 11
180.0
 21
75.0
 31
0.0
  0
LINE
  8
0
  6
CONTINUOUS
 62
   249
 10
185.0
 20
80.0
 30
0.0
 11
185.0
 21
75.0
 31
0.0
  0
LINE
  8
0
  6
CONTINUOUS
 62
   249
 10
190.0
 20
80.0
 30
0.0
 11
190.0
 21
75.0
 31
0.0
  0
CIRCLE
  8
0
  6
CONTINUOUS
 62
   249
 10
46.693548
 20
137.5
 30
0.0
 40
1.484482
  0
LINE
  8
0
  6
CONTINUOUS
 62
   249
 10
42.5
 20
140.0
 30
0.0
 11
52.5
 21
140.0
 31
0.0
  0
CIRCLE
  8
0
  6
CONTINUOUS
 62
   249
 10
41.758945
 20
140.0
 30
0.0
 40
0.740939
  0
TEXT
  8
0
  6
DASHED
 62
   249
 10
35.059383
 20
143.559927
 30
0.0
 40
2.0
  1
101
  0
LINE
  8
0
  6
DASHED
 62
   249
 10
25.0
 20
140.0
 30
0.0
 11
35.0
 21
140.0
 31
0.0
  0
CIRCLE
  8
0
  6
CONTINUOUS
 62
   249
 10
46.693548
 20
117.5
 30
0.0
 40
1.484482
  0
LINE
  8
0
  6
CONTINUOUS
 62
   249
 10
42.5
 20
120.0
 30
0.0
 11
52.5
 21
120.0
 31
0.0
  0
CIRCLE
  8
0
  6
CONTINUOUS
 62
   249
 10
41.758945
 20
120.0
 30
0.0
 40
0.740939
  0
LINE
  8
0
  6
DASHED
 62
   249
 10
25.0
 20
120.0
 30
0.0
 11
35.0
 21
120.0
 31
0.0
  0
TEXT
  8
0
  6
CONTINUOUS
 62
   249
 10
26.115337
 20
136.498771
 30
0.0
 40
2.0
  1
16A    16B
  0
TEXT
  8
0
  6
CONTINUOUS
 62
   249
 10
26.115337
 20
116.501361
 30
0.0
 40
2.0
  1
15A    15B
  0
TEXT
  8
0
  6
CONTINUOUS
 62
   249
 10
26.115337
 20
96.199596
 30
0.0
 40
2.0
  1
17A    17B
  0
CIRCLE
  8
0
  6
CONTINUOUS
 62
   249
 10
46.693548
 20
97.5
 30
0.0
 40
1.484482
  0
LINE
  8
0
  6
CONTINUOUS
 62
   249
 10
42.5
 20
100.0
 30
0.0
 11
52.5
 21
100.0
 31
0.0
  0
CIRCLE
  8
0
  6
CONTINUOUS
 62
   249
 10
41.758945
 20
100.0
 30
0.0
 40
0.740939
  0
LINE
  8
0
  6
DASHED
 62
   249
 10
25.0
 20
100.0
 30
0.0
 11
35.0
 21
100.0
 31
0.0
  0
LINE
  8
0
  6
CONTINUOUS
 62
   249
 10
52.5
 20
130.0
 30
0.0
 11
49.003383
 21
130.0
 31
0.0
  0
LINE
  8
0
  6
CONTINUOUS
 62
   249
 10
49.003383
 20
130.0
 30
0.0
 11
49.003383
 21
140.0
 31
0.0
  0
LINE
  8
0
  6
CONTINUOUS
 62
   249
 10
52.5
 20
110.0
 30
0.0
 11
49.003383
 21
110.0
 31
0.0
  0
LINE
  8
0
  6
CONTINUOUS
 62
   249
 10
49.003383
 20
110.0
 30
0.0
 11
49.003383
 21
120.0
 31
0.0
  0
LINE
  8
0
  6
DASHED
 62
   249
 10
52.5
 20
150.0
 30
0.0
 11
25.0
 21
150.0
 31
0.0
  0
LINE
  8
0
  6
DASHED
 62
   249
 10
52.5
 20
85.0
 30
0.0
 11
25.0
 21
85.0
 31
0.0
  0
LINE
  8
0
  6
CENTER
 62
   249
 10
25.0
 20
55.0
 30
0.0
 11
285.0
 21
55.0
 31
0.0
  0
LINE
  8
0
  6
CENTER
 62
   249
 10
285.0
 20
55.0
 30
0.0
 11
285.0
 21
255.0
 31
0.0
  0
LINE
  8
0
  6
CENTER
 62
   249
 10
285.0
 20
255.0
 30
0.0
 11
25.0
 21
255.0
 31
0.0
  0
LINE
  8
0
  6
CENTER
 62
   249
 10
25.0
 20
255.0
 30
0.0
 11
25.0
 21
55.0
 31
0.0
  0
LINE
  8
0
  6
DASHED
 62
   249
 10
170.0
 20
80.0
 30
0.0
 11
170.0
 21
55.0
 31
0.0
  0
LINE
  8
0
  6
DASHED
 62
   249
 10
215.0
 20
80.0
 30
0.0
 11
215.0
 21
55.0
 31
0.0
  0
LINE
  8
0
  6
DASHED
 62
   249
 10
220.0
 20
80.0
 30
0.0
 11
220.0
 21
55.0
 31
0.0
  0
TEXT
  8
0
  6
DASHED
 62
   249
 10
27.426983
 20
256.146017
 30
0.0
 40
2.0
  1
101
  0
LINE
  8
0
  6
DASHED
 62
   249
 10
25.0
 20
150.0
 30
0.0
 11
15.0
 21
150.0
 31
0.0
  0
LINE
  8
0
  6
DASHED
 62
   249
 10
25.0
 20
140.0
 30
0.0
 11
15.0
 21
140.0
 31
0.0
  0
LINE
  8
0
  6
DASHED
 62
   249
 10
25.0
 20
120.0
 30
0.0
 11
15.0
 21
120.0
 31
0.0
  0
LINE
  8
0
  6
DASHED
 62
   249
 10
25.0
 20
100.0
 30
0.0
 11
15.0
 21
100.0
 31
0.0
  0
LINE
  8
0
  6
DASHED
 62
   249
 10
25.0
 20
85.0
 30
0.0
 11
15.0
 21
85.0
 31
0.0
  0
LINE
  8
0
  6
DASHED
 62
   249
 10
232.5
 20
80.0
 30
0.0
 11
232.5
 21
55.0
 31
0.0
  0
LINE
  8
0
  6
DASHED
 62
   249
 10
170.0
 20
55.0
 30
0.0
 11
170.0
 21
47.5
 31
0.0
  0
LINE
  8
0
  6
DASHED
 62
   249
 10
195.0
 20
55.0
 30
0.0
 11
195.0
 21
47.5
 31
0.0
  0
LINE
  8
0
  6
DASHED
 62
   249
 10
200.0
 20
55.0
 30
0.0
 11
200.0
 21
47.5
 31
0.0
  0
LINE
  8
0
  6
DASHED
 62
   249
 10
207.5
 20
55.0
 30
0.0
 11
207.5
 21
47.5
 31
0.0
  0
LINE
  8
0
  6
DASHED
 62
   249
 10
215.0
 20
55.0
 30
0.0
 11
215.0
 21
47.5
 31
0.0
  0
LINE
  8
0
  6
DASHED
 62
   249
 10
220.0
 20
55.0
 30
0.0
 11
220.0
 21
47.5
 31
0.0
  0
LINE
  8
0
  6
DASHED
 62
   249
 10
232.5
 20
55.0
 30
0.0
 11
232.5
 21
47.5
 31
0.0
  0
LINE
  8
0
  6
CONTINUOUS
 62
   249
 10
285.0
 20
222.5
 30
0.0
 11
290.0
 21
222.5
 31
0.0
  0
LINE
  8
0
  6
CONTINUOUS
 62
   249
 10
285.0
 20
212.5
 30
0.0
 11
290.0
 21
212.5
 31
0.0
  0
LINE
  8
0
  6
CONTINUOUS
 62
   249
 10
285.0
 20
202.5
 30
0.0
 11
290.0
 21
202.5
 31
0.0
  0
LINE
  8
0
  6
CONTINUOUS
 62
   249
 10
285.0
 20
192.5
 30
0.0
 11
290.0
 21
192.5
 31
0.0
  0
LINE
  8
0
  6
CONTINUOUS
 62
   249
 10
285.0
 20
182.5
 30
0.0
 11
290.0
 21
182.5
 31
0.0
  0
LINE
  8
0
  6
CONTINUOUS
 62
   249
 10
285.0
 20
172.5
 30
0.0
 11
290.0
 21
172.5
 31
0.0
  0
LINE
  8
0
  6
CONTINUOUS
 62
   249
 10
285.0
 20
157.5
 30
0.0
 11
290.0
 21
157.5
 31
0.0
  0
LINE
  8
0
  6
CONTINUOUS
 62
   249
 10
285.0
 20
147.5
 30
0.0
 11
290.0
 21
147.5
 31
0.0
  0
LINE
  8
0
  6
CONTINUOUS
 62
   249
 10
292.5
 20
147.5
 30
0.0
 11
291.5
 21
146.5
 31
0.0
  0
LINE
  8
0
  6
CONTINUOUS
 62
   249
 10
292.5
 20
157.5
 30
0.0
 11
292.5
 21
147.5
 31
0.0
  0
LINE
  8
0
  6
CONTINUOUS
 62
   249
 10
292.5
 20
157.5
 30
0.0
 11
291.5
 21
158.5
 31
0.0
  0
LINE
  8
0
  6
CONTINUOUS
 62
   249
 10
292.5
 20
172.5
 30
0.0
 11
291.5
 21
171.5
 31
0.0
  0
LINE
  8
0
  6
CONTINUOUS
 62
   249
 10
292.5
 20
172.5
 30
0.0
 11
292.5
 21
202.5
 31
0.0
  0
LINE
  8
0
  6
CONTINUOUS
 62
   249
 10
292.5
 20
202.5
 30
0.0
 11
292.5
 21
222.5
 31
0.0
  0
LINE
  8
0
  6
CONTINUOUS
 62
   249
 10
292.5
 20
222.5
 30
0.0
 11
291.5
 21
223.5
 31
0.0
  0
LINE
  8
0
  6
DASHED
 62
   249
 10
292.5
 20
182.537462
 30
0.0
 11
332.5
 21
182.537462
 31
0.0
  0
LINE
  8
0
  6
DASHED
 62
   249
 10
292.5
 20
132.5
 30
0.0
 11
312.5
 21
132.5
 31
0.0
  0
CIRCLE
  8
0
  6
CONTINUOUS
 62
   249
 10
335.0
 20
182.537462
 30
0.0
 40
2.5
  0
CIRCLE
  8
0
  6
CONTINUOUS
 62
   249
 10
325.0
 20
215.0
 30
0.0
 40
2.5
  0
CIRCLE
  8
0
  6
CONTINUOUS
 62
   249
 10
321.521608
 20
215.0
 30
0.0
 40
2.5
  0
LINE
  8
0
  6
DASHED
 62
   249
 10
305.0
 20
152.5
 30
0.0
 11
305.0
 21
215.0
 31
0.0
  0
LINE
  8
0
  6
DASHED
 62
   249
 10
305.0
 20
215.0
 30
0.0
 11
319.021608
 21
215.0
 31
0.0
  0
LINE
  8
0
  6
DASHED
 62
   249
 10
327.5
 20
215.0
 30
0.0
 11
335.0
 21
215.0
 31
0.0
  0
LINE
  8
0
  6
DASHED
 62
   249
 10
335.0
 20
222.5
 30
0.0
 11
335.0
 21
205.0
 31
0.0
  0
CIRCLE
  8
0
  6
CONTINUOUS
 62
   249
 10
335.0
 20
200.0
 30
0.0
 40
5.0
  0
LINE
  8
0
  6
DASHED
 62
   249
 10
335.0
 20
195.0
 30
0.0
 11
335.0
 21
157.5
 31
0.0
  0
TEXT
  8
0
  6
DASHED
 62
   249
 10
334.056603
 20
198.490209
 30
0.0
 40
3.0
  1
G
  0
LINE
  8
0
  6
CONTINUOUS
 62
   249
 10
337.5
 20
175.0
 30
0.0
 11
338.5
 21
176.0
 31
0.0
  0
LINE
  8
0
  6
CONTINUOUS
 62
   249
 10
332.5
 20
175.0
 30
0.0
 11
331.5
 21
176.0
 31
0.0
  0
LINE
  8
0
  6
CONTINUOUS
 62
   249
 10
337.5
 20
175.0
 30
0.0
 11
332.5
 21
175.0
 31
0.0
  0
TEXT
  8
0
  6
CONTINUOUS
 62
   249
 10
307.313043
 20
234.585585
 30
0.0
 40
2.0
  1
101 RTXP 18
  0
TEXT
  8
0
  6
CONTINUOUS
 62
   249
 10
336.078259
 20
246.374636
 30
0.0
 40
2.0
  1
4S
  0
TEXT
  8
0
  6
CONTINUOUS
 62
   249
 10
322.337199
 20
256.348324
 30
0.0
 40
2.0
  1
42C
  0
TEXT
  8
0
  6
CONTINUOUS
 62
   249
 10
307.5
 20
252.5
 30
0.0
 40
2.0
  1
101  108
  0
LINE
  8
0
  6
CONTINUOUS
 62
   249
 10
315.0
 20
255.0
 30
0.0
 11
315.0
 21
237.5
 31
0.0
  0
LINE
  8
0
  6
CONTINUOUS
 62
   249
 10
312.5
 20
255.0
 30
0.0
 11
312.5
 21
237.5
 31
0.0
  0
LINE
  8
0
  6
CONTINUOUS
 62
   249
 10
305.0
 20
237.5
 30
0.0
 11
305.0
 21
255.0
 31
0.0
  0
LINE
  8
0
  6
CONTINUOUS
 62
   249
 10
335.0
 20
237.5
 30
0.0
 11
305.0
 21
237.5
 31
0.0
  0
LINE
  8
0
  6
CONTINUOUS
 62
   249
 10
335.0
 20
255.0
 30
0.0
 11
335.0
 21
237.5
 31
0.0
  0
LINE
  8
0
  6
CONTINUOUS
 62
   249
 10
305.0
 20
255.0
 30
0.0
 11
335.0
 21
255.0
 31
0.0
  0
TEXT
  8
0
  6
CONTINUOUS
 62
   249
 10
362.523265
 20
48.122589
 30
0.0
 40
2.0
  1
Un=110V
  0
TEXT
  8
0
  6
CONTINUOUS
 62
   249
 10
347.185795
 20
48.122589
 30
0.0
 40
2.0
  1
Un=100V 
  0
TEXT
  8
0
  6
CONTINUOUS
 62
   249
 10
338.413001
 20
44.53788
 30
0.0
 40
2.0
  1
9B
  0
LINE
  8
0
  6
CONTINUOUS
 62
   249
 10
332.515778
 20
40.509666
 30
0.0
 11
376.515778
 21
40.509666
 31
0.0
  0
LINE
  8
0
  6
CONTINUOUS
 62
   249
 10
376.515778
 20
47.480578
 30
0.0
 11
346.515778
 21
47.480578
 31
0.0
  0
LINE
  8
0
  6
CONTINUOUS
 62
   249
 10
346.515778
 20
50.978938
 30
0.0
 11
376.515778
 21
50.978938
 31
0.0
  0
TEXT
  8
0
  6
CONTINUOUS
 62
   249
 10
338.487599
 20
52.159538
 30
0.0
 40
2.0
  1
7B     9      8
  0
TEXT
  8
0
  6
CONTINUOUS
 62
   249
 10
338.487599
 20
55.190311
 30
0.0
 40
2.0
  1
5B     6      5
  0
LINE
  8
0
 62
   249
 10
376.515778
 20
73.70508
 30
0.0
 11
332.515778
 21
73.70508
 31
0.0
  0
LINE
  8
0
 62
   249
 10
332.515778
 20
73.70508
 30
0.0
 11
332.515778
 21
40.509666
 31
0.0
  0
LINE
  8
0
 62
   249
 10
376.515778
 20
40.509666
 30
0.0
 11
376.515778
 21
73.70508
 31
0.0
  0
LINE
  8
0
 62
   249
 10
332.515778
 20
67.70508
 30
0.0
 11
376.515778
 21
67.70508
 31
0.0
  0
LINE
  8
0
 62
   249
 10
346.515778
 20
67.70508
 30
0.0
 11
346.515778
 21
40.509666
 31
0.0
  0
LINE
  8
0
 62
   249
 10
346.515778
 20
64.20508
 30
0.0
 11
376.515778
 21
64.20508
 31
0.0
  0
LINE
  8
0
 62
   249
 10
360.515778
 20
64.20508
 30
0.0
 11
360.515778
 21
40.509666
 31
0.0
  0
LINE
  8
0
 62
   249
 10
332.515778
 20
60.70508
 30
0.0
 11
376.515778
 21
60.70508
 31
0.0
  0
TEXT
  8
0
 62
   249
 10
338.515778
 20
68.371747
 30
0.0
 40
2.0
  1
TERMINALS / UTTAG
 11
338.515778
 21
67.70508
 31
0.0
 73
     1
  0
TEXT
  8
0
 62
   249
 10
338.515778
 20
64.871747
 30
0.0
 40
2.0
  1
101:       
 11
338.515778
 21
64.20508
 31
0.0
 73
     1
  0
TEXT
  8
0
 62
   249
 10
358.515778
 20
64.871747
 30
0.0
 40
2.0
  1
108:
 11
358.515778
 21
64.20508
 31
0.0
 73
     1
  0
TEXT
  8
0
 62
   249
 10
348.515778
 20
61.371747
 30
0.0
 40
2.0
  1
In=1A 
 11
348.515778
 21
60.70508
 31
0.0
 73
     1
  0
TEXT
  8
0
 62
   249
 10
364.515778
 20
61.371747
 30
0.0
 40
2.0
  1
In=5A
 11
364.515778
 21
60.70508
 31
0.0
 73
     1
  0
TEXT
  8
0
 62
   249
 10
338.515778
 20
58.001532
 30
0.0
 40
2.0
  1
3B     3      2
 11
338.515778
 21
57.334865
 31
0.0
 73
     1
  0
TEXT
  8
0
  6
DASHED
 62
   249
 10
327.716307
 20
71.488671
 30
0.0
 40
2.0
  1
6)
  0
TEXT
  8
0
  6
DASHED
 62
   249
 10
212.758828
 20
28.057387
 30
0.0
 40
2.0
  1
1992-05-18 JR / RITU
  0
TEXT
  8
0
  6
CONTINUOUS
 62
   249
 10
259.270001
 20
138.624188
 30
0.0
 40
2.0
  1
6)
  0
LINE
  8
0
  6
CONTINUOUS
 62
   249
 10
276.949137
 20
127.5
 30
0.0
 11
285.0
 21
127.5
 31
0.0
  0
LINE
  8
0
  6
CONTINUOUS
 62
   249
 10
276.949137
 20
137.5
 30
0.0
 11
285.0
 21
137.5
 31
0.0
  0
LINE
  8
0
  6
CONTINUOUS
 62
   249
 10
252.5
 20
137.5
 30
0.0
 11
256.766471
 21
137.5
 31
0.0
  0
LINE
  8
0
  6
CONTINUOUS
 62
   249
 10
252.5
 20
132.5
 30
0.0
 11
256.766471
 21
132.5
 31
0.0
  0
LINE
  8
0
  6
CONTINUOUS
 62
   249
 10
267.5
 20
127.5
 30
0.0
 11
252.5
 21
127.5
 31
0.0
  0
LINE
  8
0
  6
CONTINUOUS
 62
   249
 10
258.5
 20
139.0
 30
0.0
 11
257.5
 21
140.0
 31
0.0
  0
LINE
  8
0
  6
CONTINUOUS
 62
   249
 10
258.5
 20
132.0
 30
0.0
 11
257.5
 21
131.0
 31
0.0
  0
LINE
  8
0
  6
CONTINUOUS
 62
   249
 10
258.5
 20
139.0
 30
0.0
 11
258.5
 21
132.0
 31
0.0
  0
LINE
  8
0
  6
CONTINUOUS
 62
   249
 10
267.5
 20
137.5
 30
0.0
 11
258.5
 21
137.5
 31
0.0
  0
LINE
  8
0
 62
   249
 10
267.5
 20
127.5
 30
0.0
 11
270.0
 21
127.5
 31
0.0
  0
LINE
  8
0
 62
   249
 10
267.5
 20
137.5
 30
0.0
 11
270.0
 21
137.5
 31
0.0
  0
CIRCLE
  8
0
  6
CONTINUOUS
 62
   249
 10
275.949551
 20
137.471218
 30
0.0
 40
1.0
  0
CIRCLE
  8
0
  6
CONTINUOUS
 62
   249
 10
275.949551
 20
127.471218
 30
0.0
 40
1.0
  0
LINE
  8
0
  6
CONTINUOUS
 62
   249
 10
247.5
 20
127.5
 30
0.0
 11
252.5
 21
127.5
 31
0.0
  0
LINE
  8
0
  6
CONTINUOUS
 62
   249
 10
247.5
 20
132.5
 30
0.0
 11
252.5
 21
132.5
 31
0.0
  0
LINE
  8
0
  6
CONTINUOUS
 62
   249
 10
247.5
 20
137.5
 30
0.0
 11
252.5
 21
137.5
 31
0.0
  0
LINE
  8
0
  6
CONTINUOUS
 62
   249
 10
232.5
 20
132.5
 30
0.0
 11
212.5
 21
132.5
 31
0.0
  0
LINE
  8
0
  6
CONTINUOUS
 62
   249
 10
212.5
 20
132.5
 30
0.0
 11
212.5
 21
185.0
 31
0.0
  0
TEXT
  8
0
  6
DASHED
 62
   249
 10
267.217176
 20
154.394926
 30
0.0
 40
2.0
  1
9B
  0
TEXT
  8
0
  6
DASHED
 62
   249
 10
267.217176
 20
144.372227
 30
0.0
 40
2.0
  1
10B
  0
TEXT
  8
0
  6
DASHED
 62
   249
 10
279.207446
 20
154.177767
 30
0.0
 40
2.0
  1
9A
  0
TEXT
  8
0
  6
DASHED
 62
   249
 10
278.355346
 20
143.978743
 30
0.0
 40
2.0
  1
10A
  0
TEXT
  8
0
  6
DASHED
 62
   249
 10
267.262824
 20
134.740423
 30
0.0
 40
2.0
  1
12B
  0
TEXT
  8
0
  6
DASHED
 62
   249
 10
278.324914
 20
134.046139
 30
0.0
 40
2.0
  1
12A
  0
LINE
  8
0
  6
CONTINUOUS
 62
   249
 10
292.5
 20
137.5
 30
0.0
 11
291.5
 21
138.5
 31
0.0
  0
LINE
  8
0
  6
CONTINUOUS
 62
   249
 10
292.5
 20
137.5
 30
0.0
 11
292.5
 21
127.5
 31
0.0
  0
LINE
  8
0
  6
CONTINUOUS
 62
   249
 10
292.5
 20
127.5
 30
0.0
 11
291.5
 21
126.5
 31
0.0
  0
LINE
  8
0
  6
CONTINUOUS
 62
   249
 10
285.0
 20
127.5
 30
0.0
 11
290.0
 21
127.5
 31
0.0
  0
LINE
  8
0
  6
CONTINUOUS
 62
   249
 10
285.0
 20
137.5
 30
0.0
 11
290.0
 21
137.5
 31
0.0
  0
LINE
  8
0
  6
DASHED
 62
   249
 10
292.5
 20
152.5
 30
0.0
 11
305.0
 21
152.5
 31
0.0
  0
LINE
  8
0
  6
CONTINUOUS
 62
   249
 10
220.0
 20
100.429605
 30
0.0
 11
220.0
 21
97.5
 31
0.0
  0
LINE
  8
0
  6
CONTINUOUS
 62
   249
 10
215.0
 20
100.429605
 30
0.0
 11
215.0
 21
97.5
 31
0.0
  0
LINE
  8
0
  6
CONTINUOUS
 62
   249
 10
220.0
 20
115.0
 30
0.0
 11
220.0
 21
109.752154
 31
0.0
  0
LINE
  8
0
  6
CONTINUOUS
 62
   249
 10
215.0
 20
115.0
 30
0.0
 11
215.0
 21
109.752154
 31
0.0
  0
LINE
  8
0
 62
   249
 10
217.466311
 20
102.72844
 30
0.0
 11
221.466311
 21
102.72844
 31
0.0
  0
LINE
  8
0
 62
   249
 10
213.709901
 20
107.674464
 30
0.0
 11
217.709901
 21
107.674464
 31
0.0
  0
LINE
  8
0
 62
   249
 10
212.795103
 20
101.386207
 30
0.0
 11
221.158613
 21
109.752154
 31
0.0
  0
LINE
  8
0
 62
   249
 10
213.779395
 20
100.429605
 30
0.0
 11
222.119756
 21
108.767352
 31
0.0
  0
LINE
  8
0
 62
   249
 10
212.795103
 20
100.429605
 30
0.0
 11
212.795103
 21
109.752154
 31
0.0
  0
LINE
  8
0
 62
   249
 10
222.119756
 20
100.429605
 30
0.0
 11
212.795103
 21
100.429605
 31
0.0
  0
LINE
  8
0
 62
   249
 10
222.119756
 20
109.752154
 30
0.0
 11
222.119756
 21
100.429605
 31
0.0
  0
LINE
  8
0
 62
   249
 10
212.795103
 20
109.752154
 30
0.0
 11
222.119756
 21
109.752154
 31
0.0
  0
TEXT
  8
0
  6
CONTINUOUS
 62
   249
 10
214.366734
 20
115.55315
 30
0.0
 40
2.0
  1
+
  0
TEXT
  8
0
  6
CONTINUOUS
 62
   249
 10
219.297086
 20
115.577719
 30
0.0
 40
2.0
  1
-
  0
TEXT
  8
0
  6
DASHED
 62
   249
 10
351.852352
 20
44.527046
 30
0.0
 40
2.0
  1
14
  0
TEXT
  8
0
  6
DASHED
 62
   249
 10
366.123645
 20
44.527046
 30
0.0
 40
2.0
  1
15
  0
TEXT
  8
0
  6
CONTINUOUS
 62
   249
 10
200.254265
 20
181.862215
 30
0.0
 40
2.5
  1
U
  0
TEXT
  8
0
  6
CONTINUOUS
 62
   249
 10
176.867152
 20
188.033623
 30
0.0
 40
2.5
  1
U
  0
TEXT
  8
0
  6
CONTINUOUS
 62
   249
 10
176.867152
 20
178.258554
 30
0.0
 40
2.5
  1
U
  0
TEXT
  8
0
  6
CONTINUOUS
 62
   249
 10
201.803421
 20
190.796047
 30
0.0
 40
2.5
  1
U3
  0
LINE
  8
0
  6
CONTINUOUS
 62
   249
 10
175.0
 20
185.0
 30
0.0
 11
197.5
 21
185.0
 31
0.0
  0
LINE
  8
0
  6
CONTINUOUS
 62
   249
 10
184.41192
 20
179.402145
 30
0.0
 11
182.066154
 21
178.212226
 31
0.0
  0
LINE
  8
0
  6
CONTINUOUS
 62
   249
 10
182.066154
 20
180.737499
 30
0.0
 11
184.41192
 21
179.402145
 31
0.0
  0
LINE
  8
0
  6
CONTINUOUS
 62
   249
 10
183.946975
 20
180.737499
 30
0.0
 11
186.292741
 21
179.402145
 31
0.0
  0
LINE
  8
0
  6
CONTINUOUS
 62
   249
 10
186.292741
 20
179.402145
 30
0.0
 11
183.946975
 21
178.212226
 31
0.0
  0
LINE
  8
0
  6
CONTINUOUS
 62
   249
 10
184.64006
 20
189.278822
 30
0.0
 11
182.294294
 21
188.088903
 31
0.0
  0
LINE
  8
0
  6
CONTINUOUS
 62
   249
 10
182.294294
 20
190.614176
 30
0.0
 11
184.64006
 21
189.278822
 31
0.0
  0
LINE
  8
0
  6
CONTINUOUS
 62
   249
 10
196.554661
 20
180.275083
 30
0.0
 11
196.554661
 21
178.486952
 31
0.0
  0
LINE
  8
0
  6
CONTINUOUS
 62
   249
 10
193.577129
 20
181.627967
 30
0.0
 11
194.477806
 21
180.504218
 31
0.0
  0
LINE
  8
0
  6
CONTINUOUS
 62
   249
 10
191.155141
 20
178.262202
 30
0.0
 11
194.031252
 21
181.09076
 31
0.0
  0
LINE
  8
0
  6
CONTINUOUS
 62
   249
 10
188.770997
 20
179.429805
 30
0.0
 11
196.559202
 21
179.429805
 31
0.0
  0
LINE
  8
0
  6
CONTINUOUS
 62
   249
 10
188.739965
 20
180.275083
 30
0.0
 11
188.739965
 21
178.486952
 31
0.0
  0
LINE
  8
0
  6
CONTINUOUS
 62
   249
 10
189.013339
 20
190.117497
 30
0.0
 11
189.013339
 21
188.329366
 31
0.0
  0
LINE
  8
0
  6
CONTINUOUS
 62
   249
 10
189.044371
 20
189.272218
 30
0.0
 11
196.832576
 21
189.272218
 31
0.0
  0
LINE
  8
0
  6
CONTINUOUS
 62
   249
 10
191.428515
 20
188.104616
 30
0.0
 11
194.304626
 21
190.933174
 31
0.0
  0
LINE
  8
0
  6
CONTINUOUS
 62
   249
 10
193.873922
 20
191.470381
 30
0.0
 11
194.774599
 21
190.346632
 31
0.0
  0
LINE
  8
0
  6
CONTINUOUS
 62
   249
 10
196.828035
 20
190.117497
 30
0.0
 11
196.828035
 21
188.329366
 31
0.0
  0
LINE
  8
0
  6
CONTINUOUS
 62
   249
 10
175.0
 20
205.0
 30
0.0
 11
197.5
 21
205.0
 31
0.0
  0
TEXT
  8
0
  6
CONTINUOUS
 62
   249
 10
199.328951
 20
217.399713
 30
0.0
 40
2.5
  1
P
  0
LINE
  8
0
  6
CONTINUOUS
 62
   249
 10
202.161896
 20
218.565318
 30
0.0
 11
205.985853
 21
218.565318
 31
0.0
  0
LINE
  8
0
  6
CONTINUOUS
 62
   249
 10
203.419499
 20
218.564504
 30
0.0
 11
203.419499
 21
219.062767
 31
0.0
  0
LINE
  8
0
  6
CONTINUOUS
 62
   249
 10
203.419499
 20
218.564504
 30
0.0
 11
203.419499
 21
218.066242
 31
0.0
  0
LINE
  8
0
  6
CONTINUOUS
 62
   249
 10
203.419499
 20
219.062767
 30
0.0
 11
202.14337
 21
218.569118
 31
0.0
  0
LINE
  8
0
  6
CONTINUOUS
 62
   249
 10
202.14337
 20
218.569118
 30
0.0
 11
203.419499
 21
218.066242
 31
0.0
  0
LINE
  8
0
  6
CONTINUOUS
 62
   249
 10
180.044921
 20
218.569118
 30
0.0
 11
181.321049
 21
218.066242
 31
0.0
  0
LINE
  8
0
  6
CONTINUOUS
 62
   249
 10
181.321049
 20
219.062767
 30
0.0
 11
180.044921
 21
218.569118
 31
0.0
  0
LINE
  8
0
  6
CONTINUOUS
 62
   249
 10
181.321049
 20
218.564504
 30
0.0
 11
181.321049
 21
218.066242
 31
0.0
  0
LINE
  8
0
  6
CONTINUOUS
 62
   249
 10
181.321049
 20
218.564504
 30
0.0
 11
181.321049
 21
219.062767
 31
0.0
  0
LINE
  8
0
  6
CONTINUOUS
 62
   249
 10
180.063447
 20
218.565318
 30
0.0
 11
183.887404
 21
218.565318
 31
0.0
  0
TEXT
  8
0
  6
CONTINUOUS
 62
   249
 10
177.230502
 20
217.399713
 30
0.0
 40
2.5
  1
P
  0
LINE
  8
0
  6
CONTINUOUS
 62
   249
 10
181.645
 20
226.571862
 30
0.0
 11
182.223211
 21
226.571862
 31
0.0
  0
LINE
  8
0
  6
CONTINUOUS
 62
   249
 10
181.645
 20
229.811852
 30
0.0
 11
181.645
 21
226.571862
 31
0.0
  0
LINE
  8
0
  6
CONTINUOUS
 62
   249
 10
180.704503
 20
229.811852
 30
0.0
 11
181.645
 21
229.811852
 31
0.0
  0
LINE
  8
0
  6
CONTINUOUS
 62
   249
 10
181.645
 20
236.049382
 30
0.0
 11
182.223211
 21
236.049382
 31
0.0
  0
LINE
  8
0
  6
CONTINUOUS
 62
   249
 10
181.645
 20
231.795518
 30
0.0
 11
181.645
 21
236.049382
 31
0.0
  0
LINE
  8
0
  6
CONTINUOUS
 62
   249
 10
180.704503
 20
231.795518
 30
0.0
 11
181.645
 21
231.795518
 31
0.0
  0
TEXT
  8
0
  6
CONTINUOUS
 62
   249
 10
200.299914
 20
228.57757
 30
0.0
 40
2.5
  1
U
  0
LINE
  8
0
  6
CONTINUOUS
 62
   249
 10
203.18362
 20
231.195275
 30
0.0
 11
205.529386
 21
229.859921
 31
0.0
  0
LINE
  8
0
  6
CONTINUOUS
 62
   249
 10
205.529386
 20
229.859921
 30
0.0
 11
203.18362
 21
228.670002
 31
0.0
  0
LINE
  8
0
  6
CONTINUOUS
 62
   249
 10
189.013339
 20
236.8994
 30
0.0
 11
189.013339
 21
235.111269
 31
0.0
  0
LINE
  8
0
  6
CONTINUOUS
 62
   249
 10
189.044371
 20
236.054122
 30
0.0
 11
196.832576
 21
236.054122
 31
0.0
  0
LINE
  8
0
  6
CONTINUOUS
 62
   249
 10
191.428515
 20
234.886519
 30
0.0
 11
194.304626
 21
237.715078
 31
0.0
  0
LINE
  8
0
  6
CONTINUOUS
 62
   249
 10
193.873922
 20
238.252284
 30
0.0
 11
194.774599
 21
237.128535
 31
0.0
  0
LINE
  8
0
  6
CONTINUOUS
 62
   249
 10
196.828035
 20
236.8994
 30
0.0
 11
196.828035
 21
235.111269
 31
0.0
  0
TEXT
  8
0
  6
CONTINUOUS
 62
   249
 10
182.679694
 20
225.293499
 30
0.0
 40
2.5
  1
U
  0
LINE
  8
0
  6
CONTINUOUS
 62
   249
 10
189.469866
 20
226.575851
 30
0.0
 11
187.1241
 21
225.385931
 31
0.0
  0
LINE
  8
0
  6
CONTINUOUS
 62
   249
 10
187.1241
 20
227.911204
 30
0.0
 11
189.469866
 21
226.575851
 31
0.0
  0
LINE
  8
0
  6
CONTINUOUS
 62
   249
 10
185.243279
 20
227.911204
 30
0.0
 11
187.589045
 21
226.575851
 31
0.0
  0
LINE
  8
0
  6
CONTINUOUS
 62
   249
 10
187.589045
 20
226.575851
 30
0.0
 11
185.243279
 21
225.385931
 31
0.0
  0
LINE
  8
0
  6
CONTINUOUS
 62
   249
 10
187.573846
 20
236.075411
 30
0.0
 11
185.228081
 21
234.885492
 31
0.0
  0
LINE
  8
0
  6
CONTINUOUS
 62
   249
 10
185.228081
 20
237.410765
 30
0.0
 11
187.573846
 21
236.075411
 31
0.0
  0
TEXT
  8
0
  6
CONTINUOUS
 62
   249
 10
182.679694
 20
234.79306
 30
0.0
 40
2.5
  1
U
  0
LINE
  8
0
  6
CONTINUOUS
 62
   249
 10
207.5
 20
240.0
 30
0.0
 11
207.5
 21
170.232891
 31
0.0
  0
LINE
  8
0
  6
CONTINUOUS
 62
   249
 10
180.704503
 20
228.546133
 30
0.0
 11
175.0
 21
228.546133
 31
0.0
  0
LINE
  8
0
  6
CONTINUOUS
 62
   249
 10
180.704503
 20
233.546133
 30
0.0
 11
180.704503
 21
228.546133
 31
0.0
  0
LINE
  8
0
  6
CONTINUOUS
 62
   249
 10
175.0
 20
233.546133
 30
0.0
 11
180.704503
 21
233.546133
 31
0.0
  0
TEXT
  8
0
  6
CONTINUOUS
 62
   249
 10
178.993319
 20
229.861176
 30
0.0
 40
2.5
  1
1
 11
178.993319
 21
229.027843
 31
0.0
 73
     1
  0
LINE
  8
0
  6
CONTINUOUS
 62
   249
 10
175.79196
 20
232.52127
 30
0.0
 11
178.137726
 21
231.185916
 31
0.0
  0
LINE
  8
0
  6
CONTINUOUS
 62
   249
 10
175.783918
 20
229.195983
 30
0.0
 11
178.167379
 21
230.384175
 31
0.0
  0
LINE
  8
0
  6
CONTINUOUS
 62
   249
 10
178.137726
 20
231.185916
 30
0.0
 11
175.79196
 21
229.995997
 31
0.0
  0
LINE
  8
0
  6
CONTINUOUS
 62
   249
 10
196.828035
 20
210.117497
 30
0.0
 11
196.828035
 21
208.329366
 31
0.0
  0
LINE
  8
0
  6
CONTINUOUS
 62
   249
 10
193.873922
 20
211.470381
 30
0.0
 11
194.774599
 21
210.346632
 31
0.0
  0
ARC
  8
0
  6
HIDDEN
 62
   249
 10
195.739239
 20
213.200763
 30
0.0
 40
4.998196
 50
206.402922
 51
282.21115
  0
LINE
  8
0
  6
CONTINUOUS
 62
   249
 10
191.428515
 20
208.104616
 30
0.0
 11
194.304626
 21
210.933174
 31
0.0
  0
LINE
  8
0
  6
CONTINUOUS
 62
   249
 10
189.044371
 20
209.272218
 30
0.0
 11
196.832576
 21
209.272218
 31
0.0
  0
LINE
  8
0
  6
CONTINUOUS
 62
   249
 10
189.013339
 20
210.117497
 30
0.0
 11
189.013339
 21
208.329366
 31
0.0
  0
LINE
  8
0
  6
CONTINUOUS
 62
   249
 10
175.0
 20
197.5
 30
0.0
 11
175.0
 21
192.5
 31
0.0
  0
LINE
  8
0
  6
CONTINUOUS
 62
   249
 10
197.5
 20
215.0
 30
0.0
 11
197.5
 21
240.0
 31
0.0
  0
LINE
  8
0
  6
CONTINUOUS
 62
   249
 10
175.0
 20
240.0
 30
0.0
 11
207.5
 21
240.0
 31
0.0
  0
LINE
  8
0
  6
CONTINUOUS
 62
   249
 10
175.0
 20
235.0
 30
0.0
 11
175.0
 21
240.0
 31
0.0
  0
LINE
  8
0
  6
CONTINUOUS
 62
   249
 10
196.554661
 20
219.14241
 30
0.0
 11
196.554661
 21
217.354278
 31
0.0
  0
LINE
  8
0
  6
CONTINUOUS
 62
   249
 10
193.577129
 20
220.495294
 30
0.0
 11
194.477806
 21
219.371545
 31
0.0
  0
LINE
  8
0
  6
CONTINUOUS
 62
   249
 10
191.155141
 20
217.129529
 30
0.0
 11
194.031252
 21
219.958087
 31
0.0
  0
LINE
  8
0
  6
CONTINUOUS
 62
   249
 10
188.770997
 20
218.297131
 30
0.0
 11
196.559202
 21
218.297131
 31
0.0
  0
LINE
  8
0
  6
CONTINUOUS
 62
   249
 10
188.739965
 20
219.14241
 30
0.0
 11
188.739965
 21
217.354278
 31
0.0
  0
LINE
  8
0
  6
CONTINUOUS
 62
   249
 10
188.739965
 20
200.275083
 30
0.0
 11
188.739965
 21
198.486952
 31
0.0
  0
LINE
  8
0
  6
CONTINUOUS
 62
   249
 10
188.770997
 20
199.429805
 30
0.0
 11
196.559202
 21
199.429805
 31
0.0
  0
LINE
  8
0
  6
CONTINUOUS
 62
   249
 10
191.155141
 20
198.262202
 30
0.0
 11
194.031252
 21
201.09076
 31
0.0
  0
LINE
  8
0
  6
CONTINUOUS
 62
   249
 10
193.577129
 20
201.627967
 30
0.0
 11
194.477806
 21
200.504218
 31
0.0
  0
LINE
  8
0
  6
CONTINUOUS
 62
   249
 10
196.554661
 20
200.275083
 30
0.0
 11
196.554661
 21
198.486952
 31
0.0
  0
LINE
  8
0
  6
CONTINUOUS
 62
   249
 10
175.0
 20
222.5
 30
0.0
 11
197.5
 21
222.5
 31
0.0
  0
TEXT
  8
0
  6
CONTINUOUS
 62
   249
 10
201.841301
 20
209.892817
 30
0.0
 40
2.5
  1
U2
  0
LINE
  8
0
  6
CONTINUOUS
 62
   249
 10
197.5
 20
215.0
 30
0.0
 11
197.5
 21
175.0
 31
0.0
  0
LINE
  8
0
  6
CONTINUOUS
 62
   249
 10
195.0
 20
215.0
 30
0.0
 11
207.5
 21
215.0
 31
0.0
  0
LINE
  8
0
  6
CONTINUOUS
 62
   249
 10
175.0
 20
215.0
 30
0.0
 11
195.0
 21
215.0
 31
0.0
  0
LINE
  8
0
  6
CONTINUOUS
 62
   249
 10
175.0
 20
195.0
 30
0.0
 11
207.5
 21
195.0
 31
0.0
  0
TEXT
  8
0
  6
CONTINUOUS
 62
   249
 10
201.841301
 20
235.823751
 30
0.0
 40
2.5
  1
U1
  0
TEXT
  8
0
  6
CONTINUOUS
 62
   249
 10
199.027117
 20
201.052589
 30
0.0
 40
2.5
  1
3I
  0
LINE
  8
0
  6
CONTINUOUS
 62
   249
 10
175.0
 20
215.0
 30
0.0
 11
175.0
 21
170.232891
 31
0.0
  0
LINE
  8
0
  6
CONTINUOUS
 62
   249
 10
175.0
 20
230.0
 30
0.0
 11
175.0
 21
235.0
 31
0.0
  0
LINE
  8
0
  6
CONTINUOUS
 62
   249
 10
175.0
 20
230.0
 30
0.0
 11
175.0
 21
215.0
 31
0.0
  0
LINE
  8
0
  6
CONTINUOUS
 62
   249
 10
179.351142
 20
210.614176
 30
0.0
 11
181.696908
 21
209.278822
 31
0.0
  0
LINE
  8
0
  6
CONTINUOUS
 62
   249
 10
181.696908
 20
209.278822
 30
0.0
 11
179.351142
 21
208.088903
 31
0.0
  0
TEXT
  8
0
  6
CONTINUOUS
 62
   249
 10
176.835932
 20
208.108326
 30
0.0
 40
2.5
  1
I
 11
176.835932
 21
207.274992
 31
0.0
 73
     1
  0
TEXT
  8
0
  6
CONTINUOUS
 62
   249
 10
176.820715
 20
198.231649
 30
0.0
 40
2.5
  1
I
 11
176.820715
 21
197.398316
 31
0.0
 73
     1
  0
LINE
  8
0
  6
CONTINUOUS
 62
   249
 10
183.349589
 20
199.402145
 30
0.0
 11
181.003823
 21
198.212226
 31
0.0
  0
LINE
  8
0
  6
CONTINUOUS
 62
   249
 10
181.003823
 20
200.737499
 30
0.0
 11
183.349589
 21
199.402145
 31
0.0
  0
LINE
  8
0
  6
CONTINUOUS
 62
   249
 10
179.123002
 20
200.737499
 30
0.0
 11
181.468768
 21
199.402145
 31
0.0
  0
LINE
  8
0
  6
CONTINUOUS
 62
   249
 10
181.468768
 20
199.402145
 30
0.0
 11
179.123002
 21
198.212226
 31
0.0
  0
LINE
  8
0
  6
CONTINUOUS
 62
   249
 10
203.510049
 20
203.526301
 30
0.0
 11
205.855814
 21
202.190948
 31
0.0
  0
LINE
  8
0
  6
CONTINUOUS
 62
   249
 10
205.855814
 20
202.190948
 30
0.0
 11
203.510049
 21
201.001029
 31
0.0
  0
CIRCLE
  8
0
  6
CONTINUOUS
 62
   249
 10
174.012659
 20
172.498324
 30
0.0
 40
1.0
  0
LINE
  8
0
  6
CONTINUOUS
 62
   249
 10
175.0
 20
175.0
 30
0.0
 11
207.5
 21
175.0
 31
0.0
  0
TEXT
  8
0
  6
CONTINUOUS
 62
   249
 10
186.908766
 20
171.295815
 30
0.0
 40
2.5
  1
IRF
 11
186.908766
 21
170.462481
 31
0.0
 73
     1
  0
LINE
  8
0
  6
CONTINUOUS
 62
   249
 10
175.0
 20
170.232891
 30
0.0
 11
207.5
 21
170.232891
 31
0.0
  0
LINE
  8
0
  6
CONTINUOUS
 62
   249
 10
247.5
 20
157.5
 30
0.0
 11
252.5
 21
157.5
 31
0.0
  0
LINE
  8
0
  6
CONTINUOUS
 62
   249
 10
247.5
 20
152.5
 30
0.0
 11
252.5
 21
152.5
 31
0.0
  0
LINE
  8
0
  6
CONTINUOUS
 62
   249
 10
247.5
 20
147.5
 30
0.0
 11
252.5
 21
147.5
 31
0.0
  0
TEXT
  8
0
  6
CONTINUOUS
 62
   249
 10
248.151429
 20
154.489936
 30
0.0
 40
2.0
  1
15
  0
TEXT
  8
0
  6
CONTINUOUS
 62
   249
 10
248.151429
 20
149.657833
 30
0.0
 40
2.0
  1
14
  0
TEXT
  8
0
  6
CONTINUOUS
 62
   249
 10
248.151429
 20
144.715525
 30
0.0
 40
2.0
  1
13
  0
TEXT
  8
0
  6
DASHED
 62
   249
 10
248.136213
 20
134.470094
 30
0.0
 40
2.0
  1
30
  0
TEXT
  8
0
  6
DASHED
 62
   249
 10
248.136213
 20
129.671052
 30
0.0
 40
2.0
  1
29
  0
TEXT
  8
0
  6
DASHED
 62
   249
 10
248.136213
 20
124.673642
 30
0.0
 40
2.0
  1
28
  0
LINE
  8
0
 62
   249
 10
267.5
 20
157.5
 30
0.0
 11
270.0
 21
157.5
 31
0.0
  0
CIRCLE
  8
0
  6
CONTINUOUS
 62
   249
 10
275.949551
 20
157.471218
 30
0.0
 40
1.0
  0
LINE
  8
0
  6
CONTINUOUS
 62
   249
 10
276.949137
 20
157.5
 30
0.0
 11
285.0
 21
157.5
 31
0.0
  0
LINE
  8
0
  6
CONTINUOUS
 62
   249
 10
276.949137
 20
147.5
 30
0.0
 11
285.0
 21
147.5
 31
0.0
  0
CIRCLE
  8
0
  6
CONTINUOUS
 62
   249
 10
275.949551
 20
147.471218
 30
0.0
 40
1.0
  0
LINE
  8
0
 62
   249
 10
267.5
 20
147.5
 30
0.0
 11
270.0
 21
147.5
 31
0.0
  0
LINE
  8
0
  6
CONTINUOUS
 62
   249
 10
267.5
 20
147.5
 30
0.0
 11
252.5
 21
147.5
 31
0.0
  0
LINE
  8
0
  6
CONTINUOUS
 62
   249
 10
267.5
 20
157.5
 30
0.0
 11
258.5
 21
157.5
 31
0.0
  0
TEXT
  8
0
  6
CONTINUOUS
 62
   249
 10
259.270001
 20
158.624188
 30
0.0
 40
2.0
  1
6)
  0
LINE
  8
0
  6
CONTINUOUS
 62
   249
 10
258.5
 20
159.0
 30
0.0
 11
257.5
 21
160.0
 31
0.0
  0
LINE
  8
0
  6
CONTINUOUS
 62
   249
 10
258.5
 20
159.0
 30
0.0
 11
258.5
 21
152.0
 31
0.0
  0
LINE
  8
0
  6
CONTINUOUS
 62
   249
 10
258.5
 20
152.0
 30
0.0
 11
257.5
 21
151.0
 31
0.0
  0
LINE
  8
0
  6
CONTINUOUS
 62
   249
 10
252.5
 20
152.5
 30
0.0
 11
256.766471
 21
152.5
 31
0.0
  0
LINE
  8
0
  6
CONTINUOUS
 62
   249
 10
252.5
 20
157.5
 30
0.0
 11
256.766471
 21
157.5
 31
0.0
  0
TEXT
  8
0
  6
DASHED
 62
   249
 10
260.659046
 20
154.394926
 30
0.0
 40
2.0
  1
RU
  0
TEXT
  8
0
  6
DASHED
 62
   249
 10
260.659046
 20
144.383248
 30
0.0
 40
2.0
  1
SU
  0
TEXT
  8
0
  6
DASHED
 62
   249
 10
260.64383
 20
134.707512
 30
0.0
 40
2.0
  1
NU
  0
TEXT
  8
0
  6
DASHED
 62
   249
 10
260.64383
 20
124.232977
 30
0.0
 40
2.0
  1
NU
  0
TEXT
  8
0
  6
DASHED
 62
   249
 10
267.232392
 20
124.249179
 30
0.0
 40
2.0
  1
13B
  0
TEXT
  8
0
  6
DASHED
 62
   249
 10
278.324914
 20
123.554896
 30
0.0
 40
2.0
  1
13A
  0
CIRCLE
  8
0
  6
CONTINUOUS
 62
   249
 10
321.521608
 20
165.0
 30
0.0
 40
2.5
  0
CIRCLE
  8
0
  6
CONTINUOUS
 62
   249
 10
325.0
 20
165.0
 30
0.0
 40
2.5
  0
LINE
  8
0
  6
DASHED
 62
   249
 10
319.021608
 20
165.0
 30
0.0
 11
312.5
 21
165.0
 31
0.0
  0
LINE
  8
0
  6
DASHED
 62
   249
 10
312.5
 20
165.0
 30
0.0
 11
312.5
 21
132.5
 31
0.0
  0
LINE
  8
0
  6
DASHED
 62
   249
 10
327.5
 20
165.0
 30
0.0
 11
335.0
 21
165.0
 31
0.0
  0
LINE
  8
0
  6
CONTINUOUS
 62
   249
 10
333.915095
 20
152.5
 30
0.0
 11
333.915095
 21
157.5
 31
0.0
  0
LINE
  8
0
  6
CONTINUOUS
 62
   249
 10
336.084905
 20
152.5
 30
0.0
 11
333.915095
 21
152.5
 31
0.0
  0
LINE
  8
0
  6
CONTINUOUS
 62
   249
 10
336.084905
 20
157.5
 30
0.0
 11
336.084905
 21
152.5
 31
0.0
  0
LINE
  8
0
  6
CONTINUOUS
 62
   249
 10
333.915095
 20
157.5
 30
0.0
 11
336.084905
 21
157.5
 31
0.0
  0
LINE
  8
0
  6
DASHED
 62
   249
 10
335.0
 20
152.5
 30
0.0
 11
335.0
 21
150.0
 31
0.0
  0
TEXT
  8
0
  6
DASHED
 62
   249
 10
307.311868
 20
226.738634
 30
0.0
 40
2.0
  1
108 SPAG 331
  0
TEXT
  8
0
  6
DASHED
 62
   249
 10
327.697412
 20
98.308764
 30
0.0
 40
2.0
  1
4) TRIP FROM EARTH-FAULT
  0
TEXT
  8
0
  6
DASHED
 62
   249
 10
328.94368
 20
94.975431
 30
0.0
 40
2.0
  1
  VOLTAGE MODULE
  0
TEXT
  8
0
  6
DASHED
 62
   249
 10
328.94368
 20
91.642098
 30
0.0
 40
2.0
  1
  UTLÖSNING FRÅN NOLLPUNTS-
  0
TEXT
  8
0
  6
DASHED
 62
   249
 10
328.94368
 20
88.308764
 30
0.0
 40
2.0
  1
  SPÄNNINGSRELÄMODUL
  0
TEXT
  8
0
  6
DASHED
 62
   249
 10
338.401773
 20
41.267524
 30
0.0
 40
2.0
  1
12B
  0
TEXT
  8
0
  6
DASHED
 62
   249
 10
351.837154
 20
41.267524
 30
0.0
 40
2.0
  1
29
  0
TEXT
  8
0
  6
DASHED
 62
   249
 10
366.108446
 20
41.267524
 30
0.0
 40
2.0
  1
30
  0
TEXT
  8
0
  6
DASHED
 62
   249
 10
322.5
 20
27.5
 30
0.0
 40
2.0
  1
CIRCUIT DIAGRAM / KRETSSCHEMA
  0
TEXT
  8
0
  6
DASHED
 62
   249
 10
322.5
 20
24.166667
 30
0.0
 40
2.0
  1
SPAG 331 WITH TEST SWITCH
  0
TEXT
  8
0
  6
DASHED
 62
   249
 10
322.5
 20
20.833333
 30
0.0
 40
2.0
  1
SPAG 331 MED PROVDON
  0
TEXT
  8
0
  6
DASHED
 62
   249
 10
325.0
 20
2.5
 30
0.0
 40
2.5
  1
RS 10026-AA
  0
LINE
  8
0
  6
CONTINUOUS
 62
   249
 10
207.5
 20
63.981994
 30
0.0
 11
209.941393
 21
70.66287
 31
0.0
  0
LINE
  8
0
  6
CONTINUOUS
 62
   249
 10
207.498096
 20
70.000029
 30
0.0
 11
210.272251
 21
70.000029
 31
0.0
  0
LINE
  8
0
  6
CONTINUOUS
 62
   249
 10
209.941393
 20
70.66287
 30
0.0
 11
209.055695
 21
71.107763
 31
0.0
  0
LINE
  8
0
  6
CONTINUOUS
 62
   249
 10
41.018006
 20
140.0
 30
0.0
 11
34.33713
 21
142.441393
 31
0.0
  0
LINE
  8
0
  6
CONTINUOUS
 62
   249
 10
34.999971
 20
139.998096
 30
0.0
 11
34.999971
 21
142.772251
 31
0.0
  0
LINE
  8
0
  6
CONTINUOUS
 62
   249
 10
34.999971
 20
119.998096
 30
0.0
 11
34.999971
 21
122.772251
 31
0.0
  0
LINE
  8
0
  6
CONTINUOUS
 62
   249
 10
41.018006
 20
120.0
 30
0.0
 11
34.33713
 21
122.441393
 31
0.0
  0
LINE
  8
0
  6
CONTINUOUS
 62
   249
 10
34.999971
 20
99.998096
 30
0.0
 11
34.999971
 21
102.772251
 31
0.0
  0
LINE
  8
0
  6
CONTINUOUS
 62
   249
 10
41.018006
 20
100.0
 30
0.0
 11
34.33713
 21
102.441393
 31
0.0
  0
CIRCLE
  8
0
  6
CONTINUOUS
 62
   249
 10
46.693548
 20
137.5
 30
0.0
 40
0.73338
  0
CIRCLE
  8
0
  6
CONTINUOUS
 62
   249
 10
46.693548
 20
117.5
 30
0.0
 40
0.73338
  0
CIRCLE
  8
0
  6
CONTINUOUS
 62
   249
 10
46.693548
 20
97.5
 30
0.0
 40
0.73338
  0
LINE
  8
0
  6
CONTINUOUS
 62
   249
 10
200.0
 20
63.981994
 30
0.0
 11
202.441393
 21
70.66287
 31
0.0
  0
LINE
  8
0
  6
CONTINUOUS
 62
   249
 10
199.998096
 20
70.000029
 30
0.0
 11
202.772251
 21
70.000029
 31
0.0
  0
LINE
  8
0
  6
CONTINUOUS
 62
   249
 10
197.441393
 20
70.66287
 30
0.0
 11
196.555695
 21
71.107763
 31
0.0
  0
LINE
  8
0
  6
CONTINUOUS
 62
   249
 10
195.0
 20
63.981994
 30
0.0
 11
197.441393
 21
70.66287
 31
0.0
  0
LINE
  8
0
  6
CONTINUOUS
 62
   249
 10
194.998096
 20
70.000029
 30
0.0
 11
197.772251
 21
70.000029
 31
0.0
  0
LINE
  8
0
  6
CONTINUOUS
 62
   249
 10
270.0
 20
147.482972
 30
0.0
 11
270.0
 21
150.265661
 31
0.0
  0
LINE
  8
0
  6
CONTINUOUS
 62
   249
 10
269.102827
 20
149.934804
 30
0.0
 11
268.657934
 21
149.049106
 31
0.0
  0
LINE
  8
0
  6
CONTINUOUS
 62
   249
 10
269.102827
 20
149.934804
 30
0.0
 11
275.0
 21
147.5
 31
0.0
  0
LINE
  8
0
  6
CONTINUOUS
 62
   249
 10
269.102827
 20
159.934804
 30
0.0
 11
275.0
 21
157.5
 31
0.0
  0
LINE
  8
0
  6
CONTINUOUS
 62
   249
 10
269.102827
 20
159.934804
 30
0.0
 11
268.657934
 21
159.049106
 31
0.0
  0
LINE
  8
0
  6
CONTINUOUS
 62
   249
 10
270.0
 20
157.482972
 30
0.0
 11
270.0
 21
160.265661
 31
0.0
  0
LINE
  8
0
  6
CONTINUOUS
 62
   249
 10
270.0
 20
127.482972
 30
0.0
 11
270.0
 21
130.265661
 31
0.0
  0
LINE
  8
0
  6
CONTINUOUS
 62
   249
 10
269.102827
 20
129.934804
 30
0.0
 11
268.657934
 21
129.049106
 31
0.0
  0
LINE
  8
0
  6
CONTINUOUS
 62
   249
 10
269.102827
 20
129.934804
 30
0.0
 11
275.0
 21
127.5
 31
0.0
  0
LINE
  8
0
  6
CONTINUOUS
 62
   249
 10
269.102827
 20
139.934804
 30
0.0
 11
275.0
 21
137.5
 31
0.0
  0
LINE
  8
0
  6
CONTINUOUS
 62
   249
 10
269.102827
 20
139.934804
 30
0.0
 11
268.657934
 21
139.049106
 31
0.0
  0
LINE
  8
0
  6
CONTINUOUS
 62
   249
 10
270.0
 20
137.482972
 30
0.0
 11
270.0
 21
140.265661
 31
0.0
  0
TEXT
  8
0
  6
DASHED
 62
   249
 10
307.585434
 20
230.584744
 30
0.0
 40
2.0
  1
RK 926 115-AS
  0
LINE
  8
0
  6
CONTINUOUS
 62
   249
 10
371.65991
 20
200.199
 30
0.0
 11
374.005675
 21
198.863646
 31
0.0
  0
LINE
  8
0
  6
CONTINUOUS
 62
   249
 10
374.005675
 20
198.863646
 30
0.0
 11
371.65991
 21
197.673727
 31
0.0
  0
LINE
  8
0
  6
CONTINUOUS
 62
   249
 10
375.537388
 20
189.29554
 30
0.0
 11
373.191622
 21
188.105621
 31
0.0
  0
LINE
  8
0
  6
CONTINUOUS
 62
   249
 10
373.191622
 20
190.630894
 30
0.0
 11
375.537388
 21
189.29554
 31
0.0
  0
LINE
  8
0
  6
CONTINUOUS
 62
   249
 10
371.43177
 20
190.630894
 30
0.0
 11
373.777535
 21
189.29554
 31
0.0
  0
LINE
  8
0
  6
CONTINUOUS
 62
   249
 10
373.777535
 20
189.29554
 30
0.0
 11
371.43177
 21
188.105621
 31
0.0
  0
TEXT
  8
0
  6
CONTINUOUS
 62
   249
 10
365.532827
 20
188.151948
 30
0.0
 40
2.5
  1
U
  0
TEXT
  8
0
  6
CONTINUOUS
 62
   249
 10
365.882797
 20
197.618448
 30
0.0
 40
2.5
  1
U
  0
TEXT
  8
0
  6
DASHED
 62
   249
 10
360.926636
 20
169.612213
 30
0.0
 40
2.0
  1
GENERATORSKYDD
  0
TEXT
  8
0
  6
DASHED
 62
   249
 10
360.926636
 20
172.945546
 30
0.0
 40
2.0
  1
PROTECTION
  0
TEXT
  8
0
  6
DASHED
 62
   249
 10
360.926636
 20
176.278879
 30
0.0
 40
2.0
  1
GENERATOR
  0
LINE
  8
0
  6
CONTINUOUS
 62
   249
 10
360.0
 20
182.5
 30
0.0
 11
380.0
 21
182.5
 31
0.0
  0
LINE
  8
0
  6
CONTINUOUS
 62
   249
 10
365.600275
 20
195.206143
 30
0.0
 11
365.600275
 21
193.418012
 31
0.0
  0
LINE
  8
0
  6
CONTINUOUS
 62
   249
 10
365.631307
 20
194.360865
 30
0.0
 11
373.419512
 21
194.360865
 31
0.0
  0
LINE
  8
0
  6
CONTINUOUS
 62
   249
 10
370.460859
 20
196.559027
 30
0.0
 11
371.361536
 21
195.435278
 31
0.0
  0
LINE
  8
0
  6
CONTINUOUS
 62
   249
 10
368.015452
 20
193.193262
 30
0.0
 11
370.891562
 21
196.021821
 31
0.0
  0
LINE
  8
0
  6
CONTINUOUS
 62
   249
 10
373.414971
 20
195.206143
 30
0.0
 11
373.414971
 21
193.418012
 31
0.0
  0
LINE
  8
0
  6
CONTINUOUS
 62
   249
 10
373.414971
 20
185.552173
 30
0.0
 11
373.414971
 21
183.764041
 31
0.0
  0
LINE
  8
0
  6
CONTINUOUS
 62
   249
 10
370.460859
 20
186.905057
 30
0.0
 11
371.361536
 21
185.781308
 31
0.0
  0
LINE
  8
0
  6
CONTINUOUS
 62
   249
 10
368.015452
 20
183.539291
 30
0.0
 11
370.891562
 21
186.36785
 31
0.0
  0
LINE
  8
0
  6
CONTINUOUS
 62
   249
 10
365.631307
 20
184.706894
 30
0.0
 11
373.419512
 21
184.706894
 31
0.0
  0
LINE
  8
0
  6
CONTINUOUS
 62
   249
 10
365.600275
 20
185.552173
 30
0.0
 11
365.600275
 21
183.764041
 31
0.0
  0
LINE
  8
0
  6
CONTINUOUS
 62
   249
 10
365.561603
 20
226.628388
 30
0.0
 11
365.561603
 21
224.840256
 31
0.0
  0
LINE
  8
0
  6
CONTINUOUS
 62
   249
 10
365.592635
 20
225.783109
 30
0.0
 11
373.38084
 21
225.783109
 31
0.0
  0
LINE
  8
0
  6
CONTINUOUS
 62
   249
 10
367.976779
 20
224.615506
 30
0.0
 11
370.85289
 21
227.444065
 31
0.0
  0
LINE
  8
0
  6
CONTINUOUS
 62
   249
 10
370.398767
 20
227.981272
 30
0.0
 11
371.299444
 21
226.857523
 31
0.0
  0
LINE
  8
0
  6
CONTINUOUS
 62
   249
 10
373.376298
 20
226.628388
 30
0.0
 11
373.376298
 21
224.840256
 31
0.0
  0
LINE
  8
0
  6
CONTINUOUS
 62
   249
 10
373.376298
 20
235.146501
 30
0.0
 11
373.376298
 21
233.35837
 31
0.0
  0
LINE
  8
0
  6
CONTINUOUS
 62
   249
 10
370.398767
 20
236.499385
 30
0.0
 11
371.299444
 21
235.375636
 31
0.0
  0
LINE
  8
0
  6
CONTINUOUS
 62
   249
 10
367.976779
 20
233.13362
 30
0.0
 11
370.85289
 21
235.962178
 31
0.0
  0
LINE
  8
0
  6
CONTINUOUS
 62
   249
 10
365.592635
 20
234.301223
 30
0.0
 11
373.38084
 21
234.301223
 31
0.0
  0
LINE
  8
0
  6
CONTINUOUS
 62
   249
 10
365.561603
 20
235.146501
 30
0.0
 11
365.561603
 21
233.35837
 31
0.0
  0
LINE
  8
0
  6
CONTINUOUS
 62
   249
 10
370.853754
 20
229.567362
 30
0.0
 11
372.129882
 21
229.064486
 31
0.0
  0
LINE
  8
0
  6
CONTINUOUS
 62
   249
 10
372.129882
 20
230.061011
 30
0.0
 11
370.853754
 21
229.567362
 31
0.0
  0
LINE
  8
0
  6
CONTINUOUS
 62
   249
 10
372.129882
 20
229.562748
 30
0.0
 11
372.129882
 21
229.064486
 31
0.0
  0
LINE
  8
0
  6
CONTINUOUS
 62
   249
 10
372.129882
 20
229.562748
 30
0.0
 11
372.129882
 21
230.061011
 31
0.0
  0
LINE
  8
0
  6
CONTINUOUS
 62
   249
 10
370.87228
 20
229.563562
 30
0.0
 11
374.696237
 21
229.563562
 31
0.0
  0
TEXT
  8
0
  6
CONTINUOUS
 62
   249
 10
368.039335
 20
228.397957
 30
0.0
 40
2.5
  1
P
  0
LINE
  8
0
  6
CONTINUOUS
 62
   249
 10
373.193211
 20
239.065916
 30
0.0
 11
370.847445
 21
237.875997
 31
0.0
  0
LINE
  8
0
  6
CONTINUOUS
 62
   249
 10
370.847445
 20
240.40127
 30
0.0
 11
373.193211
 21
239.065916
 31
0.0
  0
LINE
  8
0
  6
CONTINUOUS
 62
   249
 10
372.607298
 20
240.40127
 30
0.0
 11
374.953063
 21
239.065916
 31
0.0
  0
LINE
  8
0
  6
CONTINUOUS
 62
   249
 10
374.953063
 20
239.065916
 30
0.0
 11
372.607298
 21
237.875997
 31
0.0
  0
TEXT
  8
0
  6
CONTINUOUS
 62
   249
 10
367.943096
 20
237.783565
 30
0.0
 40
2.5
  1
U
  0
LINE
  8
0
  6
CONTINUOUS
 62
   249
 10
365.561603
 20
244.365043
 30
0.0
 11
365.561603
 21
242.576912
 31
0.0
  0
LINE
  8
0
  6
CONTINUOUS
 62
   249
 10
365.592635
 20
243.519764
 30
0.0
 11
373.38084
 21
243.519764
 31
0.0
  0
LINE
  8
0
  6
CONTINUOUS
 62
   249
 10
367.976779
 20
242.352162
 30
0.0
 11
370.85289
 21
245.18072
 31
0.0
  0
LINE
  8
0
  6
CONTINUOUS
 62
   249
 10
370.398767
 20
245.717927
 30
0.0
 11
371.299444
 21
244.594178
 31
0.0
  0
LINE
  8
0
  6
CONTINUOUS
 62
   249
 10
373.376298
 20
244.365043
 30
0.0
 11
373.376298
 21
242.576912
 31
0.0
  0
TEXT
  8
0
  6
CONTINUOUS
 62
   249
 10
367.927497
 20
247.29306
 30
0.0
 40
2.5
  1
U
  0
LINE
  8
0
  6
CONTINUOUS
 62
   249
 10
373.427186
 20
248.575411
 30
0.0
 11
371.08142
 21
247.385492
 31
0.0
  0
LINE
  8
0
  6
CONTINUOUS
 62
   249
 10
371.08142
 20
249.910765
 30
0.0
 11
373.427186
 21
248.575411
 31
0.0
  0
LINE
  8
0
  6
CONTINUOUS
 62
   249
 10
360.0
 20
202.5
 30
0.0
 11
380.0
 21
202.5
 31
0.0
  0
LINE
  8
0
  6
CONTINUOUS
 62
   249
 10
360.0
 20
182.5
 30
0.0
 11
360.0
 21
252.5
 31
0.0
  0
LINE
  8
0
  6
CONTINUOUS
 62
   249
 10
380.0
 20
252.5
 30
0.0
 11
380.0
 21
182.5
 31
0.0
  0
LINE
  8
0
  6
CONTINUOUS
 62
   249
 10
360.0
 20
252.5
 30
0.0
 11
380.0
 21
252.5
 31
0.0
  0
LINE
  8
0
  6
CONTINUOUS
 62
   249
 10
360.0
 20
222.5
 30
0.0
 11
380.0
 21
222.5
 31
0.0
  0
LINE
  8
0
  6
CONTINUOUS
 62
   249
 10
365.600275
 20
205.552173
 30
0.0
 11
365.600275
 21
203.764041
 31
0.0
  0
LINE
  8
0
  6
CONTINUOUS
 62
   249
 10
365.631307
 20
204.706894
 30
0.0
 11
373.419512
 21
204.706894
 31
0.0
  0
LINE
  8
0
  6
CONTINUOUS
 62
   249
 10
368.015452
 20
203.539291
 30
0.0
 11
370.891562
 21
206.36785
 31
0.0
  0
LINE
  8
0
  6
CONTINUOUS
 62
   249
 10
370.460859
 20
206.905057
 30
0.0
 11
371.361536
 21
205.781308
 31
0.0
  0
LINE
  8
0
  6
CONTINUOUS
 62
   249
 10
373.414971
 20
205.552173
 30
0.0
 11
373.414971
 21
203.764041
 31
0.0
  0
LINE
  8
0
  6
CONTINUOUS
 62
   249
 10
375.198722
 20
209.50956
 30
0.0
 11
372.852956
 21
208.319641
 31
0.0
  0
LINE
  8
0
  6
CONTINUOUS
 62
   249
 10
372.852956
 20
210.844914
 30
0.0
 11
375.198722
 21
209.50956
 31
0.0
  0
LINE
  8
0
  6
CONTINUOUS
 62
   249
 10
371.093104
 20
210.844914
 30
0.0
 11
373.438869
 21
209.50956
 31
0.0
  0
LINE
  8
0
  6
CONTINUOUS
 62
   249
 10
373.438869
 20
209.50956
 30
0.0
 11
371.093104
 21
208.319641
 31
0.0
  0
TEXT
  8
0
  6
DASHED
 62
   249
 10
366.443359
 20
208.282752
 30
0.0
 40
2.5
  1
3I
  0
LINE
  8
0
  6
CONTINUOUS
 62
   249
 10
373.414971
 20
215.206143
 30
0.0
 11
373.414971
 21
213.418012
 31
0.0
  0
LINE
  8
0
  6
CONTINUOUS
 62
   249
 10
368.015452
 20
213.193262
 30
0.0
 11
370.891562
 21
216.021821
 31
0.0
  0
ARC
  8
0
  6
HIDDEN
 62
   249
 10
372.326175
 20
218.289409
 30
0.0
 40
4.998196
 50
206.402922
 51
282.21115
  0
LINE
  8
0
  6
CONTINUOUS
 62
   249
 10
370.460859
 20
216.559027
 30
0.0
 11
371.361536
 21
215.435278
 31
0.0
  0
LINE
  8
0
  6
CONTINUOUS
 62
   249
 10
365.631307
 20
214.360865
 30
0.0
 11
373.419512
 21
214.360865
 31
0.0
  0
LINE
  8
0
  6
CONTINUOUS
 62
   249
 10
365.600275
 20
215.206143
 30
0.0
 11
365.600275
 21
213.418012
 31
0.0
  0
LINE
  8
0
  6
CONTINUOUS
 62
   249
 10
373.196345
 20
219.4814
 30
0.0
 11
370.850579
 21
218.291481
 31
0.0
  0
LINE
  8
0
  6
CONTINUOUS
 62
   249
 10
370.850579
 20
220.816754
 30
0.0
 11
373.196345
 21
219.4814
 31
0.0
  0
TEXT
  8
0
  6
DASHED
 62
   249
 10
366.443359
 20
218.268474
 30
0.0
 40
2.5
  1
3I
  0
TEXT
  8
0
  6
DASHED
 62
   249
 10
380.0
 20
2.5
 30
0.0
 40
2.5
  1
B
  0
LINE
  8
0
  6
CONTINUOUS
 62
   249
 10
196.414159
 20
227.333126
 30
0.0
 11
196.414159
 21
225.90262
 31
0.0
  0
LINE
  8
0
  6
CONTINUOUS
 62
   249
 10
194.050869
 20
228.415433
 30
0.0
 11
194.771411
 21
227.516434
 31
0.0
  0
LINE
  8
0
  6
CONTINUOUS
 62
   249
 10
192.094544
 20
225.722821
 30
0.0
 11
194.395432
 21
227.985668
 31
0.0
  0
LINE
  8
0
  6
CONTINUOUS
 62
   249
 10
190.187228
 20
226.656903
 30
0.0
 11
196.417792
 21
226.656903
 31
0.0
  0
LINE
  8
0
  6
CONTINUOUS
 62
   249
 10
190.162403
 20
227.333126
 30
0.0
 11
190.162403
 21
225.90262
 31
0.0
  0
TEXT
  8
0
  6
CONTINUOUS
 62
   249
 10
50.083725
 20
1.537342
 30
0.0
 40
2.0
  1
REDRAWN WITH AUTOCAD  1992-05-18 JR / RITU Power
  0
TEXT
  8
0
  6
DASHED
 62
   249
 10
292.559556
 20
12.154511
 30
0.0
 40
3.0
  1
A3
  7
GREEKS
  0
TEXT
  8
0
  6
DASHED
 62
   249
 10
352.160939
 20
16.033682
 30
0.0
 40
1.4
  1
LEHTI SHEET
  7
GREEKS
  0
LINE
  8
0
 62
   249
 10
0.579461
 20
263.079152
 30
0.0
 11
392.579461
 21
263.079152
 31
0.0
  0
LINE
  8
0
 62
   249
 10
18.579461
 20
0.579152
 30
0.0
 11
0.579461
 21
0.579152
 31
0.0
  0
LINE
  8
0
 62
   249
 10
209.579461
 20
0.579152
 30
0.0
 11
392.579461
 21
0.579152
 31
0.0
  0
LINE
  8
0
 62
   249
 10
209.579461
 20
0.579152
 30
0.0
 11
209.579461
 21
35.579152
 31
0.0
  0
LINE
  8
0
 62
   249
 10
392.579461
 20
0.579152
 30
0.0
 11
392.579461
 21
35.579152
 31
0.0
  0
LINE
  8
0
 62
   249
 10
209.579461
 20
18.579152
 30
0.0
 11
392.579461
 21
18.579152
 31
0.0
  0
LINE
  8
0
 62
   249
 10
209.579461
 20
10.079152
 30
0.0
 11
392.579461
 21
10.079152
 31
0.0
  0
LINE
  8
0
 62
   249
 10
209.579461
 20
27.079152
 30
0.0
 11
307.579461
 21
27.079152
 31
0.0
  0
LINE
  8
0
 62
   249
 10
209.579461
 20
35.579152
 30
0.0
 11
392.579461
 21
35.579152
 31
0.0
  0
TEXT
  8
0
 62
   249
 10
210.579461
 20
24.312485
 30
0.0
 40
1.4
  1
TARKASTI  CHECKED
  7
ROMANS
  0
TEXT
  8
0
 62
   249
 10
210.322296
 20
16.045818
 30
0.0
 40
1.4
  1
HYVÄKSYI  APPROVED
  7
ROMANS
  0
LINE
  8
0
 62
   249
 10
307.579461
 20
0.579152
 30
0.0
 11
307.579461
 21
35.579152
 31
0.0
  0
TEXT
  8
0
 62
   249
 10
259.579461
 20
33.079152
 30
0.0
 40
1.4
  1
LIITTYY  CONCERNING
  7
ROMANS
  0
TEXT
  8
0
 62
   249
 10
259.579461
 20
24.079152
 30
0.0
 40
1.4
  1
TOLERANSSIT  TOLERANCES
  7
ROMANS
  0
TEXT
  8
0
 62
   249
 10
259.579461
 20
16.079152
 30
0.0
 40
1.4
  1
SUHDE  SCALE
  7
ROMANS
  0
TEXT
  8
0
 62
   249
 10
309.579461
 20
33.079152
 30
0.0
 40
1.4
  1
NIMITYS  NAME
  7
ROMANS
  0
TEXT
  8
0
 62
   249
 10
309.579461
 20
16.079152
 30
0.0
 40
1.4
  1
KOODI  CODE
  7
ROMANS
  0
TEXT
  8
0
 62
   249
 10
309.579461
 20
7.579152
 30
0.0
 40
1.4
  1
PIIRUSTUS NO  DRAWING NR
  7
ROMANS
  0
LINE
  8
0
 62
   249
 10
350.079461
 20
10.079152
 30
0.0
 11
350.079461
 21
18.579152
 31
0.0
  0
TEXT
  8
0
 62
   249
 10
371.579461
 20
7.579152
 30
0.0
 40
1.4
  1
PAINOS  REVISION
  7
ROMANS
  0
LINE
  8
0
 62
   249
 10
370.079461
 20
10.079152
 30
0.0
 11
370.079461
 21
0.579152
 31
0.0
  0
LINE
  8
0
 62
   249
 10
210.529461
 20
2.079152
 30
0.0
 11
212.279461
 21
2.079152
 31
0.0
  0
LINE
  8
0
 62
   249
 10
215.779461
 20
2.079152
 30
0.0
 11
217.529461
 21
2.079152
 31
0.0
  0
LINE
  8
0
 62
   249
 10
212.979461
 20
9.079152
 30
0.0
 11
211.801933
 21
5.714786
 31
0.0
  0
LINE
  8
0
 62
   249
 10
212.768248
 20
3.479152
 30
0.0
 11
213.889461
 21
3.479152
 31
0.0
  0
LINE
  8
0
 62
   249
 10
212.768251
 20
3.475694
 30
0.0
 11
212.279461
 21
2.079152
 31
0.0
  0
LINE
  8
0
 62
   249
 10
215.079461
 20
9.079152
 30
0.0
 11
216.255814
 21
5.718143
 31
0.0
  0
LINE
  8
0
 62
   249
 10
215.290559
 20
3.476015
 30
0.0
 11
215.779461
 21
2.079152
 31
0.0
  0
LINE
  8
0
 62
   249
 10
215.079461
 20
9.079152
 30
0.0
 11
214.169461
 21
9.079152
 31
0.0
  0
LINE
  8
0
 62
   249
 10
213.889461
 20
9.079152
 30
0.0
 11
213.889461
 21
5.719152
 31
0.0
  0
LINE
  8
0
 62
   249
 10
214.169461
 20
9.079152
 30
0.0
 11
214.169461
 21
5.719152
 31
0.0
  0
LINE
  8
0
 62
   249
 10
214.169461
 20
3.479152
 30
0.0
 11
215.289354
 21
3.479152
 31
0.0
  0
LINE
  8
0
 62
   249
 10
213.889461
 20
9.079152
 30
0.0
 11
212.979461
 21
9.079152
 31
0.0
  0
LINE
  8
0
 62
   249
 10
211.801402
 20
5.719152
 30
0.0
 11
213.889461
 21
5.719152
 31
0.0
  0
LINE
  8
0
 62
   249
 10
211.702443
 20
5.439152
 30
0.0
 11
213.889461
 21
5.439152
 31
0.0
  0
LINE
  8
0
 62
   249
 10
216.353953
 20
5.437746
 30
0.0
 11
217.529461
 21
2.079152
 31
0.0
  0
LINE
  8
0
 62
   249
 10
214.169461
 20
5.719152
 30
0.0
 11
216.254575
 21
5.719152
 31
0.0
  0
LINE
  8
0
 62
   249
 10
214.169461
 20
5.439152
 30
0.0
 11
216.352717
 21
5.439152
 31
0.0
  0
LINE
  8
0
 62
   249
 10
214.169461
 20
5.439152
 30
0.0
 11
214.169461
 21
3.479152
 31
0.0
  0
LINE
  8
0
 62
   249
 10
213.889461
 20
5.439152
 30
0.0
 11
213.889461
 21
3.479152
 31
0.0
  0
LINE
  8
0
 62
   249
 10
211.69935
 20
5.421691
 30
0.0
 11
210.529461
 21
2.079152
 31
0.0
  0
INSERT
  8
0
 62
   249
  2
*X16
 10
210.529461
 20
2.079152
 30
0.0
 41
0.7
 42
0.7
 43
0.7
  0
INSERT
  8
0
 62
   249
  2
*X17
 10
210.529461
 20
2.079152
 30
0.0
 41
0.7
 42
0.7
 43
0.7
  0
INSERT
  8
0
 62
   249
  2
*X18
 10
210.529461
 20
2.079152
 30
0.0
 41
0.7
 42
0.7
 43
0.7
  0
INSERT
  8
0
 62
   249
  2
*X19
 10
210.529461
 20
2.079152
 30
0.0
 41
0.7
 42
0.7
 43
0.7
  0
LINE
  8
0
 62
   249
 10
218.019461
 20
2.079152
 30
0.0
 11
218.019461
 21
5.439152
 31
0.0
  0
LINE
  8
0
 62
   249
 10
218.019461
 20
9.079152
 30
0.0
 11
219.979461
 21
9.079152
 31
0.0
  0
LINE
  8
0
 62
   249
 10
219.979461
 20
9.079152
 30
0.0
 11
219.979461
 21
5.719152
 31
0.0
  0
LINE
  8
0
 62
   249
 10
219.979461
 20
5.719152
 30
0.0
 11
218.019461
 21
5.719152
 31
0.0
  0
LINE
  8
0
 62
   249
 10
218.019461
 20
5.439152
 30
0.0
 11
219.979461
 21
5.439152
 31
0.0
  0
LINE
  8
0
 62
   249
 10
219.979461
 20
5.439152
 30
0.0
 11
219.979461
 21
2.079152
 31
0.0
  0
LINE
  8
0
 62
   249
 10
219.979461
 20
2.079152
 30
0.0
 11
218.019461
 21
2.079152
 31
0.0
  0
LINE
  8
0
 62
   249
 10
218.019461
 20
5.719152
 30
0.0
 11
218.019461
 21
9.079152
 31
0.0
  0
ARC
  8
0
 62
   249
 10
220.819461
 20
7.504152
 30
0.0
 40
1.575
 50
298.455859
 51
90.052437
  0
LINE
  8
0
 62
   249
 10
220.259461
 20
9.079152
 30
0.0
 11
220.818019
 21
9.079151
 31
0.0
  0
LINE
  8
0
 62
   249
 10
220.259461
 20
9.079152
 30
0.0
 11
220.259461
 21
5.719152
 31
0.0
  0
LINE
  8
0
 62
   249
 10
220.259461
 20
5.719152
 30
0.0
 11
222.243904
 21
5.719152
 31
0.0
  0
LINE
  8
0
 62
   249
 10
222.499461
 20
5.439152
 30
0.0
 11
220.259461
 21
5.439152
 31
0.0
  0
LINE
  8
0
 62
   249
 10
220.259461
 20
5.439152
 30
0.0
 11
220.259461
 21
2.079152
 31
0.0
  0
ARC
  8
0
 62
   249
 10
220.819461
 20
4.179152
 30
0.0
 40
2.1
 50
269.937724
 51
37.056553
  0
LINE
  8
0
 62
   249
 10
220.259461
 20
2.079152
 30
0.0
 11
220.817178
 21
2.079153
 31
0.0
  0
ARC
  8
0
 62
   249
 10
220.819461
 20
4.179152
 30
0.0
 40
2.1
 50
47.28622
 51
68.787999
  0
INSERT
  8
0
 62
   249
  2
*X20
 10
210.529461
 20
2.079152
 30
0.0
 41
0.7
 42
0.7
 43
0.7
  0
INSERT
  8
0
 62
   249
  2
*X21
 10
210.529461
 20
2.079152
 30
0.0
 41
0.7
 42
0.7
 43
0.7
  0
INSERT
  8
0
 62
   249
  2
*X22
 10
210.529461
 20
2.079152
 30
0.0
 41
0.7
 42
0.7
 43
0.7
  0
INSERT
  8
0
 62
   249
  2
*X23
 10
210.529461
 20
2.079152
 30
0.0
 41
0.7
 42
0.7
 43
0.7
  0
INSERT
  8
0
 62
   249
  2
*X23
 10
215.989461
 20
2.079152
 30
0.0
 41
0.7
 42
0.7
 43
0.7
  0
INSERT
  8
0
 62
   249
  2
*X22
 10
215.989461
 20
2.079152
 30
0.0
 41
0.7
 42
0.7
 43
0.7
  0
INSERT
  8
0
 62
   249
  2
*X21
 10
215.989461
 20
2.079152
 30
0.0
 41
0.7
 42
0.7
 43
0.7
  0
INSERT
  8
0
 62
   249
  2
*X20
 10
215.989461
 20
2.079152
 30
0.0
 41
0.7
 42
0.7
 43
0.7
  0
ARC
  8
0
 62
   249
 10
226.279461
 20
4.179152
 30
0.0
 40
2.1
 50
47.28622
 51
68.787999
  0
LINE
  8
0
 62
   249
 10
225.719461
 20
2.079152
 30
0.0
 11
226.277178
 21
2.079153
 31
0.0
  0
ARC
  8
0
 62
   249
 10
226.279461
 20
4.179152
 30
0.0
 40
2.1
 50
269.937724
 51
37.056553
  0
LINE
  8
0
 62
   249
 10
225.719461
 20
5.439152
 30
0.0
 11
225.719461
 21
2.079152
 31
0.0
  0
LINE
  8
0
 62
   249
 10
227.959461
 20
5.439152
 30
0.0
 11
225.719461
 21
5.439152
 31
0.0
  0
LINE
  8
0
 62
   249
 10
225.719461
 20
5.719152
 30
0.0
 11
227.703904
 21
5.719152
 31
0.0
  0
LINE
  8
0
 62
   249
 10
225.719461
 20
9.079152
 30
0.0
 11
225.719461
 21
5.719152
 31
0.0
  0
LINE
  8
0
 62
   249
 10
225.719461
 20
9.079152
 30
0.0
 11
226.278019
 21
9.079151
 31
0.0
  0
ARC
  8
0
 62
   249
 10
226.279461
 20
7.504152
 30
0.0
 40
1.575
 50
298.455859
 51
90.052437
  0
LINE
  8
0
 62
   249
 10
223.479461
 20
5.719152
 30
0.0
 11
223.479461
 21
9.079152
 31
0.0
  0
LINE
  8
0
 62
   249
 10
225.439461
 20
2.079152
 30
0.0
 11
223.479461
 21
2.079152
 31
0.0
  0
LINE
  8
0
 62
   249
 10
225.439461
 20
5.439152
 30
0.0
 11
225.439461
 21
2.079152
 31
0.0
  0
LINE
  8
0
 62
   249
 10
223.479461
 20
5.439152
 30
0.0
 11
225.439461
 21
5.439152
 31
0.0
  0
LINE
  8
0
 62
   249
 10
225.439461
 20
5.719152
 30
0.0
 11
223.479461
 21
5.719152
 31
0.0
  0
LINE
  8
0
 62
   249
 10
225.439461
 20
9.079152
 30
0.0
 11
225.439461
 21
5.719152
 31
0.0
  0
LINE
  8
0
 62
   249
 10
223.479461
 20
9.079152
 30
0.0
 11
225.439461
 21
9.079152
 31
0.0
  0
LINE
  8
0
 62
   249
 10
223.479461
 20
2.079152
 30
0.0
 11
223.479461
 21
5.439152
 31
0.0
  0
TEXT
  8
0
 62
   249
 10
230.079461
 20
2.079152
 30
0.0
 40
3.0
  1
ABB 
 41
0.8
  7
ROMANS
  0
TEXT
  8
0
 62
   249
 10
238.079461
 20
2.079152
 30
0.0
 40
3.0
  1
Strömberg
 41
0.8
  7
ROMANS
  0
LINE
  8
0
 62
   249
 10
282.579461
 20
10.079152
 30
0.0
 11
282.579461
 21
18.579152
 31
0.0
  0
TEXT
  8
0
 62
   249
 10
28.079461
 20
5.079152
 30
0.0
 40
1.4
  1
MUUTOS
  7
ROMANS
  0
TEXT
  8
0
 62
   249
 10
28.079461
 20
2.812485
 30
0.0
 40
1.4
  1
REVISION
  7
ROMANS
  0
LINE
  8
0
 62
   249
 10
47.079461
 20
9.579152
 30
0.0
 11
209.579461
 21
9.579152
 31
0.0
  0
LINE
  8
0
 62
   249
 10
47.079461
 20
0.579152
 30
0.0
 11
47.079461
 21
9.579152
 31
0.0
  0
LINE
  8
0
 62
   249
 10
41.079461
 20
5.079152
 30
0.0
 11
209.579461
 21
5.079152
 31
0.0
  0
LINE
  8
0
 62
   249
 10
257.579461
 20
10.079152
 30
0.0
 11
257.579461
 21
35.579152
 31
0.0
  0
LINE
  8
0
 62
   249
 10
271.579461
 20
10.079152
 30
0.0
 11
271.579461
 21
0.579152
 31
0.0
  0
TEXT
  8
0
 62
   249
 10
210.579461
 20
32.579152
 30
0.0
 40
1.4
  1
TEKI  PREPARED
  7
ROMANS
  0
TEXT
  8
0
 62
   249
 10
273.579461
 20
7.579152
 30
0.0
 40
1.4
  1
VAST.OSASTO RESP.DEPT.
  7
ROMANS
  0
TEXT
  8
0
 62
   249
 10
257.749368
 20
2.082935
 30
0.0
 40
3.0
  1
Power
 41
0.8
  7
ROMANS
  0
TEXT
  8
0
 62
   249
 10
42.579461
 20
1.536444
 30
0.0
 40
2.5
  1
B
  7
ROMANS
  0
TEXT
  8
0
 62
   249
 10
42.579461
 20
5.928661
 30
0.0
 40
2.5
  1
C
  7
ROMANS
  0
LINE
  8
0
 62
   249
 10
0.579461
 20
0.579152
 30
0.0
 11
392.579461
 21
0.579152
 31
0.0
  0
LINE
  8
0
 62
   249
 10
392.579461
 20
263.079152
 30
0.0
 11
392.579461
 21
0.579152
 31
0.0
  0
LINE
  8
0
 62
   249
 10
0.579461
 20
0.579152
 30
0.0
 11
0.579461
 21
263.079152
 31
0.0
  0
ARC
  8
0
  6
DASHED
 62
   249
 10
49.003383
 20
120.0
 30
0.0
 40
0.5
 50
180.0
 51
0.0
  0
ARC
  8
0
  6
DASHED
 62
   249
 10
49.003383
 20
120.0
 30
0.0
 40
0.5
 50
0.0
 51
180.0
  0
TEXT
  8
0
  6
CONTINUOUS
 62
   249
 10
169.353328
 20
41.513635
 30
0.0
 40
2.0
  1
+
  0
TEXT
  8
0
  6
CONTINUOUS
 62
   249
 10
194.353328
 20
41.513635
 30
0.0
 40
2.0
  1
+
  0
ARC
  8
0
  6
DASHED
 62
   249
 10
180.0
 20
75.0
 30
0.0
 40
0.5
 50
180.0
 51
0.0
  0
ARC
  8
0
  6
DASHED
 62
   249
 10
180.0
 20
75.0
 30
0.0
 40
0.5
 50
0.0
 51
180.0
  0
ARC
  8
0
  6
DASHED
 62
   249
 10
185.0
 20
75.0
 30
0.0
 40
0.5
 50
180.0
 51
0.0
  0
ARC
  8
0
  6
DASHED
 62
   249
 10
185.0
 20
75.0
 30
0.0
 40
0.5
 50
0.0
 51
180.0
  0
ARC
  8
0
  6
DASHED
 62
   249
 10
190.0
 20
75.0
 30
0.0
 40
0.5
 50
180.0
 51
0.0
  0
ARC
  8
0
  6
DASHED
 62
   249
 10
190.0
 20
75.0
 30
0.0
 40
0.5
 50
0.0
 51
180.0
  0
ARC
  8
0
  6
DASHED
 62
   249
 10
195.0
 20
75.0
 30
0.0
 40
0.5
 50
180.0
 51
0.0
  0
ARC
  8
0
  6
DASHED
 62
   249
 10
195.0
 20
75.0
 30
0.0
 40
0.5
 50
0.0
 51
180.0
  0
ARC
  8
0
  6
DASHED
 62
   249
 10
49.003383
 20
140.0
 30
0.0
 40
0.5
 50
180.0
 51
0.0
  0
ARC
  8
0
  6
DASHED
 62
   249
 10
49.003383
 20
140.0
 30
0.0
 40
0.5
 50
0.0
 51
180.0
  0
ARC
  8
0
  6
DASHED
 62
   249
 10
135.0
 20
190.0
 30
0.0
 40
0.5
 50
180.0
 51
0.0
  0
ARC
  8
0
  6
DASHED
 62
   249
 10
135.0
 20
190.0
 30
0.0
 40
0.5
 50
0.0
 51
180.0
  0
ARC
  8
0
  6
DASHED
 62
   249
 10
97.5
 20
200.0
 30
0.0
 40
0.5
 50
180.0
 51
0.0
  0
ARC
  8
0
  6
DASHED
 62
   249
 10
97.5
 20
200.0
 30
0.0
 40
0.5
 50
0.0
 51
180.0
  0
ARC
  8
0
  6
DASHED
 62
   249
 10
107.5
 20
210.0
 30
0.0
 40
0.5
 50
180.0
 51
0.0
  0
ARC
  8
0
  6
DASHED
 62
   249
 10
107.5
 20
210.0
 30
0.0
 40
0.5
 50
0.0
 51
180.0
  0
LINE
  8
0
  6
CONTINUOUS
 62
   249
 10
166.398107
 20
171.164646
 30
0.0
 11
164.052341
 21
172.5
 31
0.0
  0
LINE
  8
0
  6
CONTINUOUS
 62
   249
 10
164.052341
 20
172.5
 30
0.0
 11
166.398107
 21
173.689919
 31
0.0
  0
LINE
  8
0
  6
CONTINUOUS
 62
   249
 10
166.398107
 20
208.664646
 30
0.0
 11
164.052341
 21
210.0
 31
0.0
  0
LINE
  8
0
  6
CONTINUOUS
 62
   249
 10
164.052341
 20
210.0
 30
0.0
 11
166.398107
 21
211.189919
 31
0.0
  0
LINE
  8
0
  6
CONTINUOUS
 62
   249
 10
166.398107
 20
198.664646
 30
0.0
 11
164.052341
 21
200.0
 31
0.0
  0
LINE
  8
0
  6
CONTINUOUS
 62
   249
 10
164.052341
 20
200.0
 30
0.0
 11
166.398107
 21
201.189919
 31
0.0
  0
LINE
  8
0
  6
CONTINUOUS
 62
   249
 10
166.398107
 20
188.664646
 30
0.0
 11
164.052341
 21
190.0
 31
0.0
  0
LINE
  8
0
  6
CONTINUOUS
 62
   249
 10
164.052341
 20
190.0
 30
0.0
 11
166.398107
 21
191.189919
 31
0.0
  0
LINE
  8
0
  6
CONTINUOUS
 62
   249
 10
166.398107
 20
178.664646
 30
0.0
 11
164.052341
 21
180.0
 31
0.0
  0
LINE
  8
0
  6
CONTINUOUS
 62
   249
 10
164.052341
 20
180.0
 30
0.0
 11
166.398107
 21
181.189919
 31
0.0
  0
ARC
  8
0
  6
DASHED
 62
   249
 10
140.0
 20
180.0
 30
0.0
 40
0.5
 50
180.0
 51
0.0
  0
ARC
  8
0
  6
DASHED
 62
   249
 10
140.0
 20
180.0
 30
0.0
 40
0.5
 50
0.0
 51
180.0
  0
LINE
  8
0
  6
CONTINUOUS
 62
   249
 10
180.581645
 20
180.557228
 30
0.0
 11
180.581645
 21
179.202958
 31
0.0
  0
LINE
  8
0
  6
CONTINUOUS
 62
   249
 10
179.371418
 20
179.202958
 30
0.0
 11
180.565759
 21
179.202958
 31
0.0
  0
LINE
  8
0
  6
CONTINUOUS
 62
   249
 10
180.565759
 20
179.202958
 30
0.0
 11
181.7601
 21
179.202958
 31
0.0
  0
LINE
  8
0
  6
CONTINUOUS
 62
   249
 10
179.749823
 20
178.723348
 30
0.0
 11
181.334394
 21
178.723348
 31
0.0
  0
LINE
  8
0
  6
CONTINUOUS
 62
   249
 10
180.080927
 20
178.235173
 30
0.0
 11
180.967814
 21
178.235173
 31
0.0
  0
LINE
  8
0
  6
CONTINUOUS
 62
   249
 10
180.414463
 20
190.243884
 30
0.0
 11
180.414463
 21
188.889613
 31
0.0
  0
LINE
  8
0
  6
CONTINUOUS
 62
   249
 10
179.204235
 20
188.889613
 30
0.0
 11
180.398576
 21
188.889613
 31
0.0
  0
LINE
  8
0
  6
CONTINUOUS
 62
   249
 10
180.398576
 20
188.889613
 30
0.0
 11
181.592917
 21
188.889613
 31
0.0
  0
LINE
  8
0
  6
CONTINUOUS
 62
   249
 10
179.582641
 20
188.410003
 30
0.0
 11
181.167212
 21
188.410003
 31
0.0
  0
LINE
  8
0
  6
CONTINUOUS
 62
   249
 10
179.913745
 20
187.921828
 30
0.0
 11
180.800632
 21
187.921828
 31
0.0
  0
ARC
  8
0
  6
DASHED
 62
   249
 10
117.5
 20
230.858787
 30
0.0
 40
0.5
 50
180.0
 51
0.0
  0
ARC
  8
0
  6
DASHED
 62
   249
 10
117.5
 20
230.858787
 30
0.0
 40
0.5
 50
0.0
 51
180.0
  0
ARC
  8
0
  6
DASHED
 62
   249
 10
127.5
 20
218.799022
 30
0.0
 40
0.5
 50
180.0
 51
0.0
  0
ARC
  8
0
  6
DASHED
 62
   249
 10
127.5
 20
218.799022
 30
0.0
 40
0.5
 50
0.0
 51
180.0
  0
LINE
  8
0
  6
CONTINUOUS
 62
   249
 10
166.336574
 20
229.523433
 30
0.0
 11
163.990809
 21
230.858787
 31
0.0
  0
LINE
  8
0
  6
CONTINUOUS
 62
   249
 10
163.990809
 20
230.858787
 30
0.0
 11
166.336574
 21
232.048706
 31
0.0
  0
LINE
  8
0
  6
CONTINUOUS
 62
   249
 10
166.398107
 20
217.463669
 30
0.0
 11
164.052341
 21
218.799022
 31
0.0
  0
LINE
  8
0
  6
CONTINUOUS
 62
   249
 10
164.052341
 20
218.799022
 30
0.0
 11
166.398107
 21
219.988942
 31
0.0
  0
LINE
  8
0
  6
CONTINUOUS
 62
   249
 10
180.519614
 20
218.382059
 30
0.0
 11
180.980139
 21
218.930891
 31
0.0
  0
LINE
  8
0
  6
CONTINUOUS
 62
   249
 10
180.509803
 20
218.385925
 30
0.0
 11
180.960811
 21
218.923415
 31
0.0
  0
LINE
  8
0
  6
CONTINUOUS
 62
   249
 10
180.499993
 20
218.38979
 30
0.0
 11
180.941483
 21
218.915938
 31
0.0
  0
LINE
  8
0
  6
CONTINUOUS
 62
   249
 10
180.490183
 20
218.393656
 30
0.0
 11
180.922156
 21
218.908461
 31
0.0
  0
LINE
  8
0
  6
CONTINUOUS
 62
   249
 10
180.480373
 20
218.397522
 30
0.0
 11
180.902828
 21
218.900985
 31
0.0
  0
LINE
  8
0
  6
CONTINUOUS
 62
   249
 10
180.470562
 20
218.401388
 30
0.0
 11
180.8835
 21
218.893508
 31
0.0
  0
LINE
  8
0
  6
CONTINUOUS
 62
   249
 10
180.460752
 20
218.405254
 30
0.0
 11
180.864173
 21
218.886032
 31
0.0
  0
LINE
  8
0
  6
CONTINUOUS
 62
   249
 10
180.450942
 20
218.40912
 30
0.0
 11
180.844845
 21
218.878555
 31
0.0
  0
LINE
  8
0
  6
CONTINUOUS
 62
   249
 10
180.441132
 20
218.412986
 30
0.0
 11
180.825517
 21
218.871079
 31
0.0
  0
LINE
  8
0
  6
CONTINUOUS
 62
   249
 10
180.431322
 20
218.416851
 30
0.0
 11
180.80619
 21
218.863602
 31
0.0
  0
LINE
  8
0
  6
CONTINUOUS
 62
   249
 10
180.421511
 20
218.420717
 30
0.0
 11
180.786862
 21
218.856125
 31
0.0
  0
LINE
  8
0
  6
CONTINUOUS
 62
   249
 10
180.411701
 20
218.424583
 30
0.0
 11
180.767534
 21
218.848649
 31
0.0
  0
LINE
  8
0
  6
CONTINUOUS
 62
   249
 10
180.401891
 20
218.428449
 30
0.0
 11
180.748207
 21
218.841172
 31
0.0
  0
LINE
  8
0
  6
CONTINUOUS
 62
   249
 10
180.392081
 20
218.432315
 30
0.0
 11
180.728879
 21
218.833696
 31
0.0
  0
LINE
  8
0
  6
CONTINUOUS
 62
   249
 10
180.38227
 20
218.436181
 30
0.0
 11
180.709551
 21
218.826219
 31
0.0
  0
LINE
  8
0
  6
CONTINUOUS
 62
   249
 10
180.37246
 20
218.440047
 30
0.0
 11
180.690224
 21
218.818742
 31
0.0
  0
LINE
  8
0
  6
CONTINUOUS
 62
   249
 10
180.36265
 20
218.443912
 30
0.0
 11
180.670896
 21
218.811266
 31
0.0
  0
LINE
  8
0
  6
CONTINUOUS
 62
   249
 10
180.35284
 20
218.447778
 30
0.0
 11
180.651568
 21
218.803789
 31
0.0
  0
LINE
  8
0
  6
CONTINUOUS
 62
   249
 10
180.343029
 20
218.451644
 30
0.0
 11
180.632241
 21
218.796313
 31
0.0
  0
LINE
  8
0
  6
CONTINUOUS
 62
   249
 10
180.333219
 20
218.45551
 30
0.0
 11
180.612913
 21
218.788836
 31
0.0
  0
LINE
  8
0
  6
CONTINUOUS
 62
   249
 10
180.323409
 20
218.459376
 30
0.0
 11
180.593585
 21
218.781359
 31
0.0
  0
LINE
  8
0
  6
CONTINUOUS
 62
   249
 10
180.313599
 20
218.463242
 30
0.0
 11
180.574258
 21
218.773883
 31
0.0
  0
LINE
  8
0
  6
CONTINUOUS
 62
   249
 10
180.303789
 20
218.467108
 30
0.0
 11
180.55493
 21
218.766406
 31
0.0
  0
LINE
  8
0
  6
CONTINUOUS
 62
   249
 10
180.293978
 20
218.470973
 30
0.0
 11
180.535602
 21
218.75893
 31
0.0
  0
LINE
  8
0
  6
CONTINUOUS
 62
   249
 10
180.284168
 20
218.474839
 30
0.0
 11
180.516275
 21
218.751453
 31
0.0
  0
LINE
  8
0
  6
CONTINUOUS
 62
   249
 10
180.274358
 20
218.478705
 30
0.0
 11
180.496947
 21
218.743976
 31
0.0
  0
LINE
  8
0
  6
CONTINUOUS
 62
   249
 10
180.264548
 20
218.482571
 30
0.0
 11
180.477619
 21
218.7365
 31
0.0
  0
LINE
  8
0
  6
CONTINUOUS
 62
   249
 10
180.254737
 20
218.486437
 30
0.0
 11
180.458292
 21
218.729023
 31
0.0
  0
LINE
  8
0
  6
CONTINUOUS
 62
   249
 10
180.244927
 20
218.490303
 30
0.0
 11
180.438964
 21
218.721547
 31
0.0
  0
LINE
  8
0
  6
CONTINUOUS
 62
   249
 10
180.235117
 20
218.494169
 30
0.0
 11
180.419636
 21
218.71407
 31
0.0
  0
LINE
  8
0
  6
CONTINUOUS
 62
   249
 10
180.225307
 20
218.498034
 30
0.0
 11
180.400308
 21
218.706593
 31
0.0
  0
LINE
  8
0
  6
CONTINUOUS
 62
   249
 10
180.215496
 20
218.5019
 30
0.0
 11
180.380981
 21
218.699117
 31
0.0
  0
LINE
  8
0
  6
CONTINUOUS
 62
   249
 10
180.205686
 20
218.505766
 30
0.0
 11
180.361653
 21
218.69164
 31
0.0
  0
LINE
  8
0
  6
CONTINUOUS
 62
   249
 10
180.195876
 20
218.509632
 30
0.0
 11
180.342325
 21
218.684164
 31
0.0
  0
LINE
  8
0
  6
CONTINUOUS
 62
   249
 10
180.186066
 20
218.513498
 30
0.0
 11
180.322998
 21
218.676687
 31
0.0
  0
LINE
  8
0
  6
CONTINUOUS
 62
   249
 10
180.176256
 20
218.517364
 30
0.0
 11
180.30367
 21
218.669211
 31
0.0
  0
LINE
  8
0
  6
CONTINUOUS
 62
   249
 10
180.166445
 20
218.52123
 30
0.0
 11
180.284342
 21
218.661734
 31
0.0
  0
LINE
  8
0
  6
CONTINUOUS
 62
   249
 10
180.156635
 20
218.525095
 30
0.0
 11
180.265015
 21
218.654257
 31
0.0
  0
LINE
  8
0
  6
CONTINUOUS
 62
   249
 10
180.146825
 20
218.528961
 30
0.0
 11
180.245687
 21
218.646781
 31
0.0
  0
LINE
  8
0
  6
CONTINUOUS
 62
   249
 10
180.137015
 20
218.532827
 30
0.0
 11
180.226359
 21
218.639304
 31
0.0
  0
LINE
  8
0
  6
CONTINUOUS
 62
   249
 10
180.127204
 20
218.536693
 30
0.0
 11
180.207032
 21
218.631828
 31
0.0
  0
LINE
  8
0
  6
CONTINUOUS
 62
   249
 10
180.117394
 20
218.540559
 30
0.0
 11
180.187704
 21
218.624351
 31
0.0
  0
LINE
  8
0
  6
CONTINUOUS
 62
   249
 10
180.107584
 20
218.544425
 30
0.0
 11
180.168376
 21
218.616874
 31
0.0
  0
LINE
  8
0
  6
CONTINUOUS
 62
   249
 10
180.097774
 20
218.548291
 30
0.0
 11
180.149049
 21
218.609398
 31
0.0
  0
LINE
  8
0
  6
CONTINUOUS
 62
   249
 10
180.087963
 20
218.552156
 30
0.0
 11
180.129721
 21
218.601921
 31
0.0
  0
LINE
  8
0
  6
CONTINUOUS
 62
   249
 10
180.078153
 20
218.556022
 30
0.0
 11
180.110393
 21
218.594445
 31
0.0
  0
LINE
  8
0
  6
CONTINUOUS
 62
   249
 10
180.068343
 20
218.559888
 30
0.0
 11
180.091066
 21
218.586968
 31
0.0
  0
LINE
  8
0
  6
CONTINUOUS
 62
   249
 10
180.058533
 20
218.563754
 30
0.0
 11
180.071738
 21
218.579491
 31
0.0
  0
LINE
  8
0
  6
CONTINUOUS
 62
   249
 10
180.048723
 20
218.56762
 30
0.0
 11
180.05241
 21
218.572015
 31
0.0
  0
LINE
  8
0
  6
CONTINUOUS
 62
   249
 10
180.529424
 20
218.378193
 30
0.0
 11
180.999467
 21
218.938368
 31
0.0
  0
LINE
  8
0
  6
CONTINUOUS
 62
   249
 10
180.539234
 20
218.374327
 30
0.0
 11
181.018794
 21
218.945844
 31
0.0
  0
LINE
  8
0
  6
CONTINUOUS
 62
   249
 10
180.549044
 20
218.370461
 30
0.0
 11
181.038122
 21
218.953321
 31
0.0
  0
LINE
  8
0
  6
CONTINUOUS
 62
   249
 10
180.558855
 20
218.366595
 30
0.0
 11
181.05745
 21
218.960798
 31
0.0
  0
LINE
  8
0
  6
CONTINUOUS
 62
   249
 10
180.568665
 20
218.362729
 30
0.0
 11
181.076777
 21
218.968274
 31
0.0
  0
LINE
  8
0
  6
CONTINUOUS
 62
   249
 10
180.578475
 20
218.358864
 30
0.0
 11
181.096105
 21
218.975751
 31
0.0
  0
LINE
  8
0
  6
CONTINUOUS
 62
   249
 10
180.588285
 20
218.354998
 30
0.0
 11
181.115433
 21
218.983227
 31
0.0
  0
LINE
  8
0
  6
CONTINUOUS
 62
   249
 10
180.598095
 20
218.351132
 30
0.0
 11
181.13476
 21
218.990704
 31
0.0
  0
LINE
  8
0
  6
CONTINUOUS
 62
   249
 10
180.607906
 20
218.347266
 30
0.0
 11
181.154088
 21
218.998181
 31
0.0
  0
LINE
  8
0
  6
CONTINUOUS
 62
   249
 10
180.617716
 20
218.3434
 30
0.0
 11
181.173416
 21
219.005657
 31
0.0
  0
LINE
  8
0
  6
CONTINUOUS
 62
   249
 10
180.627526
 20
218.339534
 30
0.0
 11
181.192743
 21
219.013134
 31
0.0
  0
LINE
  8
0
  6
CONTINUOUS
 62
   249
 10
180.637336
 20
218.335668
 30
0.0
 11
181.212071
 21
219.02061
 31
0.0
  0
LINE
  8
0
  6
CONTINUOUS
 62
   249
 10
180.647147
 20
218.331803
 30
0.0
 11
181.231399
 21
219.028087
 31
0.0
  0
LINE
  8
0
  6
CONTINUOUS
 62
   249
 10
180.656957
 20
218.327937
 30
0.0
 11
181.250726
 21
219.035564
 31
0.0
  0
LINE
  8
0
  6
CONTINUOUS
 62
   249
 10
180.666767
 20
218.324071
 30
0.0
 11
181.270054
 21
219.04304
 31
0.0
  0
LINE
  8
0
  6
CONTINUOUS
 62
   249
 10
180.676577
 20
218.320205
 30
0.0
 11
181.289382
 21
219.050517
 31
0.0
  0
LINE
  8
0
  6
CONTINUOUS
 62
   249
 10
180.686388
 20
218.316339
 30
0.0
 11
181.308709
 21
219.057993
 31
0.0
  0
LINE
  8
0
  6
CONTINUOUS
 62
   249
 10
180.696198
 20
218.312473
 30
0.0
 11
181.321049
 21
219.057142
 31
0.0
  0
LINE
  8
0
  6
CONTINUOUS
 62
   249
 10
180.706008
 20
218.308607
 30
0.0
 11
181.321049
 21
219.041585
 31
0.0
  0
LINE
  8
0
  6
CONTINUOUS
 62
   249
 10
180.715818
 20
218.304742
 30
0.0
 11
181.321049
 21
219.026028
 31
0.0
  0
LINE
  8
0
  6
CONTINUOUS
 62
   249
 10
180.725629
 20
218.300876
 30
0.0
 11
181.321049
 21
219.010471
 31
0.0
  0
LINE
  8
0
  6
CONTINUOUS
 62
   249
 10
180.735439
 20
218.29701
 30
0.0
 11
181.321049
 21
218.994913
 31
0.0
  0
LINE
  8
0
  6
CONTINUOUS
 62
   249
 10
180.745249
 20
218.293144
 30
0.0
 11
181.321049
 21
218.979356
 31
0.0
  0
LINE
  8
0
  6
CONTINUOUS
 62
   249
 10
180.755059
 20
218.289278
 30
0.0
 11
181.321049
 21
218.963799
 31
0.0
  0
LINE
  8
0
  6
CONTINUOUS
 62
   249
 10
180.764869
 20
218.285412
 30
0.0
 11
181.321049
 21
218.948242
 31
0.0
  0
LINE
  8
0
  6
CONTINUOUS
 62
   249
 10
180.77468
 20
218.281546
 30
0.0
 11
181.321049
 21
218.932684
 31
0.0
  0
LINE
  8
0
  6
CONTINUOUS
 62
   249
 10
180.78449
 20
218.27768
 30
0.0
 11
181.321049
 21
218.917127
 31
0.0
  0
LINE
  8
0
  6
CONTINUOUS
 62
   249
 10
180.7943
 20
218.273815
 30
0.0
 11
181.321049
 21
218.90157
 31
0.0
  0
LINE
  8
0
  6
CONTINUOUS
 62
   249
 10
180.80411
 20
218.269949
 30
0.0
 11
181.321049
 21
218.886013
 31
0.0
  0
LINE
  8
0
  6
CONTINUOUS
 62
   249
 10
180.813921
 20
218.266083
 30
0.0
 11
181.321049
 21
218.870456
 31
0.0
  0
LINE
  8
0
  6
CONTINUOUS
 62
   249
 10
180.823731
 20
218.262217
 30
0.0
 11
181.321049
 21
218.854898
 31
0.0
  0
LINE
  8
0
  6
CONTINUOUS
 62
   249
 10
180.833541
 20
218.258351
 30
0.0
 11
181.321049
 21
218.839341
 31
0.0
  0
LINE
  8
0
  6
CONTINUOUS
 62
   249
 10
180.843351
 20
218.254485
 30
0.0
 11
181.321049
 21
218.823784
 31
0.0
  0
LINE
  8
0
  6
CONTINUOUS
 62
   249
 10
180.853162
 20
218.250619
 30
0.0
 11
181.321049
 21
218.808227
 31
0.0
  0
LINE
  8
0
  6
CONTINUOUS
 62
   249
 10
180.862972
 20
218.246754
 30
0.0
 11
181.321049
 21
218.792669
 31
0.0
  0
LINE
  8
0
  6
CONTINUOUS
 62
   249
 10
180.872782
 20
218.242888
 30
0.0
 11
181.321049
 21
218.777112
 31
0.0
  0
LINE
  8
0
  6
CONTINUOUS
 62
   249
 10
180.882592
 20
218.239022
 30
0.0
 11
181.321049
 21
218.761555
 31
0.0
  0
LINE
  8
0
  6
CONTINUOUS
 62
   249
 10
180.892402
 20
218.235156
 30
0.0
 11
181.321049
 21
218.745998
 31
0.0
  0
LINE
  8
0
  6
CONTINUOUS
 62
   249
 10
180.902213
 20
218.23129
 30
0.0
 11
181.321049
 21
218.73044
 31
0.0
  0
LINE
  8
0
  6
CONTINUOUS
 62
   249
 10
180.912023
 20
218.227424
 30
0.0
 11
181.321049
 21
218.714883
 31
0.0
  0
LINE
  8
0
  6
CONTINUOUS
 62
   249
 10
180.921833
 20
218.223558
 30
0.0
 11
181.321049
 21
218.699326
 31
0.0
  0
LINE
  8
0
  6
CONTINUOUS
 62
   249
 10
180.931643
 20
218.219693
 30
0.0
 11
181.321049
 21
218.683769
 31
0.0
  0
LINE
  8
0
  6
CONTINUOUS
 62
   249
 10
180.941454
 20
218.215827
 30
0.0
 11
181.321049
 21
218.668211
 31
0.0
  0
LINE
  8
0
  6
CONTINUOUS
 62
   249
 10
180.951264
 20
218.211961
 30
0.0
 11
181.321049
 21
218.652654
 31
0.0
  0
LINE
  8
0
  6
CONTINUOUS
 62
   249
 10
180.961074
 20
218.208095
 30
0.0
 11
181.321049
 21
218.637097
 31
0.0
  0
LINE
  8
0
  6
CONTINUOUS
 62
   249
 10
180.970884
 20
218.204229
 30
0.0
 11
181.321049
 21
218.62154
 31
0.0
  0
LINE
  8
0
  6
CONTINUOUS
 62
   249
 10
180.980695
 20
218.200363
 30
0.0
 11
181.321049
 21
218.605982
 31
0.0
  0
LINE
  8
0
  6
CONTINUOUS
 62
   249
 10
180.990505
 20
218.196497
 30
0.0
 11
181.321049
 21
218.590425
 31
0.0
  0
LINE
  8
0
  6
CONTINUOUS
 62
   249
 10
181.000315
 20
218.192632
 30
0.0
 11
181.321049
 21
218.574868
 31
0.0
  0
LINE
  8
0
  6
CONTINUOUS
 62
   249
 10
181.010125
 20
218.188766
 30
0.0
 11
181.321049
 21
218.559311
 31
0.0
  0
LINE
  8
0
  6
CONTINUOUS
 62
   249
 10
181.019935
 20
218.1849
 30
0.0
 11
181.321049
 21
218.543754
 31
0.0
  0
LINE
  8
0
  6
CONTINUOUS
 62
   249
 10
181.029746
 20
218.181034
 30
0.0
 11
181.321049
 21
218.528196
 31
0.0
  0
LINE
  8
0
  6
CONTINUOUS
 62
   249
 10
181.039556
 20
218.177168
 30
0.0
 11
181.321049
 21
218.512639
 31
0.0
  0
LINE
  8
0
  6
CONTINUOUS
 62
   249
 10
181.049366
 20
218.173302
 30
0.0
 11
181.321049
 21
218.497082
 31
0.0
  0
LINE
  8
0
  6
CONTINUOUS
 62
   249
 10
181.059176
 20
218.169436
 30
0.0
 11
181.321049
 21
218.481525
 31
0.0
  0
LINE
  8
0
  6
CONTINUOUS
 62
   249
 10
181.068987
 20
218.165571
 30
0.0
 11
181.321049
 21
218.465967
 31
0.0
  0
LINE
  8
0
  6
CONTINUOUS
 62
   249
 10
181.078797
 20
218.161705
 30
0.0
 11
181.321049
 21
218.45041
 31
0.0
  0
LINE
  8
0
  6
CONTINUOUS
 62
   249
 10
181.088607
 20
218.157839
 30
0.0
 11
181.321049
 21
218.434853
 31
0.0
  0
LINE
  8
0
  6
CONTINUOUS
 62
   249
 10
181.098417
 20
218.153973
 30
0.0
 11
181.321049
 21
218.419296
 31
0.0
  0
LINE
  8
0
  6
CONTINUOUS
 62
   249
 10
181.108228
 20
218.150107
 30
0.0
 11
181.321049
 21
218.403738
 31
0.0
  0
LINE
  8
0
  6
CONTINUOUS
 62
   249
 10
181.118038
 20
218.146241
 30
0.0
 11
181.321049
 21
218.388181
 31
0.0
  0
LINE
  8
0
  6
CONTINUOUS
 62
   249
 10
181.127848
 20
218.142375
 30
0.0
 11
181.321049
 21
218.372624
 31
0.0
  0
LINE
  8
0
  6
CONTINUOUS
 62
   249
 10
181.137658
 20
218.13851
 30
0.0
 11
181.321049
 21
218.357067
 31
0.0
  0
LINE
  8
0
  6
CONTINUOUS
 62
   249
 10
181.147468
 20
218.134644
 30
0.0
 11
181.321049
 21
218.341509
 31
0.0
  0
LINE
  8
0
  6
CONTINUOUS
 62
   249
 10
181.157279
 20
218.130778
 30
0.0
 11
181.321049
 21
218.325952
 31
0.0
  0
LINE
  8
0
  6
CONTINUOUS
 62
   249
 10
181.167089
 20
218.126912
 30
0.0
 11
181.321049
 21
218.310395
 31
0.0
  0
LINE
  8
0
  6
CONTINUOUS
 62
   249
 10
181.176899
 20
218.123046
 30
0.0
 11
181.321049
 21
218.294838
 31
0.0
  0
LINE
  8
0
  6
CONTINUOUS
 62
   249
 10
181.186709
 20
218.11918
 30
0.0
 11
181.321049
 21
218.27928
 31
0.0
  0
LINE
  8
0
  6
CONTINUOUS
 62
   249
 10
181.19652
 20
218.115314
 30
0.0
 11
181.321049
 21
218.263723
 31
0.0
  0
LINE
  8
0
  6
CONTINUOUS
 62
   249
 10
181.20633
 20
218.111449
 30
0.0
 11
181.321049
 21
218.248166
 31
0.0
  0
LINE
  8
0
  6
CONTINUOUS
 62
   249
 10
181.21614
 20
218.107583
 30
0.0
 11
181.321049
 21
218.232609
 31
0.0
  0
LINE
  8
0
  6
CONTINUOUS
 62
   249
 10
181.22595
 20
218.103717
 30
0.0
 11
181.321049
 21
218.217052
 31
0.0
  0
LINE
  8
0
  6
CONTINUOUS
 62
   249
 10
181.235761
 20
218.099851
 30
0.0
 11
181.321049
 21
218.201494
 31
0.0
  0
LINE
  8
0
  6
CONTINUOUS
 62
   249
 10
181.245571
 20
218.095985
 30
0.0
 11
181.321049
 21
218.185937
 31
0.0
  0
LINE
  8
0
  6
CONTINUOUS
 62
   249
 10
181.255381
 20
218.092119
 30
0.0
 11
181.321049
 21
218.17038
 31
0.0
  0
LINE
  8
0
  6
CONTINUOUS
 62
   249
 10
181.265191
 20
218.088253
 30
0.0
 11
181.321049
 21
218.154823
 31
0.0
  0
LINE
  8
0
  6
CONTINUOUS
 62
   249
 10
181.275001
 20
218.084388
 30
0.0
 11
181.321049
 21
218.139265
 31
0.0
  0
LINE
  8
0
  6
CONTINUOUS
 62
   249
 10
181.284812
 20
218.080522
 30
0.0
 11
181.321049
 21
218.123708
 31
0.0
  0
LINE
  8
0
  6
CONTINUOUS
 62
   249
 10
181.294622
 20
218.076656
 30
0.0
 11
181.321049
 21
218.108151
 31
0.0
  0
LINE
  8
0
  6
CONTINUOUS
 62
   249
 10
181.304432
 20
218.07279
 30
0.0
 11
181.321049
 21
218.092594
 31
0.0
  0
LINE
  8
0
  6
CONTINUOUS
 62
   249
 10
181.314242
 20
218.068924
 30
0.0
 11
181.321049
 21
218.077036
 31
0.0
  0
LINE
  8
0
  6
CONTINUOUS
 62
   249
 10
180.476672
 20
218.736133
 30
0.0
 11
181.234257
 21
218.100443
 31
0.0
  0
LINE
  8
0
  6
CONTINUOUS
 62
   249
 10
180.466023
 20
218.732014
 30
0.0
 11
181.204925
 21
218.112002
 31
0.0
  0
LINE
  8
0
  6
CONTINUOUS
 62
   249
 10
180.455375
 20
218.727895
 30
0.0
 11
181.175592
 21
218.123561
 31
0.0
  0
LINE
  8
0
  6
CONTINUOUS
 62
   249
 10
180.444727
 20
218.723776
 30
0.0
 11
181.146259
 21
218.13512
 31
0.0
  0
LINE
  8
0
  6
CONTINUOUS
 62
   249
 10
180.434078
 20
218.719657
 30
0.0
 11
181.116927
 21
218.146679
 31
0.0
  0
LINE
  8
0
  6
CONTINUOUS
 62
   249
 10
180.42343
 20
218.715538
 30
0.0
 11
181.087594
 21
218.158238
 31
0.0
  0
LINE
  8
0
  6
CONTINUOUS
 62
   249
 10
180.412782
 20
218.711419
 30
0.0
 11
181.058261
 21
218.169797
 31
0.0
  0
LINE
  8
0
  6
CONTINUOUS
 62
   249
 10
180.402134
 20
218.707299
 30
0.0
 11
181.028929
 21
218.181356
 31
0.0
  0
LINE
  8
0
  6
CONTINUOUS
 62
   249
 10
180.391485
 20
218.70318
 30
0.0
 11
180.999596
 21
218.192915
 31
0.0
  0
LINE
  8
0
  6
CONTINUOUS
 62
   249
 10
180.380837
 20
218.699061
 30
0.0
 11
180.970263
 21
218.204474
 31
0.0
  0
LINE
  8
0
  6
CONTINUOUS
 62
   249
 10
180.370189
 20
218.694942
 30
0.0
 11
180.940931
 21
218.216033
 31
0.0
  0
LINE
  8
0
  6
CONTINUOUS
 62
   249
 10
180.35954
 20
218.690823
 30
0.0
 11
180.911598
 21
218.227592
 31
0.0
  0
LINE
  8
0
  6
CONTINUOUS
 62
   249
 10
180.348892
 20
218.686704
 30
0.0
 11
180.882265
 21
218.239151
 31
0.0
  0
LINE
  8
0
  6
CONTINUOUS
 62
   249
 10
180.338244
 20
218.682585
 30
0.0
 11
180.852933
 21
218.25071
 31
0.0
  0
LINE
  8
0
  6
CONTINUOUS
 62
   249
 10
180.327596
 20
218.678466
 30
0.0
 11
180.8236
 21
218.262269
 31
0.0
  0
LINE
  8
0
  6
CONTINUOUS
 62
   249
 10
180.316947
 20
218.674347
 30
0.0
 11
180.794267
 21
218.273828
 31
0.0
  0
LINE
  8
0
  6
CONTINUOUS
 62
   249
 10
180.306299
 20
218.670228
 30
0.0
 11
180.764935
 21
218.285386
 31
0.0
  0
LINE
  8
0
  6
CONTINUOUS
 62
   249
 10
180.295651
 20
218.666108
 30
0.0
 11
180.735602
 21
218.296945
 31
0.0
  0
LINE
  8
0
  6
CONTINUOUS
 62
   249
 10
180.285003
 20
218.661989
 30
0.0
 11
180.70627
 21
218.308504
 31
0.0
  0
LINE
  8
0
  6
CONTINUOUS
 62
   249
 10
180.274354
 20
218.65787
 30
0.0
 11
180.676937
 21
218.320063
 31
0.0
  0
LINE
  8
0
  6
CONTINUOUS
 62
   249
 10
180.263706
 20
218.653751
 30
0.0
 11
180.647604
 21
218.331622
 31
0.0
  0
LINE
  8
0
  6
CONTINUOUS
 62
   249
 10
180.253058
 20
218.649632
 30
0.0
 11
180.618272
 21
218.343181
 31
0.0
  0
LINE
  8
0
  6
CONTINUOUS
 62
   249
 10
180.242409
 20
218.645513
 30
0.0
 11
180.588939
 21
218.35474
 31
0.0
  0
LINE
  8
0
  6
CONTINUOUS
 62
   249
 10
180.231761
 20
218.641394
 30
0.0
 11
180.559606
 21
218.366299
 31
0.0
  0
LINE
  8
0
  6
CONTINUOUS
 62
   249
 10
180.221113
 20
218.637275
 30
0.0
 11
180.530274
 21
218.377858
 31
0.0
  0
LINE
  8
0
  6
CONTINUOUS
 62
   249
 10
180.210465
 20
218.633156
 30
0.0
 11
180.500941
 21
218.389417
 31
0.0
  0
LINE
  8
0
  6
CONTINUOUS
 62
   249
 10
180.199816
 20
218.629036
 30
0.0
 11
180.471608
 21
218.400976
 31
0.0
  0
LINE
  8
0
  6
CONTINUOUS
 62
   249
 10
180.189168
 20
218.624917
 30
0.0
 11
180.442276
 21
218.412535
 31
0.0
  0
LINE
  8
0
  6
CONTINUOUS
 62
   249
 10
180.17852
 20
218.620798
 30
0.0
 11
180.412943
 21
218.424094
 31
0.0
  0
LINE
  8
0
  6
CONTINUOUS
 62
   249
 10
180.167872
 20
218.616679
 30
0.0
 11
180.38361
 21
218.435653
 31
0.0
  0
LINE
  8
0
  6
CONTINUOUS
 62
   249
 10
180.157223
 20
218.61256
 30
0.0
 11
180.354278
 21
218.447212
 31
0.0
  0
LINE
  8
0
  6
CONTINUOUS
 62
   249
 10
180.146575
 20
218.608441
 30
0.0
 11
180.324945
 21
218.458771
 31
0.0
  0
LINE
  8
0
  6
CONTINUOUS
 62
   249
 10
180.135927
 20
218.604322
 30
0.0
 11
180.295613
 21
218.470329
 31
0.0
  0
LINE
  8
0
  6
CONTINUOUS
 62
   249
 10
180.125278
 20
218.600203
 30
0.0
 11
180.26628
 21
218.481888
 31
0.0
  0
LINE
  8
0
  6
CONTINUOUS
 62
   249
 10
180.11463
 20
218.596084
 30
0.0
 11
180.236947
 21
218.493447
 31
0.0
  0
LINE
  8
0
  6
CONTINUOUS
 62
   249
 10
180.103982
 20
218.591964
 30
0.0
 11
180.207615
 21
218.505006
 31
0.0
  0
LINE
  8
0
  6
CONTINUOUS
 62
   249
 10
180.093334
 20
218.587845
 30
0.0
 11
180.178282
 21
218.516565
 31
0.0
  0
LINE
  8
0
  6
CONTINUOUS
 62
   249
 10
180.082685
 20
218.583726
 30
0.0
 11
180.148949
 21
218.528124
 31
0.0
  0
LINE
  8
0
  6
CONTINUOUS
 62
   249
 10
180.072037
 20
218.579607
 30
0.0
 11
180.119617
 21
218.539683
 31
0.0
  0
LINE
  8
0
  6
CONTINUOUS
 62
   249
 10
180.061389
 20
218.575488
 30
0.0
 11
180.090284
 21
218.551242
 31
0.0
  0
LINE
  8
0
  6
CONTINUOUS
 62
   249
 10
180.050741
 20
218.571369
 30
0.0
 11
180.060951
 21
218.562801
 31
0.0
  0
LINE
  8
0
  6
CONTINUOUS
 62
   249
 10
180.48732
 20
218.740252
 30
0.0
 11
181.26359
 21
218.088884
 31
0.0
  0
LINE
  8
0
  6
CONTINUOUS
 62
   249
 10
180.497968
 20
218.744371
 30
0.0
 11
181.292922
 21
218.077326
 31
0.0
  0
LINE
  8
0
  6
CONTINUOUS
 62
   249
 10
180.508616
 20
218.748491
 30
0.0
 11
181.321049
 21
218.066778
 31
0.0
  0
LINE
  8
0
  6
CONTINUOUS
 62
   249
 10
180.519265
 20
218.75261
 30
0.0
 11
181.321049
 21
218.079832
 31
0.0
  0
LINE
  8
0
  6
CONTINUOUS
 62
   249
 10
180.529913
 20
218.756729
 30
0.0
 11
181.321049
 21
218.092886
 31
0.0
  0
LINE
  8
0
  6
CONTINUOUS
 62
   249
 10
180.540561
 20
218.760848
 30
0.0
 11
181.321049
 21
218.105941
 31
0.0
  0
LINE
  8
0
  6
CONTINUOUS
 62
   249
 10
180.551209
 20
218.764967
 30
0.0
 11
181.321049
 21
218.118995
 31
0.0
  0
LINE
  8
0
  6
CONTINUOUS
 62
   249
 10
180.561858
 20
218.769086
 30
0.0
 11
181.321049
 21
218.132049
 31
0.0
  0
LINE
  8
0
  6
CONTINUOUS
 62
   249
 10
180.572506
 20
218.773205
 30
0.0
 11
181.321049
 21
218.145103
 31
0.0
  0
LINE
  8
0
  6
CONTINUOUS
 62
   249
 10
180.583154
 20
218.777324
 30
0.0
 11
181.321049
 21
218.158157
 31
0.0
  0
LINE
  8
0
  6
CONTINUOUS
 62
   249
 10
180.593803
 20
218.781443
 30
0.0
 11
181.321049
 21
218.171211
 31
0.0
  0
LINE
  8
0
  6
CONTINUOUS
 62
   249
 10
180.604451
 20
218.785563
 30
0.0
 11
181.321049
 21
218.184265
 31
0.0
  0
LINE
  8
0
  6
CONTINUOUS
 62
   249
 10
180.615099
 20
218.789682
 30
0.0
 11
181.321049
 21
218.197319
 31
0.0
  0
LINE
  8
0
  6
CONTINUOUS
 62
   249
 10
180.625747
 20
218.793801
 30
0.0
 11
181.321049
 21
218.210373
 31
0.0
  0
LINE
  8
0
  6
CONTINUOUS
 62
   249
 10
180.636396
 20
218.79792
 30
0.0
 11
181.321049
 21
218.223427
 31
0.0
  0
LINE
  8
0
  6
CONTINUOUS
 62
   249
 10
180.647044
 20
218.802039
 30
0.0
 11
181.321049
 21
218.236481
 31
0.0
  0
LINE
  8
0
  6
CONTINUOUS
 62
   249
 10
180.657692
 20
218.806158
 30
0.0
 11
181.321049
 21
218.249535
 31
0.0
  0
LINE
  8
0
  6
CONTINUOUS
 62
   249
 10
180.66834
 20
218.810277
 30
0.0
 11
181.321049
 21
218.262589
 31
0.0
  0
LINE
  8
0
  6
CONTINUOUS
 62
   249
 10
180.678989
 20
218.814396
 30
0.0
 11
181.321049
 21
218.275643
 31
0.0
  0
LINE
  8
0
  6
CONTINUOUS
 62
   249
 10
180.689637
 20
218.818515
 30
0.0
 11
181.321049
 21
218.288698
 31
0.0
  0
LINE
  8
0
  6
CONTINUOUS
 62
   249
 10
180.700285
 20
218.822635
 30
0.0
 11
181.321049
 21
218.301752
 31
0.0
  0
LINE
  8
0
  6
CONTINUOUS
 62
   249
 10
180.710934
 20
218.826754
 30
0.0
 11
181.321049
 21
218.314806
 31
0.0
  0
LINE
  8
0
  6
CONTINUOUS
 62
   249
 10
180.721582
 20
218.830873
 30
0.0
 11
181.321049
 21
218.32786
 31
0.0
  0
LINE
  8
0
  6
CONTINUOUS
 62
   249
 10
180.73223
 20
218.834992
 30
0.0
 11
181.321049
 21
218.340914
 31
0.0
  0
LINE
  8
0
  6
CONTINUOUS
 62
   249
 10
180.742878
 20
218.839111
 30
0.0
 11
181.321049
 21
218.353968
 31
0.0
  0
LINE
  8
0
  6
CONTINUOUS
 62
   249
 10
180.753527
 20
218.84323
 30
0.0
 11
181.321049
 21
218.367022
 31
0.0
  0
LINE
  8
0
  6
CONTINUOUS
 62
   249
 10
180.764175
 20
218.847349
 30
0.0
 11
181.321049
 21
218.380076
 31
0.0
  0
LINE
  8
0
  6
CONTINUOUS
 62
   249
 10
180.774823
 20
218.851468
 30
0.0
 11
181.321049
 21
218.39313
 31
0.0
  0
LINE
  8
0
  6
CONTINUOUS
 62
   249
 10
180.785471
 20
218.855587
 30
0.0
 11
181.321049
 21
218.406184
 31
0.0
  0
LINE
  8
0
  6
CONTINUOUS
 62
   249
 10
180.79612
 20
218.859707
 30
0.0
 11
181.321049
 21
218.419238
 31
0.0
  0
LINE
  8
0
  6
CONTINUOUS
 62
   249
 10
180.806768
 20
218.863826
 30
0.0
 11
181.321049
 21
218.432292
 31
0.0
  0
LINE
  8
0
  6
CONTINUOUS
 62
   249
 10
180.817416
 20
218.867945
 30
0.0
 11
181.321049
 21
218.445346
 31
0.0
  0
LINE
  8
0
  6
CONTINUOUS
 62
   249
 10
180.828065
 20
218.872064
 30
0.0
 11
181.321049
 21
218.4584
 31
0.0
  0
LINE
  8
0
  6
CONTINUOUS
 62
   249
 10
180.838713
 20
218.876183
 30
0.0
 11
181.321049
 21
218.471455
 31
0.0
  0
LINE
  8
0
  6
CONTINUOUS
 62
   249
 10
180.849361
 20
218.880302
 30
0.0
 11
181.321049
 21
218.484509
 31
0.0
  0
LINE
  8
0
  6
CONTINUOUS
 62
   249
 10
180.860009
 20
218.884421
 30
0.0
 11
181.321049
 21
218.497563
 31
0.0
  0
LINE
  8
0
  6
CONTINUOUS
 62
   249
 10
180.870658
 20
218.88854
 30
0.0
 11
181.321049
 21
218.510617
 31
0.0
  0
LINE
  8
0
  6
CONTINUOUS
 62
   249
 10
180.881306
 20
218.892659
 30
0.0
 11
181.321049
 21
218.523671
 31
0.0
  0
LINE
  8
0
  6
CONTINUOUS
 62
   249
 10
180.891954
 20
218.896779
 30
0.0
 11
181.321049
 21
218.536725
 31
0.0
  0
LINE
  8
0
  6
CONTINUOUS
 62
   249
 10
180.902603
 20
218.900898
 30
0.0
 11
181.321049
 21
218.549779
 31
0.0
  0
LINE
  8
0
  6
CONTINUOUS
 62
   249
 10
180.913251
 20
218.905017
 30
0.0
 11
181.321049
 21
218.562833
 31
0.0
  0
LINE
  8
0
  6
CONTINUOUS
 62
   249
 10
180.923899
 20
218.909136
 30
0.0
 11
181.321049
 21
218.575887
 31
0.0
  0
LINE
  8
0
  6
CONTINUOUS
 62
   249
 10
180.934547
 20
218.913255
 30
0.0
 11
181.321049
 21
218.588941
 31
0.0
  0
LINE
  8
0
  6
CONTINUOUS
 62
   249
 10
180.945196
 20
218.917374
 30
0.0
 11
181.321049
 21
218.601995
 31
0.0
  0
LINE
  8
0
  6
CONTINUOUS
 62
   249
 10
180.955844
 20
218.921493
 30
0.0
 11
181.321049
 21
218.615049
 31
0.0
  0
LINE
  8
0
  6
CONTINUOUS
 62
   249
 10
180.966492
 20
218.925612
 30
0.0
 11
181.321049
 21
218.628103
 31
0.0
  0
LINE
  8
0
  6
CONTINUOUS
 62
   249
 10
180.97714
 20
218.929731
 30
0.0
 11
181.321049
 21
218.641157
 31
0.0
  0
LINE
  8
0
  6
CONTINUOUS
 62
   249
 10
180.987789
 20
218.93385
 30
0.0
 11
181.321049
 21
218.654212
 31
0.0
  0
LINE
  8
0
  6
CONTINUOUS
 62
   249
 10
180.998437
 20
218.93797
 30
0.0
 11
181.321049
 21
218.667266
 31
0.0
  0
LINE
  8
0
  6
CONTINUOUS
 62
   249
 10
181.009085
 20
218.942089
 30
0.0
 11
181.321049
 21
218.68032
 31
0.0
  0
LINE
  8
0
  6
CONTINUOUS
 62
   249
 10
181.019734
 20
218.946208
 30
0.0
 11
181.321049
 21
218.693374
 31
0.0
  0
LINE
  8
0
  6
CONTINUOUS
 62
   249
 10
181.030382
 20
218.950327
 30
0.0
 11
181.321049
 21
218.706428
 31
0.0
  0
LINE
  8
0
  6
CONTINUOUS
 62
   249
 10
181.04103
 20
218.954446
 30
0.0
 11
181.321049
 21
218.719482
 31
0.0
  0
LINE
  8
0
  6
CONTINUOUS
 62
   249
 10
181.051678
 20
218.958565
 30
0.0
 11
181.321049
 21
218.732536
 31
0.0
  0
LINE
  8
0
  6
CONTINUOUS
 62
   249
 10
181.062327
 20
218.962684
 30
0.0
 11
181.321049
 21
218.74559
 31
0.0
  0
LINE
  8
0
  6
CONTINUOUS
 62
   249
 10
181.072975
 20
218.966803
 30
0.0
 11
181.321049
 21
218.758644
 31
0.0
  0
LINE
  8
0
  6
CONTINUOUS
 62
   249
 10
181.083623
 20
218.970922
 30
0.0
 11
181.321049
 21
218.771698
 31
0.0
  0
LINE
  8
0
  6
CONTINUOUS
 62
   249
 10
181.094271
 20
218.975042
 30
0.0
 11
181.321049
 21
218.784752
 31
0.0
  0
LINE
  8
0
  6
CONTINUOUS
 62
   249
 10
181.10492
 20
218.979161
 30
0.0
 11
181.321049
 21
218.797806
 31
0.0
  0
LINE
  8
0
  6
CONTINUOUS
 62
   249
 10
181.115568
 20
218.98328
 30
0.0
 11
181.321049
 21
218.81086
 31
0.0
  0
LINE
  8
0
  6
CONTINUOUS
 62
   249
 10
181.126216
 20
218.987399
 30
0.0
 11
181.321049
 21
218.823915
 31
0.0
  0
LINE
  8
0
  6
CONTINUOUS
 62
   249
 10
181.136865
 20
218.991518
 30
0.0
 11
181.321049
 21
218.836969
 31
0.0
  0
LINE
  8
0
  6
CONTINUOUS
 62
   249
 10
181.147513
 20
218.995637
 30
0.0
 11
181.321049
 21
218.850023
 31
0.0
  0
LINE
  8
0
  6
CONTINUOUS
 62
   249
 10
181.158161
 20
218.999756
 30
0.0
 11
181.321049
 21
218.863077
 31
0.0
  0
LINE
  8
0
  6
CONTINUOUS
 62
   249
 10
181.168809
 20
219.003875
 30
0.0
 11
181.321049
 21
218.876131
 31
0.0
  0
LINE
  8
0
  6
CONTINUOUS
 62
   249
 10
181.179458
 20
219.007994
 30
0.0
 11
181.321049
 21
218.889185
 31
0.0
  0
LINE
  8
0
  6
CONTINUOUS
 62
   249
 10
181.190106
 20
219.012114
 30
0.0
 11
181.321049
 21
218.902239
 31
0.0
  0
LINE
  8
0
  6
CONTINUOUS
 62
   249
 10
181.200754
 20
219.016233
 30
0.0
 11
181.321049
 21
218.915293
 31
0.0
  0
LINE
  8
0
  6
CONTINUOUS
 62
   249
 10
181.211403
 20
219.020352
 30
0.0
 11
181.321049
 21
218.928347
 31
0.0
  0
LINE
  8
0
  6
CONTINUOUS
 62
   249
 10
181.222051
 20
219.024471
 30
0.0
 11
181.321049
 21
218.941401
 31
0.0
  0
LINE
  8
0
  6
CONTINUOUS
 62
   249
 10
181.232699
 20
219.02859
 30
0.0
 11
181.321049
 21
218.954455
 31
0.0
  0
LINE
  8
0
  6
CONTINUOUS
 62
   249
 10
181.243347
 20
219.032709
 30
0.0
 11
181.321049
 21
218.967509
 31
0.0
  0
LINE
  8
0
  6
CONTINUOUS
 62
   249
 10
181.253996
 20
219.036828
 30
0.0
 11
181.321049
 21
218.980563
 31
0.0
  0
LINE
  8
0
  6
CONTINUOUS
 62
   249
 10
181.264644
 20
219.040947
 30
0.0
 11
181.321049
 21
218.993617
 31
0.0
  0
LINE
  8
0
  6
CONTINUOUS
 62
   249
 10
181.275292
 20
219.045066
 30
0.0
 11
181.321049
 21
219.006672
 31
0.0
  0
LINE
  8
0
  6
CONTINUOUS
 62
   249
 10
181.28594
 20
219.049186
 30
0.0
 11
181.321049
 21
219.019726
 31
0.0
  0
LINE
  8
0
  6
CONTINUOUS
 62
   249
 10
181.296589
 20
219.053305
 30
0.0
 11
181.321049
 21
219.03278
 31
0.0
  0
LINE
  8
0
  6
CONTINUOUS
 62
   249
 10
181.307237
 20
219.057424
 30
0.0
 11
181.321049
 21
219.045834
 31
0.0
  0
LINE
  8
0
  6
CONTINUOUS
 62
   249
 10
181.317885
 20
219.061543
 30
0.0
 11
181.321049
 21
219.058888
 31
0.0
  0
LINE
  8
0
  6
CONTINUOUS
 62
   249
 10
225.965688
 20
131.164644
 30
0.0
 11
223.619923
 21
132.499998
 31
0.0
  0
LINE
  8
0
  6
CONTINUOUS
 62
   249
 10
223.619923
 20
132.499998
 30
0.0
 11
225.965688
 21
133.689917
 31
0.0
  0
LINE
  8
0
 62
   249
 10
237.5
 20
130.0
 30
0.0
 11
235.980133
 21
130.0
 31
0.0
  0
ARC
  8
0
 62
   249
 10
237.565849
 20
131.25
 30
0.0
 40
1.251733
 50
266.984476
 51
93.015524
  0
LINE
  8
0
 62
   249
 10
237.5
 20
132.5
 30
0.0
 11
235.980133
 21
132.5
 31
0.0
  0
LINE
  8
0
 62
   249
 10
237.5
 20
135.0
 30
0.0
 11
235.980133
 21
135.0
 31
0.0
  0
ARC
  8
0
 62
   249
 10
237.565849
 20
133.75
 30
0.0
 40
1.251733
 50
266.984476
 51
93.015524
  0
LINE
  8
0
 62
   249
 10
242.5
 20
127.5
 30
0.0
 11
245.0
 21
127.5
 31
0.0
  0
ARC
  8
0
 62
   249
 10
242.434151
 20
128.75
 30
0.0
 40
1.251733
 50
86.984476
 51
273.015524
  0
ARC
  8
0
 62
   249
 10
242.434151
 20
131.25
 30
0.0
 40
1.251733
 50
86.984476
 51
273.015524
  0
LINE
  8
0
 62
   249
 10
242.5
 20
130.0
 30
0.0
 11
245.0
 21
130.0
 31
0.0
  0
LINE
  8
0
 62
   249
 10
242.5
 20
132.5
 30
0.0
 11
245.0
 21
132.5
 31
0.0
  0
LINE
  8
0
 62
   249
 10
245.0
 20
132.5
 30
0.0
 11
247.5
 21
132.5
 31
0.0
  0
LINE
  8
0
 62
   249
 10
245.0
 20
127.5
 30
0.0
 11
247.5
 21
127.5
 31
0.0
  0
LINE
  8
0
 62
   249
 10
245.0
 20
132.5
 30
0.0
 11
247.5
 21
132.5
 31
0.0
  0
LINE
  8
0
 62
   249
 10
245.0
 20
137.5
 30
0.0
 11
247.5
 21
137.5
 31
0.0
  0
LINE
  8
0
 62
   249
 10
242.5
 20
137.5
 30
0.0
 11
245.0
 21
137.5
 31
0.0
  0
LINE
  8
0
 62
   249
 10
242.5
 20
135.0
 30
0.0
 11
245.0
 21
135.0
 31
0.0
  0
ARC
  8
0
 62
   249
 10
242.434151
 20
136.25
 30
0.0
 40
1.251733
 50
86.984476
 51
273.015524
  0
ARC
  8
0
 62
   249
 10
242.434151
 20
133.75
 30
0.0
 40
1.251733
 50
86.984476
 51
273.015524
  0
LINE
  8
0
 62
   249
 10
242.5
 20
132.5
 30
0.0
 11
245.0
 21
132.5
 31
0.0
  0
TEXT
  8
0
  6
CONTINUOUS
 62
   249
 10
199.353328
 20
41.513635
 30
0.0
 40
2.0
  1
+
  0
TEXT
  8
0
  6
CONTINUOUS
 62
   249
 10
206.844763
 20
41.50558
 30
0.0
 40
2.0
  1
-
  0
LINE
  8
0
 62
   249
 10
215.5252
 20
40.783527
 30
0.0
 11
219.5252
 21
40.783527
 31
0.0
  0
INSERT
  8
0
 62
   249
  2
WKU130
 10
215.86515
 20
39.057974
 30
0.0
 41
0.8
 42
0.8
 43
0.8
  0
TEXT
  8
0
  6
CONTINUOUS
 62
   249
 10
214.353328
 20
41.513635
 30
0.0
 40
2.0
  1
+
  0
TEXT
  8
0
  6
CONTINUOUS
 62
   249
 10
219.344763
 20
41.50558
 30
0.0
 40
2.0
  1
-
  0
INSERT
  8
0
  6
CENTER
 62
   249
  2
BLC5
 10
232.791926
 20
43.342005
 30
0.0
 41
0.6
 42
0.6
 43
0.6
  0
ARC
  8
0
 62
   249
 10
218.672927
 20
100.936221
 30
0.0
 40
0.869227
 50
32.471192
 51
175.601295
  0
ARC
  8
0
 62
   249
 10
220.139595
 20
101.869554
 30
0.0
 40
0.869227
 50
212.471192
 51
355.601295
  0
LINE
  8
0
 62
   249
 10
237.5
 20
210.0
 30
0.0
 11
235.980133
 21
210.0
 31
0.0
  0
ARC
  8
0
 62
   249
 10
237.565849
 20
211.25
 30
0.0
 40
1.251733
 50
266.984476
 51
93.015524
  0
LINE
  8
0
 62
   249
 10
237.5
 20
212.5
 30
0.0
 11
235.980133
 21
212.5
 31
0.0
  0
LINE
  8
0
 62
   249
 10
237.5
 20
215.0
 30
0.0
 11
235.980133
 21
215.0
 31
0.0
  0
ARC
  8
0
 62
   249
 10
237.565849
 20
213.75
 30
0.0
 40
1.251733
 50
266.984476
 51
93.015524
  0
LINE
  8
0
 62
   249
 10
242.5
 20
207.5
 30
0.0
 11
245.0
 21
207.5
 31
0.0
  0
ARC
  8
0
 62
   249
 10
242.434151
 20
208.75
 30
0.0
 40
1.251733
 50
86.984476
 51
273.015524
  0
ARC
  8
0
 62
   249
 10
242.434151
 20
211.25
 30
0.0
 40
1.251733
 50
86.984476
 51
273.015524
  0
LINE
  8
0
 62
   249
 10
242.5
 20
210.0
 30
0.0
 11
245.0
 21
210.0
 31
0.0
  0
LINE
  8
0
 62
   249
 10
242.5
 20
212.5
 30
0.0
 11
245.0
 21
212.5
 31
0.0
  0
LINE
  8
0
 62
   249
 10
245.0
 20
212.5
 30
0.0
 11
247.5
 21
212.5
 31
0.0
  0
LINE
  8
0
 62
   249
 10
245.0
 20
207.5
 30
0.0
 11
247.5
 21
207.5
 31
0.0
  0
LINE
  8
0
 62
   249
 10
245.0
 20
212.5
 30
0.0
 11
247.5
 21
212.5
 31
0.0
  0
LINE
  8
0
 62
   249
 10
245.0
 20
217.5
 30
0.0
 11
247.5
 21
217.5
 31
0.0
  0
LINE
  8
0
 62
   249
 10
242.5
 20
217.5
 30
0.0
 11
245.0
 21
217.5
 31
0.0
  0
LINE
  8
0
 62
   249
 10
242.5
 20
215.0
 30
0.0
 11
245.0
 21
215.0
 31
0.0
  0
ARC
  8
0
 62
   249
 10
242.434151
 20
216.25
 30
0.0
 40
1.251733
 50
86.984476
 51
273.015524
  0
ARC
  8
0
 62
   249
 10
242.434151
 20
213.75
 30
0.0
 40
1.251733
 50
86.984476
 51
273.015524
  0
LINE
  8
0
 62
   249
 10
242.5
 20
212.5
 30
0.0
 11
245.0
 21
212.5
 31
0.0
  0
LINE
  8
0
 62
   249
 10
237.5
 20
170.0
 30
0.0
 11
235.980133
 21
170.0
 31
0.0
  0
ARC
  8
0
 62
   249
 10
237.565849
 20
171.25
 30
0.0
 40
1.251733
 50
266.984476
 51
93.015524
  0
LINE
  8
0
 62
   249
 10
237.5
 20
172.5
 30
0.0
 11
235.980133
 21
172.5
 31
0.0
  0
LINE
  8
0
 62
   249
 10
237.5
 20
175.0
 30
0.0
 11
235.980133
 21
175.0
 31
0.0
  0
ARC
  8
0
 62
   249
 10
237.565849
 20
173.75
 30
0.0
 40
1.251733
 50
266.984476
 51
93.015524
  0
LINE
  8
0
 62
   249
 10
242.5
 20
167.5
 30
0.0
 11
245.0
 21
167.5
 31
0.0
  0
ARC
  8
0
 62
   249
 10
242.434151
 20
168.75
 30
0.0
 40
1.251733
 50
86.984476
 51
273.015524
  0
ARC
  8
0
 62
   249
 10
242.434151
 20
171.25
 30
0.0
 40
1.251733
 50
86.984476
 51
273.015524
  0
LINE
  8
0
 62
   249
 10
242.5
 20
170.0
 30
0.0
 11
245.0
 21
170.0
 31
0.0
  0
LINE
  8
0
 62
   249
 10
242.5
 20
172.5
 30
0.0
 11
245.0
 21
172.5
 31
0.0
  0
LINE
  8
0
 62
   249
 10
245.0
 20
172.5
 30
0.0
 11
247.5
 21
172.5
 31
0.0
  0
LINE
  8
0
 62
   249
 10
245.0
 20
167.5
 30
0.0
 11
247.5
 21
167.5
 31
0.0
  0
LINE
  8
0
 62
   249
 10
245.0
 20
172.5
 30
0.0
 11
247.5
 21
172.5
 31
0.0
  0
LINE
  8
0
 62
   249
 10
245.0
 20
177.5
 30
0.0
 11
247.5
 21
177.5
 31
0.0
  0
LINE
  8
0
 62
   249
 10
242.5
 20
177.5
 30
0.0
 11
245.0
 21
177.5
 31
0.0
  0
LINE
  8
0
 62
   249
 10
242.5
 20
175.0
 30
0.0
 11
245.0
 21
175.0
 31
0.0
  0
ARC
  8
0
 62
   249
 10
242.434151
 20
176.25
 30
0.0
 40
1.251733
 50
86.984476
 51
273.015524
  0
ARC
  8
0
 62
   249
 10
242.434151
 20
173.75
 30
0.0
 40
1.251733
 50
86.984476
 51
273.015524
  0
LINE
  8
0
 62
   249
 10
242.5
 20
172.5
 30
0.0
 11
245.0
 21
172.5
 31
0.0
  0
LINE
  8
0
  6
CONTINUOUS
 62
   249
 10
225.965688
 20
151.164644
 30
0.0
 11
223.619923
 21
152.499998
 31
0.0
  0
LINE
  8
0
  6
CONTINUOUS
 62
   249
 10
223.619923
 20
152.499998
 30
0.0
 11
225.965688
 21
153.689917
 31
0.0
  0
LINE
  8
0
 62
   249
 10
237.5
 20
150.0
 30
0.0
 11
235.980133
 21
150.0
 31
0.0
  0
ARC
  8
0
 62
   249
 10
237.565849
 20
151.25
 30
0.0
 40
1.251733
 50
266.984476
 51
93.015524
  0
LINE
  8
0
 62
   249
 10
237.5
 20
152.5
 30
0.0
 11
235.980133
 21
152.5
 31
0.0
  0
LINE
  8
0
 62
   249
 10
237.5
 20
155.0
 30
0.0
 11
235.980133
 21
155.0
 31
0.0
  0
ARC
  8
0
 62
   249
 10
237.565849
 20
153.75
 30
0.0
 40
1.251733
 50
266.984476
 51
93.015524
  0
LINE
  8
0
 62
   249
 10
242.5
 20
147.5
 30
0.0
 11
245.0
 21
147.5
 31
0.0
  0
ARC
  8
0
 62
   249
 10
242.434151
 20
148.75
 30
0.0
 40
1.251733
 50
86.984476
 51
273.015524
  0
ARC
  8
0
 62
   249
 10
242.434151
 20
151.25
 30
0.0
 40
1.251733
 50
86.984476
 51
273.015524
  0
LINE
  8
0
 62
   249
 10
242.5
 20
150.0
 30
0.0
 11
245.0
 21
150.0
 31
0.0
  0
LINE
  8
0
 62
   249
 10
242.5
 20
152.5
 30
0.0
 11
245.0
 21
152.5
 31
0.0
  0
LINE
  8
0
 62
   249
 10
245.0
 20
152.5
 30
0.0
 11
247.5
 21
152.5
 31
0.0
  0
LINE
  8
0
 62
   249
 10
245.0
 20
147.5
 30
0.0
 11
247.5
 21
147.5
 31
0.0
  0
LINE
  8
0
 62
   249
 10
245.0
 20
152.5
 30
0.0
 11
247.5
 21
152.5
 31
0.0
  0
LINE
  8
0
 62
   249
 10
245.0
 20
157.5
 30
0.0
 11
247.5
 21
157.5
 31
0.0
  0
LINE
  8
0
 62
   249
 10
242.5
 20
157.5
 30
0.0
 11
245.0
 21
157.5
 31
0.0
  0
LINE
  8
0
 62
   249
 10
242.5
 20
155.0
 30
0.0
 11
245.0
 21
155.0
 31
0.0
  0
ARC
  8
0
 62
   249
 10
242.434151
 20
156.25
 30
0.0
 40
1.251733
 50
86.984476
 51
273.015524
  0
ARC
  8
0
 62
   249
 10
242.434151
 20
153.75
 30
0.0
 40
1.251733
 50
86.984476
 51
273.015524
  0
LINE
  8
0
 62
   249
 10
242.5
 20
152.5
 30
0.0
 11
245.0
 21
152.5
 31
0.0
  0
LINE
  8
0
  6
CONTINUOUS
 62
   249
 10
204.853481
 20
184.332822
 30
0.0
 11
204.853481
 21
182.978552
 31
0.0
  0
LINE
  8
0
  6
CONTINUOUS
 62
   249
 10
203.643254
 20
182.978552
 30
0.0
 11
204.837595
 21
182.978552
 31
0.0
  0
LINE
  8
0
  6
CONTINUOUS
 62
   249
 10
204.837595
 20
182.978552
 30
0.0
 11
206.031936
 21
182.978552
 31
0.0
  0
LINE
  8
0
  6
CONTINUOUS
 62
   249
 10
204.021659
 20
182.498942
 30
0.0
 11
205.60623
 21
182.498942
 31
0.0
  0
LINE
  8
0
  6
CONTINUOUS
 62
   249
 10
204.352763
 20
182.010767
 30
0.0
 11
205.23965
 21
182.010767
 31
0.0
  0
LINE
  8
0
  6
CONTINUOUS
 62
   249
 10
225.965688
 20
176.164644
 30
0.0
 11
223.619923
 21
177.499998
 31
0.0
  0
LINE
  8
0
  6
CONTINUOUS
 62
   249
 10
223.619923
 20
177.499998
 30
0.0
 11
225.965688
 21
178.689917
 31
0.0
  0
LINE
  8
0
 62
   249
 10
237.5
 20
190.0
 30
0.0
 11
235.980133
 21
190.0
 31
0.0
  0
ARC
  8
0
 62
   249
 10
237.565849
 20
191.25
 30
0.0
 40
1.251733
 50
266.984476
 51
93.015524
  0
LINE
  8
0
 62
   249
 10
237.5
 20
192.5
 30
0.0
 11
235.980133
 21
192.5
 31
0.0
  0
LINE
  8
0
 62
   249
 10
237.5
 20
195.0
 30
0.0
 11
235.980133
 21
195.0
 31
0.0
  0
ARC
  8
0
 62
   249
 10
237.565849
 20
193.75
 30
0.0
 40
1.251733
 50
266.984476
 51
93.015524
  0
LINE
  8
0
 62
   249
 10
242.5
 20
187.5
 30
0.0
 11
245.0
 21
187.5
 31
0.0
  0
ARC
  8
0
 62
   249
 10
242.434151
 20
188.75
 30
0.0
 40
1.251733
 50
86.984476
 51
273.015524
  0
ARC
  8
0
 62
   249
 10
242.434151
 20
191.25
 30
0.0
 40
1.251733
 50
86.984476
 51
273.015524
  0
LINE
  8
0
 62
   249
 10
242.5
 20
190.0
 30
0.0
 11
245.0
 21
190.0
 31
0.0
  0
LINE
  8
0
 62
   249
 10
242.5
 20
192.5
 30
0.0
 11
245.0
 21
192.5
 31
0.0
  0
LINE
  8
0
 62
   249
 10
245.0
 20
192.5
 30
0.0
 11
247.5
 21
192.5
 31
0.0
  0
LINE
  8
0
 62
   249
 10
245.0
 20
187.5
 30
0.0
 11
247.5
 21
187.5
 31
0.0
  0
LINE
  8
0
 62
   249
 10
245.0
 20
192.5
 30
0.0
 11
247.5
 21
192.5
 31
0.0
  0
LINE
  8
0
 62
   249
 10
245.0
 20
197.5
 30
0.0
 11
247.5
 21
197.5
 31
0.0
  0
LINE
  8
0
 62
   249
 10
242.5
 20
197.5
 30
0.0
 11
245.0
 21
197.5
 31
0.0
  0
LINE
  8
0
 62
   249
 10
242.5
 20
195.0
 30
0.0
 11
245.0
 21
195.0
 31
0.0
  0
ARC
  8
0
 62
   249
 10
242.434151
 20
196.25
 30
0.0
 40
1.251733
 50
86.984476
 51
273.015524
  0
ARC
  8
0
 62
   249
 10
242.434151
 20
193.75
 30
0.0
 40
1.251733
 50
86.984476
 51
273.015524
  0
LINE
  8
0
 62
   249
 10
242.5
 20
192.5
 30
0.0
 11
245.0
 21
192.5
 31
0.0
  0
LINE
  8
0
  6
CONTINUOUS
 62
   249
 10
213.465688
 20
221.164635
 30
0.0
 11
211.119923
 21
222.499989
 31
0.0
  0
LINE
  8
0
  6
CONTINUOUS
 62
   249
 10
211.119923
 20
222.499989
 30
0.0
 11
213.465688
 21
223.689908
 31
0.0
  0
LINE
  8
0
  6
CONTINUOUS
 62
   249
 10
202.618063
 20
218.382059
 30
0.0
 11
203.078588
 21
218.930891
 31
0.0
  0
LINE
  8
0
  6
CONTINUOUS
 62
   249
 10
202.608252
 20
218.385925
 30
0.0
 11
203.05926
 21
218.923415
 31
0.0
  0
LINE
  8
0
  6
CONTINUOUS
 62
   249
 10
202.598442
 20
218.38979
 30
0.0
 11
203.039933
 21
218.915938
 31
0.0
  0
LINE
  8
0
  6
CONTINUOUS
 62
   249
 10
202.588632
 20
218.393656
 30
0.0
 11
203.020605
 21
218.908461
 31
0.0
  0
LINE
  8
0
  6
CONTINUOUS
 62
   249
 10
202.578822
 20
218.397522
 30
0.0
 11
203.001277
 21
218.900985
 31
0.0
  0
LINE
  8
0
  6
CONTINUOUS
 62
   249
 10
202.569012
 20
218.401388
 30
0.0
 11
202.98195
 21
218.893508
 31
0.0
  0
LINE
  8
0
  6
CONTINUOUS
 62
   249
 10
202.559201
 20
218.405254
 30
0.0
 11
202.962622
 21
218.886032
 31
0.0
  0
LINE
  8
0
  6
CONTINUOUS
 62
   249
 10
202.549391
 20
218.40912
 30
0.0
 11
202.943294
 21
218.878555
 31
0.0
  0
LINE
  8
0
  6
CONTINUOUS
 62
   249
 10
202.539581
 20
218.412986
 30
0.0
 11
202.923966
 21
218.871079
 31
0.0
  0
LINE
  8
0
  6
CONTINUOUS
 62
   249
 10
202.529771
 20
218.416851
 30
0.0
 11
202.904639
 21
218.863602
 31
0.0
  0
LINE
  8
0
  6
CONTINUOUS
 62
   249
 10
202.51996
 20
218.420717
 30
0.0
 11
202.885311
 21
218.856125
 31
0.0
  0
LINE
  8
0
  6
CONTINUOUS
 62
   249
 10
202.51015
 20
218.424583
 30
0.0
 11
202.865983
 21
218.848649
 31
0.0
  0
LINE
  8
0
  6
CONTINUOUS
 62
   249
 10
202.50034
 20
218.428449
 30
0.0
 11
202.846656
 21
218.841172
 31
0.0
  0
LINE
  8
0
  6
CONTINUOUS
 62
   249
 10
202.49053
 20
218.432315
 30
0.0
 11
202.827328
 21
218.833696
 31
0.0
  0
LINE
  8
0
  6
CONTINUOUS
 62
   249
 10
202.480719
 20
218.436181
 30
0.0
 11
202.808
 21
218.826219
 31
0.0
  0
LINE
  8
0
  6
CONTINUOUS
 62
   249
 10
202.470909
 20
218.440047
 30
0.0
 11
202.788673
 21
218.818742
 31
0.0
  0
LINE
  8
0
  6
CONTINUOUS
 62
   249
 10
202.461099
 20
218.443912
 30
0.0
 11
202.769345
 21
218.811266
 31
0.0
  0
LINE
  8
0
  6
CONTINUOUS
 62
   249
 10
202.451289
 20
218.447778
 30
0.0
 11
202.750017
 21
218.803789
 31
0.0
  0
LINE
  8
0
  6
CONTINUOUS
 62
   249
 10
202.441479
 20
218.451644
 30
0.0
 11
202.73069
 21
218.796313
 31
0.0
  0
LINE
  8
0
  6
CONTINUOUS
 62
   249
 10
202.431668
 20
218.45551
 30
0.0
 11
202.711362
 21
218.788836
 31
0.0
  0
LINE
  8
0
  6
CONTINUOUS
 62
   249
 10
202.421858
 20
218.459376
 30
0.0
 11
202.692034
 21
218.781359
 31
0.0
  0
LINE
  8
0
  6
CONTINUOUS
 62
   249
 10
202.412048
 20
218.463242
 30
0.0
 11
202.672707
 21
218.773883
 31
0.0
  0
LINE
  8
0
  6
CONTINUOUS
 62
   249
 10
202.402238
 20
218.467108
 30
0.0
 11
202.653379
 21
218.766406
 31
0.0
  0
LINE
  8
0
  6
CONTINUOUS
 62
   249
 10
202.392427
 20
218.470973
 30
0.0
 11
202.634051
 21
218.75893
 31
0.0
  0
LINE
  8
0
  6
CONTINUOUS
 62
   249
 10
202.382617
 20
218.474839
 30
0.0
 11
202.614724
 21
218.751453
 31
0.0
  0
LINE
  8
0
  6
CONTINUOUS
 62
   249
 10
202.372807
 20
218.478705
 30
0.0
 11
202.595396
 21
218.743976
 31
0.0
  0
LINE
  8
0
  6
CONTINUOUS
 62
   249
 10
202.362997
 20
218.482571
 30
0.0
 11
202.576068
 21
218.7365
 31
0.0
  0
LINE
  8
0
  6
CONTINUOUS
 62
   249
 10
202.353186
 20
218.486437
 30
0.0
 11
202.556741
 21
218.729023
 31
0.0
  0
LINE
  8
0
  6
CONTINUOUS
 62
   249
 10
202.343376
 20
218.490303
 30
0.0
 11
202.537413
 21
218.721547
 31
0.0
  0
LINE
  8
0
  6
CONTINUOUS
 62
   249
 10
202.333566
 20
218.494169
 30
0.0
 11
202.518085
 21
218.71407
 31
0.0
  0
LINE
  8
0
  6
CONTINUOUS
 62
   249
 10
202.323756
 20
218.498034
 30
0.0
 11
202.498758
 21
218.706593
 31
0.0
  0
LINE
  8
0
  6
CONTINUOUS
 62
   249
 10
202.313946
 20
218.5019
 30
0.0
 11
202.47943
 21
218.699117
 31
0.0
  0
LINE
  8
0
  6
CONTINUOUS
 62
   249
 10
202.304135
 20
218.505766
 30
0.0
 11
202.460102
 21
218.69164
 31
0.0
  0
LINE
  8
0
  6
CONTINUOUS
 62
   249
 10
202.294325
 20
218.509632
 30
0.0
 11
202.440775
 21
218.684164
 31
0.0
  0
LINE
  8
0
  6
CONTINUOUS
 62
   249
 10
202.284515
 20
218.513498
 30
0.0
 11
202.421447
 21
218.676687
 31
0.0
  0
LINE
  8
0
  6
CONTINUOUS
 62
   249
 10
202.274705
 20
218.517364
 30
0.0
 11
202.402119
 21
218.669211
 31
0.0
  0
LINE
  8
0
  6
CONTINUOUS
 62
   249
 10
202.264894
 20
218.52123
 30
0.0
 11
202.382791
 21
218.661734
 31
0.0
  0
LINE
  8
0
  6
CONTINUOUS
 62
   249
 10
202.255084
 20
218.525095
 30
0.0
 11
202.363464
 21
218.654257
 31
0.0
  0
LINE
  8
0
  6
CONTINUOUS
 62
   249
 10
202.245274
 20
218.528961
 30
0.0
 11
202.344136
 21
218.646781
 31
0.0
  0
LINE
  8
0
  6
CONTINUOUS
 62
   249
 10
202.235464
 20
218.532827
 30
0.0
 11
202.324808
 21
218.639304
 31
0.0
  0
LINE
  8
0
  6
CONTINUOUS
 62
   249
 10
202.225653
 20
218.536693
 30
0.0
 11
202.305481
 21
218.631828
 31
0.0
  0
LINE
  8
0
  6
CONTINUOUS
 62
   249
 10
202.215843
 20
218.540559
 30
0.0
 11
202.286153
 21
218.624351
 31
0.0
  0
LINE
  8
0
  6
CONTINUOUS
 62
   249
 10
202.206033
 20
218.544425
 30
0.0
 11
202.266825
 21
218.616874
 31
0.0
  0
LINE
  8
0
  6
CONTINUOUS
 62
   249
 10
202.196223
 20
218.548291
 30
0.0
 11
202.247498
 21
218.609398
 31
0.0
  0
LINE
  8
0
  6
CONTINUOUS
 62
   249
 10
202.186413
 20
218.552156
 30
0.0
 11
202.22817
 21
218.601921
 31
0.0
  0
LINE
  8
0
  6
CONTINUOUS
 62
   249
 10
202.176602
 20
218.556022
 30
0.0
 11
202.208842
 21
218.594445
 31
0.0
  0
LINE
  8
0
  6
CONTINUOUS
 62
   249
 10
202.166792
 20
218.559888
 30
0.0
 11
202.189515
 21
218.586968
 31
0.0
  0
LINE
  8
0
  6
CONTINUOUS
 62
   249
 10
202.156982
 20
218.563754
 30
0.0
 11
202.170187
 21
218.579491
 31
0.0
  0
LINE
  8
0
  6
CONTINUOUS
 62
   249
 10
202.147172
 20
218.56762
 30
0.0
 11
202.150859
 21
218.572015
 31
0.0
  0
LINE
  8
0
  6
CONTINUOUS
 62
   249
 10
202.627873
 20
218.378193
 30
0.0
 11
203.097916
 21
218.938368
 31
0.0
  0
LINE
  8
0
  6
CONTINUOUS
 62
   249
 10
202.637683
 20
218.374327
 30
0.0
 11
203.117243
 21
218.945844
 31
0.0
  0
LINE
  8
0
  6
CONTINUOUS
 62
   249
 10
202.647493
 20
218.370461
 30
0.0
 11
203.136571
 21
218.953321
 31
0.0
  0
LINE
  8
0
  6
CONTINUOUS
 62
   249
 10
202.657304
 20
218.366595
 30
0.0
 11
203.155899
 21
218.960798
 31
0.0
  0
LINE
  8
0
  6
CONTINUOUS
 62
   249
 10
202.667114
 20
218.362729
 30
0.0
 11
203.175226
 21
218.968274
 31
0.0
  0
LINE
  8
0
  6
CONTINUOUS
 62
   249
 10
202.676924
 20
218.358864
 30
0.0
 11
203.194554
 21
218.975751
 31
0.0
  0
LINE
  8
0
  6
CONTINUOUS
 62
   249
 10
202.686734
 20
218.354998
 30
0.0
 11
203.213882
 21
218.983227
 31
0.0
  0
LINE
  8
0
  6
CONTINUOUS
 62
   249
 10
202.696545
 20
218.351132
 30
0.0
 11
203.233209
 21
218.990704
 31
0.0
  0
LINE
  8
0
  6
CONTINUOUS
 62
   249
 10
202.706355
 20
218.347266
 30
0.0
 11
203.252537
 21
218.998181
 31
0.0
  0
LINE
  8
0
  6
CONTINUOUS
 62
   249
 10
202.716165
 20
218.3434
 30
0.0
 11
203.271865
 21
219.005657
 31
0.0
  0
LINE
  8
0
  6
CONTINUOUS
 62
   249
 10
202.725975
 20
218.339534
 30
0.0
 11
203.291192
 21
219.013134
 31
0.0
  0
LINE
  8
0
  6
CONTINUOUS
 62
   249
 10
202.735785
 20
218.335668
 30
0.0
 11
203.31052
 21
219.02061
 31
0.0
  0
LINE
  8
0
  6
CONTINUOUS
 62
   249
 10
202.745596
 20
218.331803
 30
0.0
 11
203.329848
 21
219.028087
 31
0.0
  0
LINE
  8
0
  6
CONTINUOUS
 62
   249
 10
202.755406
 20
218.327937
 30
0.0
 11
203.349175
 21
219.035564
 31
0.0
  0
LINE
  8
0
  6
CONTINUOUS
 62
   249
 10
202.765216
 20
218.324071
 30
0.0
 11
203.368503
 21
219.04304
 31
0.0
  0
LINE
  8
0
  6
CONTINUOUS
 62
   249
 10
202.775026
 20
218.320205
 30
0.0
 11
203.387831
 21
219.050517
 31
0.0
  0
LINE
  8
0
  6
CONTINUOUS
 62
   249
 10
202.784837
 20
218.316339
 30
0.0
 11
203.407158
 21
219.057993
 31
0.0
  0
LINE
  8
0
  6
CONTINUOUS
 62
   249
 10
202.794647
 20
218.312473
 30
0.0
 11
203.419499
 21
219.057142
 31
0.0
  0
LINE
  8
0
  6
CONTINUOUS
 62
   249
 10
202.804457
 20
218.308607
 30
0.0
 11
203.419499
 21
219.041585
 31
0.0
  0
LINE
  8
0
  6
CONTINUOUS
 62
   249
 10
202.814267
 20
218.304742
 30
0.0
 11
203.419499
 21
219.026028
 31
0.0
  0
LINE
  8
0
  6
CONTINUOUS
 62
   249
 10
202.824078
 20
218.300876
 30
0.0
 11
203.419499
 21
219.010471
 31
0.0
  0
LINE
  8
0
  6
CONTINUOUS
 62
   249
 10
202.833888
 20
218.29701
 30
0.0
 11
203.419499
 21
218.994913
 31
0.0
  0
LINE
  8
0
  6
CONTINUOUS
 62
   249
 10
202.843698
 20
218.293144
 30
0.0
 11
203.419499
 21
218.979356
 31
0.0
  0
LINE
  8
0
  6
CONTINUOUS
 62
   249
 10
202.853508
 20
218.289278
 30
0.0
 11
203.419499
 21
218.963799
 31
0.0
  0
LINE
  8
0
  6
CONTINUOUS
 62
   249
 10
202.863319
 20
218.285412
 30
0.0
 11
203.419499
 21
218.948242
 31
0.0
  0
LINE
  8
0
  6
CONTINUOUS
 62
   249
 10
202.873129
 20
218.281546
 30
0.0
 11
203.419499
 21
218.932684
 31
0.0
  0
LINE
  8
0
  6
CONTINUOUS
 62
   249
 10
202.882939
 20
218.27768
 30
0.0
 11
203.419499
 21
218.917127
 31
0.0
  0
LINE
  8
0
  6
CONTINUOUS
 62
   249
 10
202.892749
 20
218.273815
 30
0.0
 11
203.419499
 21
218.90157
 31
0.0
  0
LINE
  8
0
  6
CONTINUOUS
 62
   249
 10
202.902559
 20
218.269949
 30
0.0
 11
203.419499
 21
218.886013
 31
0.0
  0
LINE
  8
0
  6
CONTINUOUS
 62
   249
 10
202.91237
 20
218.266083
 30
0.0
 11
203.419499
 21
218.870456
 31
0.0
  0
LINE
  8
0
  6
CONTINUOUS
 62
   249
 10
202.92218
 20
218.262217
 30
0.0
 11
203.419499
 21
218.854898
 31
0.0
  0
LINE
  8
0
  6
CONTINUOUS
 62
   249
 10
202.93199
 20
218.258351
 30
0.0
 11
203.419499
 21
218.839341
 31
0.0
  0
LINE
  8
0
  6
CONTINUOUS
 62
   249
 10
202.9418
 20
218.254485
 30
0.0
 11
203.419499
 21
218.823784
 31
0.0
  0
LINE
  8
0
  6
CONTINUOUS
 62
   249
 10
202.951611
 20
218.250619
 30
0.0
 11
203.419499
 21
218.808227
 31
0.0
  0
LINE
  8
0
  6
CONTINUOUS
 62
   249
 10
202.961421
 20
218.246754
 30
0.0
 11
203.419499
 21
218.792669
 31
0.0
  0
LINE
  8
0
  6
CONTINUOUS
 62
   249
 10
202.971231
 20
218.242888
 30
0.0
 11
203.419499
 21
218.777112
 31
0.0
  0
LINE
  8
0
  6
CONTINUOUS
 62
   249
 10
202.981041
 20
218.239022
 30
0.0
 11
203.419499
 21
218.761555
 31
0.0
  0
LINE
  8
0
  6
CONTINUOUS
 62
   249
 10
202.990852
 20
218.235156
 30
0.0
 11
203.419499
 21
218.745998
 31
0.0
  0
LINE
  8
0
  6
CONTINUOUS
 62
   249
 10
203.000662
 20
218.23129
 30
0.0
 11
203.419499
 21
218.73044
 31
0.0
  0
LINE
  8
0
  6
CONTINUOUS
 62
   249
 10
203.010472
 20
218.227424
 30
0.0
 11
203.419499
 21
218.714883
 31
0.0
  0
LINE
  8
0
  6
CONTINUOUS
 62
   249
 10
203.020282
 20
218.223558
 30
0.0
 11
203.419499
 21
218.699326
 31
0.0
  0
LINE
  8
0
  6
CONTINUOUS
 62
   249
 10
203.030092
 20
218.219693
 30
0.0
 11
203.419499
 21
218.683769
 31
0.0
  0
LINE
  8
0
  6
CONTINUOUS
 62
   249
 10
203.039903
 20
218.215827
 30
0.0
 11
203.419499
 21
218.668211
 31
0.0
  0
LINE
  8
0
  6
CONTINUOUS
 62
   249
 10
203.049713
 20
218.211961
 30
0.0
 11
203.419499
 21
218.652654
 31
0.0
  0
LINE
  8
0
  6
CONTINUOUS
 62
   249
 10
203.059523
 20
218.208095
 30
0.0
 11
203.419499
 21
218.637097
 31
0.0
  0
LINE
  8
0
  6
CONTINUOUS
 62
   249
 10
203.069333
 20
218.204229
 30
0.0
 11
203.419499
 21
218.62154
 31
0.0
  0
LINE
  8
0
  6
CONTINUOUS
 62
   249
 10
203.079144
 20
218.200363
 30
0.0
 11
203.419499
 21
218.605982
 31
0.0
  0
LINE
  8
0
  6
CONTINUOUS
 62
   249
 10
203.088954
 20
218.196497
 30
0.0
 11
203.419499
 21
218.590425
 31
0.0
  0
LINE
  8
0
  6
CONTINUOUS
 62
   249
 10
203.098764
 20
218.192632
 30
0.0
 11
203.419499
 21
218.574868
 31
0.0
  0
LINE
  8
0
  6
CONTINUOUS
 62
   249
 10
203.108574
 20
218.188766
 30
0.0
 11
203.419499
 21
218.559311
 31
0.0
  0
LINE
  8
0
  6
CONTINUOUS
 62
   249
 10
203.118385
 20
218.1849
 30
0.0
 11
203.419499
 21
218.543754
 31
0.0
  0
LINE
  8
0
  6
CONTINUOUS
 62
   249
 10
203.128195
 20
218.181034
 30
0.0
 11
203.419499
 21
218.528196
 31
0.0
  0
LINE
  8
0
  6
CONTINUOUS
 62
   249
 10
203.138005
 20
218.177168
 30
0.0
 11
203.419499
 21
218.512639
 31
0.0
  0
LINE
  8
0
  6
CONTINUOUS
 62
   249
 10
203.147815
 20
218.173302
 30
0.0
 11
203.419499
 21
218.497082
 31
0.0
  0
LINE
  8
0
  6
CONTINUOUS
 62
   249
 10
203.157625
 20
218.169436
 30
0.0
 11
203.419499
 21
218.481525
 31
0.0
  0
LINE
  8
0
  6
CONTINUOUS
 62
   249
 10
203.167436
 20
218.165571
 30
0.0
 11
203.419499
 21
218.465967
 31
0.0
  0
LINE
  8
0
  6
CONTINUOUS
 62
   249
 10
203.177246
 20
218.161705
 30
0.0
 11
203.419499
 21
218.45041
 31
0.0
  0
LINE
  8
0
  6
CONTINUOUS
 62
   249
 10
203.187056
 20
218.157839
 30
0.0
 11
203.419499
 21
218.434853
 31
0.0
  0
LINE
  8
0
  6
CONTINUOUS
 62
   249
 10
203.196866
 20
218.153973
 30
0.0
 11
203.419499
 21
218.419296
 31
0.0
  0
LINE
  8
0
  6
CONTINUOUS
 62
   249
 10
203.206677
 20
218.150107
 30
0.0
 11
203.419499
 21
218.403738
 31
0.0
  0
LINE
  8
0
  6
CONTINUOUS
 62
   249
 10
203.216487
 20
218.146241
 30
0.0
 11
203.419499
 21
218.388181
 31
0.0
  0
LINE
  8
0
  6
CONTINUOUS
 62
   249
 10
203.226297
 20
218.142375
 30
0.0
 11
203.419499
 21
218.372624
 31
0.0
  0
LINE
  8
0
  6
CONTINUOUS
 62
   249
 10
203.236107
 20
218.13851
 30
0.0
 11
203.419499
 21
218.357067
 31
0.0
  0
LINE
  8
0
  6
CONTINUOUS
 62
   249
 10
203.245918
 20
218.134644
 30
0.0
 11
203.419499
 21
218.341509
 31
0.0
  0
LINE
  8
0
  6
CONTINUOUS
 62
   249
 10
203.255728
 20
218.130778
 30
0.0
 11
203.419499
 21
218.325952
 31
0.0
  0
LINE
  8
0
  6
CONTINUOUS
 62
   249
 10
203.265538
 20
218.126912
 30
0.0
 11
203.419499
 21
218.310395
 31
0.0
  0
LINE
  8
0
  6
CONTINUOUS
 62
   249
 10
203.275348
 20
218.123046
 30
0.0
 11
203.419499
 21
218.294838
 31
0.0
  0
LINE
  8
0
  6
CONTINUOUS
 62
   249
 10
203.285158
 20
218.11918
 30
0.0
 11
203.419499
 21
218.27928
 31
0.0
  0
LINE
  8
0
  6
CONTINUOUS
 62
   249
 10
203.294969
 20
218.115314
 30
0.0
 11
203.419499
 21
218.263723
 31
0.0
  0
LINE
  8
0
  6
CONTINUOUS
 62
   249
 10
203.304779
 20
218.111449
 30
0.0
 11
203.419499
 21
218.248166
 31
0.0
  0
LINE
  8
0
  6
CONTINUOUS
 62
   249
 10
203.314589
 20
218.107583
 30
0.0
 11
203.419499
 21
218.232609
 31
0.0
  0
LINE
  8
0
  6
CONTINUOUS
 62
   249
 10
203.324399
 20
218.103717
 30
0.0
 11
203.419499
 21
218.217052
 31
0.0
  0
LINE
  8
0
  6
CONTINUOUS
 62
   249
 10
203.33421
 20
218.099851
 30
0.0
 11
203.419499
 21
218.201494
 31
0.0
  0
LINE
  8
0
  6
CONTINUOUS
 62
   249
 10
203.34402
 20
218.095985
 30
0.0
 11
203.419499
 21
218.185937
 31
0.0
  0
LINE
  8
0
  6
CONTINUOUS
 62
   249
 10
203.35383
 20
218.092119
 30
0.0
 11
203.419499
 21
218.17038
 31
0.0
  0
LINE
  8
0
  6
CONTINUOUS
 62
   249
 10
203.36364
 20
218.088253
 30
0.0
 11
203.419499
 21
218.154823
 31
0.0
  0
LINE
  8
0
  6
CONTINUOUS
 62
   249
 10
203.373451
 20
218.084388
 30
0.0
 11
203.419499
 21
218.139265
 31
0.0
  0
LINE
  8
0
  6
CONTINUOUS
 62
   249
 10
203.383261
 20
218.080522
 30
0.0
 11
203.419499
 21
218.123708
 31
0.0
  0
LINE
  8
0
  6
CONTINUOUS
 62
   249
 10
203.393071
 20
218.076656
 30
0.0
 11
203.419499
 21
218.108151
 31
0.0
  0
LINE
  8
0
  6
CONTINUOUS
 62
   249
 10
203.402881
 20
218.07279
 30
0.0
 11
203.419499
 21
218.092594
 31
0.0
  0
LINE
  8
0
  6
CONTINUOUS
 62
   249
 10
203.412691
 20
218.068924
 30
0.0
 11
203.419499
 21
218.077036
 31
0.0
  0
LINE
  8
0
  6
CONTINUOUS
 62
   249
 10
202.575121
 20
218.736133
 30
0.0
 11
203.332706
 21
218.100443
 31
0.0
  0
LINE
  8
0
  6
CONTINUOUS
 62
   249
 10
202.564472
 20
218.732014
 30
0.0
 11
203.303374
 21
218.112002
 31
0.0
  0
LINE
  8
0
  6
CONTINUOUS
 62
   249
 10
202.553824
 20
218.727895
 30
0.0
 11
203.274041
 21
218.123561
 31
0.0
  0
LINE
  8
0
  6
CONTINUOUS
 62
   249
 10
202.543176
 20
218.723776
 30
0.0
 11
203.244708
 21
218.13512
 31
0.0
  0
LINE
  8
0
  6
CONTINUOUS
 62
   249
 10
202.532527
 20
218.719657
 30
0.0
 11
203.215376
 21
218.146679
 31
0.0
  0
LINE
  8
0
  6
CONTINUOUS
 62
   249
 10
202.521879
 20
218.715538
 30
0.0
 11
203.186043
 21
218.158238
 31
0.0
  0
LINE
  8
0
  6
CONTINUOUS
 62
   249
 10
202.511231
 20
218.711419
 30
0.0
 11
203.15671
 21
218.169797
 31
0.0
  0
LINE
  8
0
  6
CONTINUOUS
 62
   249
 10
202.500583
 20
218.707299
 30
0.0
 11
203.127378
 21
218.181356
 31
0.0
  0
LINE
  8
0
  6
CONTINUOUS
 62
   249
 10
202.489934
 20
218.70318
 30
0.0
 11
203.098045
 21
218.192915
 31
0.0
  0
LINE
  8
0
  6
CONTINUOUS
 62
   249
 10
202.479286
 20
218.699061
 30
0.0
 11
203.068712
 21
218.204474
 31
0.0
  0
LINE
  8
0
  6
CONTINUOUS
 62
   249
 10
202.468638
 20
218.694942
 30
0.0
 11
203.03938
 21
218.216033
 31
0.0
  0
LINE
  8
0
  6
CONTINUOUS
 62
   249
 10
202.45799
 20
218.690823
 30
0.0
 11
203.010047
 21
218.227592
 31
0.0
  0
LINE
  8
0
  6
CONTINUOUS
 62
   249
 10
202.447341
 20
218.686704
 30
0.0
 11
202.980715
 21
218.239151
 31
0.0
  0
LINE
  8
0
  6
CONTINUOUS
 62
   249
 10
202.436693
 20
218.682585
 30
0.0
 11
202.951382
 21
218.25071
 31
0.0
  0
LINE
  8
0
  6
CONTINUOUS
 62
   249
 10
202.426045
 20
218.678466
 30
0.0
 11
202.922049
 21
218.262269
 31
0.0
  0
LINE
  8
0
  6
CONTINUOUS
 62
   249
 10
202.415396
 20
218.674347
 30
0.0
 11
202.892717
 21
218.273828
 31
0.0
  0
LINE
  8
0
  6
CONTINUOUS
 62
   249
 10
202.404748
 20
218.670228
 30
0.0
 11
202.863384
 21
218.285386
 31
0.0
  0
LINE
  8
0
  6
CONTINUOUS
 62
   249
 10
202.3941
 20
218.666108
 30
0.0
 11
202.834051
 21
218.296945
 31
0.0
  0
LINE
  8
0
  6
CONTINUOUS
 62
   249
 10
202.383452
 20
218.661989
 30
0.0
 11
202.804719
 21
218.308504
 31
0.0
  0
LINE
  8
0
  6
CONTINUOUS
 62
   249
 10
202.372803
 20
218.65787
 30
0.0
 11
202.775386
 21
218.320063
 31
0.0
  0
LINE
  8
0
  6
CONTINUOUS
 62
   249
 10
202.362155
 20
218.653751
 30
0.0
 11
202.746053
 21
218.331622
 31
0.0
  0
LINE
  8
0
  6
CONTINUOUS
 62
   249
 10
202.351507
 20
218.649632
 30
0.0
 11
202.716721
 21
218.343181
 31
0.0
  0
LINE
  8
0
  6
CONTINUOUS
 62
   249
 10
202.340859
 20
218.645513
 30
0.0
 11
202.687388
 21
218.35474
 31
0.0
  0
LINE
  8
0
  6
CONTINUOUS
 62
   249
 10
202.33021
 20
218.641394
 30
0.0
 11
202.658055
 21
218.366299
 31
0.0
  0
LINE
  8
0
  6
CONTINUOUS
 62
   249
 10
202.319562
 20
218.637275
 30
0.0
 11
202.628723
 21
218.377858
 31
0.0
  0
LINE
  8
0
  6
CONTINUOUS
 62
   249
 10
202.308914
 20
218.633156
 30
0.0
 11
202.59939
 21
218.389417
 31
0.0
  0
LINE
  8
0
  6
CONTINUOUS
 62
   249
 10
202.298265
 20
218.629036
 30
0.0
 11
202.570057
 21
218.400976
 31
0.0
  0
LINE
  8
0
  6
CONTINUOUS
 62
   249
 10
202.287617
 20
218.624917
 30
0.0
 11
202.540725
 21
218.412535
 31
0.0
  0
LINE
  8
0
  6
CONTINUOUS
 62
   249
 10
202.276969
 20
218.620798
 30
0.0
 11
202.511392
 21
218.424094
 31
0.0
  0
LINE
  8
0
  6
CONTINUOUS
 62
   249
 10
202.266321
 20
218.616679
 30
0.0
 11
202.48206
 21
218.435653
 31
0.0
  0
LINE
  8
0
  6
CONTINUOUS
 62
   249
 10
202.255672
 20
218.61256
 30
0.0
 11
202.452727
 21
218.447212
 31
0.0
  0
LINE
  8
0
  6
CONTINUOUS
 62
   249
 10
202.245024
 20
218.608441
 30
0.0
 11
202.423394
 21
218.458771
 31
0.0
  0
LINE
  8
0
  6
CONTINUOUS
 62
   249
 10
202.234376
 20
218.604322
 30
0.0
 11
202.394062
 21
218.470329
 31
0.0
  0
LINE
  8
0
  6
CONTINUOUS
 62
   249
 10
202.223728
 20
218.600203
 30
0.0
 11
202.364729
 21
218.481888
 31
0.0
  0
LINE
  8
0
  6
CONTINUOUS
 62
   249
 10
202.213079
 20
218.596084
 30
0.0
 11
202.335396
 21
218.493447
 31
0.0
  0
LINE
  8
0
  6
CONTINUOUS
 62
   249
 10
202.202431
 20
218.591964
 30
0.0
 11
202.306064
 21
218.505006
 31
0.0
  0
LINE
  8
0
  6
CONTINUOUS
 62
   249
 10
202.191783
 20
218.587845
 30
0.0
 11
202.276731
 21
218.516565
 31
0.0
  0
LINE
  8
0
  6
CONTINUOUS
 62
   249
 10
202.181134
 20
218.583726
 30
0.0
 11
202.247398
 21
218.528124
 31
0.0
  0
LINE
  8
0
  6
CONTINUOUS
 62
   249
 10
202.170486
 20
218.579607
 30
0.0
 11
202.218066
 21
218.539683
 31
0.0
  0
LINE
  8
0
  6
CONTINUOUS
 62
   249
 10
202.159838
 20
218.575488
 30
0.0
 11
202.188733
 21
218.551242
 31
0.0
  0
LINE
  8
0
  6
CONTINUOUS
 62
   249
 10
202.14919
 20
218.571369
 30
0.0
 11
202.1594
 21
218.562801
 31
0.0
  0
LINE
  8
0
  6
CONTINUOUS
 62
   249
 10
202.585769
 20
218.740252
 30
0.0
 11
203.362039
 21
218.088884
 31
0.0
  0
LINE
  8
0
  6
CONTINUOUS
 62
   249
 10
202.596417
 20
218.744371
 30
0.0
 11
203.391372
 21
218.077326
 31
0.0
  0
LINE
  8
0
  6
CONTINUOUS
 62
   249
 10
202.607065
 20
218.748491
 30
0.0
 11
203.419499
 21
218.066778
 31
0.0
  0
LINE
  8
0
  6
CONTINUOUS
 62
   249
 10
202.617714
 20
218.75261
 30
0.0
 11
203.419499
 21
218.079832
 31
0.0
  0
LINE
  8
0
  6
CONTINUOUS
 62
   249
 10
202.628362
 20
218.756729
 30
0.0
 11
203.419499
 21
218.092886
 31
0.0
  0
LINE
  8
0
  6
CONTINUOUS
 62
   249
 10
202.63901
 20
218.760848
 30
0.0
 11
203.419499
 21
218.105941
 31
0.0
  0
LINE
  8
0
  6
CONTINUOUS
 62
   249
 10
202.649659
 20
218.764967
 30
0.0
 11
203.419499
 21
218.118995
 31
0.0
  0
LINE
  8
0
  6
CONTINUOUS
 62
   249
 10
202.660307
 20
218.769086
 30
0.0
 11
203.419499
 21
218.132049
 31
0.0
  0
LINE
  8
0
  6
CONTINUOUS
 62
   249
 10
202.670955
 20
218.773205
 30
0.0
 11
203.419499
 21
218.145103
 31
0.0
  0
LINE
  8
0
  6
CONTINUOUS
 62
   249
 10
202.681603
 20
218.777324
 30
0.0
 11
203.419499
 21
218.158157
 31
0.0
  0
LINE
  8
0
  6
CONTINUOUS
 62
   249
 10
202.692252
 20
218.781443
 30
0.0
 11
203.419499
 21
218.171211
 31
0.0
  0
LINE
  8
0
  6
CONTINUOUS
 62
   249
 10
202.7029
 20
218.785563
 30
0.0
 11
203.419499
 21
218.184265
 31
0.0
  0
LINE
  8
0
  6
CONTINUOUS
 62
   249
 10
202.713548
 20
218.789682
 30
0.0
 11
203.419499
 21
218.197319
 31
0.0
  0
LINE
  8
0
  6
CONTINUOUS
 62
   249
 10
202.724196
 20
218.793801
 30
0.0
 11
203.419499
 21
218.210373
 31
0.0
  0
LINE
  8
0
  6
CONTINUOUS
 62
   249
 10
202.734845
 20
218.79792
 30
0.0
 11
203.419499
 21
218.223427
 31
0.0
  0
LINE
  8
0
  6
CONTINUOUS
 62
   249
 10
202.745493
 20
218.802039
 30
0.0
 11
203.419499
 21
218.236481
 31
0.0
  0
LINE
  8
0
  6
CONTINUOUS
 62
   249
 10
202.756141
 20
218.806158
 30
0.0
 11
203.419499
 21
218.249535
 31
0.0
  0
LINE
  8
0
  6
CONTINUOUS
 62
   249
 10
202.76679
 20
218.810277
 30
0.0
 11
203.419499
 21
218.262589
 31
0.0
  0
LINE
  8
0
  6
CONTINUOUS
 62
   249
 10
202.777438
 20
218.814396
 30
0.0
 11
203.419499
 21
218.275643
 31
0.0
  0
LINE
  8
0
  6
CONTINUOUS
 62
   249
 10
202.788086
 20
218.818515
 30
0.0
 11
203.419499
 21
218.288698
 31
0.0
  0
LINE
  8
0
  6
CONTINUOUS
 62
   249
 10
202.798734
 20
218.822635
 30
0.0
 11
203.419499
 21
218.301752
 31
0.0
  0
LINE
  8
0
  6
CONTINUOUS
 62
   249
 10
202.809383
 20
218.826754
 30
0.0
 11
203.419499
 21
218.314806
 31
0.0
  0
LINE
  8
0
  6
CONTINUOUS
 62
   249
 10
202.820031
 20
218.830873
 30
0.0
 11
203.419499
 21
218.32786
 31
0.0
  0
LINE
  8
0
  6
CONTINUOUS
 62
   249
 10
202.830679
 20
218.834992
 30
0.0
 11
203.419499
 21
218.340914
 31
0.0
  0
LINE
  8
0
  6
CONTINUOUS
 62
   249
 10
202.841327
 20
218.839111
 30
0.0
 11
203.419499
 21
218.353968
 31
0.0
  0
LINE
  8
0
  6
CONTINUOUS
 62
   249
 10
202.851976
 20
218.84323
 30
0.0
 11
203.419499
 21
218.367022
 31
0.0
  0
LINE
  8
0
  6
CONTINUOUS
 62
   249
 10
202.862624
 20
218.847349
 30
0.0
 11
203.419499
 21
218.380076
 31
0.0
  0
LINE
  8
0
  6
CONTINUOUS
 62
   249
 10
202.873272
 20
218.851468
 30
0.0
 11
203.419499
 21
218.39313
 31
0.0
  0
LINE
  8
0
  6
CONTINUOUS
 62
   249
 10
202.883921
 20
218.855587
 30
0.0
 11
203.419499
 21
218.406184
 31
0.0
  0
LINE
  8
0
  6
CONTINUOUS
 62
   249
 10
202.894569
 20
218.859707
 30
0.0
 11
203.419499
 21
218.419238
 31
0.0
  0
LINE
  8
0
  6
CONTINUOUS
 62
   249
 10
202.905217
 20
218.863826
 30
0.0
 11
203.419499
 21
218.432292
 31
0.0
  0
LINE
  8
0
  6
CONTINUOUS
 62
   249
 10
202.915865
 20
218.867945
 30
0.0
 11
203.419499
 21
218.445346
 31
0.0
  0
LINE
  8
0
  6
CONTINUOUS
 62
   249
 10
202.926514
 20
218.872064
 30
0.0
 11
203.419499
 21
218.4584
 31
0.0
  0
LINE
  8
0
  6
CONTINUOUS
 62
   249
 10
202.937162
 20
218.876183
 30
0.0
 11
203.419499
 21
218.471455
 31
0.0
  0
LINE
  8
0
  6
CONTINUOUS
 62
   249
 10
202.94781
 20
218.880302
 30
0.0
 11
203.419499
 21
218.484509
 31
0.0
  0
LINE
  8
0
  6
CONTINUOUS
 62
   249
 10
202.958458
 20
218.884421
 30
0.0
 11
203.419499
 21
218.497563
 31
0.0
  0
LINE
  8
0
  6
CONTINUOUS
 62
   249
 10
202.969107
 20
218.88854
 30
0.0
 11
203.419499
 21
218.510617
 31
0.0
  0
LINE
  8
0
  6
CONTINUOUS
 62
   249
 10
202.979755
 20
218.892659
 30
0.0
 11
203.419499
 21
218.523671
 31
0.0
  0
LINE
  8
0
  6
CONTINUOUS
 62
   249
 10
202.990403
 20
218.896779
 30
0.0
 11
203.419499
 21
218.536725
 31
0.0
  0
LINE
  8
0
  6
CONTINUOUS
 62
   249
 10
203.001052
 20
218.900898
 30
0.0
 11
203.419499
 21
218.549779
 31
0.0
  0
LINE
  8
0
  6
CONTINUOUS
 62
   249
 10
203.0117
 20
218.905017
 30
0.0
 11
203.419499
 21
218.562833
 31
0.0
  0
LINE
  8
0
  6
CONTINUOUS
 62
   249
 10
203.022348
 20
218.909136
 30
0.0
 11
203.419499
 21
218.575887
 31
0.0
  0
LINE
  8
0
  6
CONTINUOUS
 62
   249
 10
203.032996
 20
218.913255
 30
0.0
 11
203.419499
 21
218.588941
 31
0.0
  0
LINE
  8
0
  6
CONTINUOUS
 62
   249
 10
203.043645
 20
218.917374
 30
0.0
 11
203.419499
 21
218.601995
 31
0.0
  0
LINE
  8
0
  6
CONTINUOUS
 62
   249
 10
203.054293
 20
218.921493
 30
0.0
 11
203.419499
 21
218.615049
 31
0.0
  0
LINE
  8
0
  6
CONTINUOUS
 62
   249
 10
203.064941
 20
218.925612
 30
0.0
 11
203.419499
 21
218.628103
 31
0.0
  0
LINE
  8
0
  6
CONTINUOUS
 62
   249
 10
203.07559
 20
218.929731
 30
0.0
 11
203.419499
 21
218.641157
 31
0.0
  0
LINE
  8
0
  6
CONTINUOUS
 62
   249
 10
203.086238
 20
218.93385
 30
0.0
 11
203.419499
 21
218.654212
 31
0.0
  0
LINE
  8
0
  6
CONTINUOUS
 62
   249
 10
203.096886
 20
218.93797
 30
0.0
 11
203.419499
 21
218.667266
 31
0.0
  0
LINE
  8
0
  6
CONTINUOUS
 62
   249
 10
203.107534
 20
218.942089
 30
0.0
 11
203.419499
 21
218.68032
 31
0.0
  0
LINE
  8
0
  6
CONTINUOUS
 62
   249
 10
203.118183
 20
218.946208
 30
0.0
 11
203.419499
 21
218.693374
 31
0.0
  0
LINE
  8
0
  6
CONTINUOUS
 62
   249
 10
203.128831
 20
218.950327
 30
0.0
 11
203.419499
 21
218.706428
 31
0.0
  0
LINE
  8
0
  6
CONTINUOUS
 62
   249
 10
203.139479
 20
218.954446
 30
0.0
 11
203.419499
 21
218.719482
 31
0.0
  0
LINE
  8
0
  6
CONTINUOUS
 62
   249
 10
203.150127
 20
218.958565
 30
0.0
 11
203.419499
 21
218.732536
 31
0.0
  0
LINE
  8
0
  6
CONTINUOUS
 62
   249
 10
203.160776
 20
218.962684
 30
0.0
 11
203.419499
 21
218.74559
 31
0.0
  0
LINE
  8
0
  6
CONTINUOUS
 62
   249
 10
203.171424
 20
218.966803
 30
0.0
 11
203.419499
 21
218.758644
 31
0.0
  0
LINE
  8
0
  6
CONTINUOUS
 62
   249
 10
203.182072
 20
218.970922
 30
0.0
 11
203.419499
 21
218.771698
 31
0.0
  0
LINE
  8
0
  6
CONTINUOUS
 62
   249
 10
203.192721
 20
218.975042
 30
0.0
 11
203.419499
 21
218.784752
 31
0.0
  0
LINE
  8
0
  6
CONTINUOUS
 62
   249
 10
203.203369
 20
218.979161
 30
0.0
 11
203.419499
 21
218.797806
 31
0.0
  0
LINE
  8
0
  6
CONTINUOUS
 62
   249
 10
203.214017
 20
218.98328
 30
0.0
 11
203.419499
 21
218.81086
 31
0.0
  0
LINE
  8
0
  6
CONTINUOUS
 62
   249
 10
203.224665
 20
218.987399
 30
0.0
 11
203.419499
 21
218.823915
 31
0.0
  0
LINE
  8
0
  6
CONTINUOUS
 62
   249
 10
203.235314
 20
218.991518
 30
0.0
 11
203.419499
 21
218.836969
 31
0.0
  0
LINE
  8
0
  6
CONTINUOUS
 62
   249
 10
203.245962
 20
218.995637
 30
0.0
 11
203.419499
 21
218.850023
 31
0.0
  0
LINE
  8
0
  6
CONTINUOUS
 62
   249
 10
203.25661
 20
218.999756
 30
0.0
 11
203.419499
 21
218.863077
 31
0.0
  0
LINE
  8
0
  6
CONTINUOUS
 62
   249
 10
203.267258
 20
219.003875
 30
0.0
 11
203.419499
 21
218.876131
 31
0.0
  0
LINE
  8
0
  6
CONTINUOUS
 62
   249
 10
203.277907
 20
219.007994
 30
0.0
 11
203.419499
 21
218.889185
 31
0.0
  0
LINE
  8
0
  6
CONTINUOUS
 62
   249
 10
203.288555
 20
219.012114
 30
0.0
 11
203.419499
 21
218.902239
 31
0.0
  0
LINE
  8
0
  6
CONTINUOUS
 62
   249
 10
203.299203
 20
219.016233
 30
0.0
 11
203.419499
 21
218.915293
 31
0.0
  0
LINE
  8
0
  6
CONTINUOUS
 62
   249
 10
203.309852
 20
219.020352
 30
0.0
 11
203.419499
 21
218.928347
 31
0.0
  0
LINE
  8
0
  6
CONTINUOUS
 62
   249
 10
203.3205
 20
219.024471
 30
0.0
 11
203.419499
 21
218.941401
 31
0.0
  0
LINE
  8
0
  6
CONTINUOUS
 62
   249
 10
203.331148
 20
219.02859
 30
0.0
 11
203.419499
 21
218.954455
 31
0.0
  0
LINE
  8
0
  6
CONTINUOUS
 62
   249
 10
203.341796
 20
219.032709
 30
0.0
 11
203.419499
 21
218.967509
 31
0.0
  0
LINE
  8
0
  6
CONTINUOUS
 62
   249
 10
203.352445
 20
219.036828
 30
0.0
 11
203.419499
 21
218.980563
 31
0.0
  0
LINE
  8
0
  6
CONTINUOUS
 62
   249
 10
203.363093
 20
219.040947
 30
0.0
 11
203.419499
 21
218.993617
 31
0.0
  0
LINE
  8
0
  6
CONTINUOUS
 62
   249
 10
203.373741
 20
219.045066
 30
0.0
 11
203.419499
 21
219.006672
 31
0.0
  0
LINE
  8
0
  6
CONTINUOUS
 62
   249
 10
203.38439
 20
219.049186
 30
0.0
 11
203.419499
 21
219.019726
 31
0.0
  0
LINE
  8
0
  6
CONTINUOUS
 62
   249
 10
203.395038
 20
219.053305
 30
0.0
 11
203.419499
 21
219.03278
 31
0.0
  0
LINE
  8
0
  6
CONTINUOUS
 62
   249
 10
203.405686
 20
219.057424
 30
0.0
 11
203.419499
 21
219.045834
 31
0.0
  0
LINE
  8
0
  6
CONTINUOUS
 62
   249
 10
203.416334
 20
219.061543
 30
0.0
 11
203.419499
 21
219.058888
 31
0.0
  0
INSERT
  8
0
  6
DASHED
 62
   249
  2
BLC15
 10
334.857913
 20
145.308858
 30
0.0
  0
ARC
  8
0
  6
DASHED
 62
   249
 10
335.0
 20
165.0
 30
0.0
 40
0.5
 50
180.0
 51
0.0
  0
ARC
  8
0
  6
DASHED
 62
   249
 10
335.0
 20
165.0
 30
0.0
 40
0.5
 50
0.0
 51
180.0
  0
LINE
  8
0
  6
CONTINUOUS
 62
   249
 10
369.667038
 20
190.481612
 30
0.0
 11
369.667038
 21
189.127342
 31
0.0
  0
LINE
  8
0
  6
CONTINUOUS
 62
   249
 10
368.45681
 20
189.127342
 30
0.0
 11
369.651151
 21
189.127342
 31
0.0
  0
LINE
  8
0
  6
CONTINUOUS
 62
   249
 10
369.651151
 20
189.127342
 30
0.0
 11
370.845492
 21
189.127342
 31
0.0
  0
LINE
  8
0
  6
CONTINUOUS
 62
   249
 10
368.835215
 20
188.647731
 30
0.0
 11
370.419786
 21
188.647731
 31
0.0
  0
LINE
  8
0
  6
CONTINUOUS
 62
   249
 10
369.16632
 20
188.159557
 30
0.0
 11
370.053206
 21
188.159557
 31
0.0
  0
LINE
  8
0
  6
CONTINUOUS
 62
   249
 10
370.017008
 20
199.948111
 30
0.0
 11
370.017008
 21
198.593841
 31
0.0
  0
LINE
  8
0
  6
CONTINUOUS
 62
   249
 10
368.80678
 20
198.593841
 30
0.0
 11
370.001121
 21
198.593841
 31
0.0
  0
LINE
  8
0
  6
CONTINUOUS
 62
   249
 10
370.001121
 20
198.593841
 30
0.0
 11
371.195462
 21
198.593841
 31
0.0
  0
LINE
  8
0
  6
CONTINUOUS
 62
   249
 10
369.185185
 20
198.11423
 30
0.0
 11
370.769756
 21
198.11423
 31
0.0
  0
LINE
  8
0
  6
CONTINUOUS
 62
   249
 10
369.516289
 20
197.626056
 30
0.0
 11
370.403176
 21
197.626056
 31
0.0
  0
ARC
  8
0
  6
DASHED
 62
   249
 10
335.0
 20
215.0
 30
0.0
 40
0.5
 50
180.0
 51
0.0
  0
ARC
  8
0
  6
DASHED
 62
   249
 10
335.0
 20
215.0
 30
0.0
 40
0.5
 50
0.0
 51
180.0
  0
LINE
  8
0
  6
CONTINUOUS
 62
   249
 10
371.328447
 20
229.380303
 30
0.0
 11
371.788972
 21
229.929135
 31
0.0
  0
LINE
  8
0
  6
CONTINUOUS
 62
   249
 10
371.318636
 20
229.384169
 30
0.0
 11
371.769644
 21
229.921659
 31
0.0
  0
LINE
  8
0
  6
CONTINUOUS
 62
   249
 10
371.308826
 20
229.388034
 30
0.0
 11
371.750317
 21
229.914182
 31
0.0
  0
LINE
  8
0
  6
CONTINUOUS
 62
   249
 10
371.299016
 20
229.3919
 30
0.0
 11
371.730989
 21
229.906706
 31
0.0
  0
LINE
  8
0
  6
CONTINUOUS
 62
   249
 10
371.289206
 20
229.395766
 30
0.0
 11
371.711661
 21
229.899229
 31
0.0
  0
LINE
  8
0
  6
CONTINUOUS
 62
   249
 10
371.279396
 20
229.399632
 30
0.0
 11
371.692334
 21
229.891752
 31
0.0
  0
LINE
  8
0
  6
CONTINUOUS
 62
   249
 10
371.269585
 20
229.403498
 30
0.0
 11
371.673006
 21
229.884276
 31
0.0
  0
LINE
  8
0
  6
CONTINUOUS
 62
   249
 10
371.259775
 20
229.407364
 30
0.0
 11
371.653678
 21
229.876799
 31
0.0
  0
LINE
  8
0
  6
CONTINUOUS
 62
   249
 10
371.249965
 20
229.41123
 30
0.0
 11
371.63435
 21
229.869323
 31
0.0
  0
LINE
  8
0
  6
CONTINUOUS
 62
   249
 10
371.240155
 20
229.415096
 30
0.0
 11
371.615023
 21
229.861846
 31
0.0
  0
LINE
  8
0
  6
CONTINUOUS
 62
   249
 10
371.230344
 20
229.418961
 30
0.0
 11
371.595695
 21
229.854369
 31
0.0
  0
LINE
  8
0
  6
CONTINUOUS
 62
   249
 10
371.220534
 20
229.422827
 30
0.0
 11
371.576367
 21
229.846893
 31
0.0
  0
LINE
  8
0
  6
CONTINUOUS
 62
   249
 10
371.210724
 20
229.426693
 30
0.0
 11
371.55704
 21
229.839416
 31
0.0
  0
LINE
  8
0
  6
CONTINUOUS
 62
   249
 10
371.200914
 20
229.430559
 30
0.0
 11
371.537712
 21
229.83194
 31
0.0
  0
LINE
  8
0
  6
CONTINUOUS
 62
   249
 10
371.191103
 20
229.434425
 30
0.0
 11
371.518384
 21
229.824463
 31
0.0
  0
LINE
  8
0
  6
CONTINUOUS
 62
   249
 10
371.181293
 20
229.438291
 30
0.0
 11
371.499057
 21
229.816986
 31
0.0
  0
LINE
  8
0
  6
CONTINUOUS
 62
   249
 10
371.171483
 20
229.442157
 30
0.0
 11
371.479729
 21
229.80951
 31
0.0
  0
LINE
  8
0
  6
CONTINUOUS
 62
   249
 10
371.161673
 20
229.446022
 30
0.0
 11
371.460401
 21
229.802033
 31
0.0
  0
LINE
  8
0
  6
CONTINUOUS
 62
   249
 10
371.151863
 20
229.449888
 30
0.0
 11
371.441074
 21
229.794557
 31
0.0
  0
LINE
  8
0
  6
CONTINUOUS
 62
   249
 10
371.142052
 20
229.453754
 30
0.0
 11
371.421746
 21
229.78708
 31
0.0
  0
LINE
  8
0
  6
CONTINUOUS
 62
   249
 10
371.132242
 20
229.45762
 30
0.0
 11
371.402418
 21
229.779603
 31
0.0
  0
LINE
  8
0
  6
CONTINUOUS
 62
   249
 10
371.122432
 20
229.461486
 30
0.0
 11
371.383091
 21
229.772127
 31
0.0
  0
LINE
  8
0
  6
CONTINUOUS
 62
   249
 10
371.112622
 20
229.465352
 30
0.0
 11
371.363763
 21
229.76465
 31
0.0
  0
LINE
  8
0
  6
CONTINUOUS
 62
   249
 10
371.102811
 20
229.469218
 30
0.0
 11
371.344435
 21
229.757174
 31
0.0
  0
LINE
  8
0
  6
CONTINUOUS
 62
   249
 10
371.093001
 20
229.473083
 30
0.0
 11
371.325108
 21
229.749697
 31
0.0
  0
LINE
  8
0
  6
CONTINUOUS
 62
   249
 10
371.083191
 20
229.476949
 30
0.0
 11
371.30578
 21
229.742221
 31
0.0
  0
LINE
  8
0
  6
CONTINUOUS
 62
   249
 10
371.073381
 20
229.480815
 30
0.0
 11
371.286452
 21
229.734744
 31
0.0
  0
LINE
  8
0
  6
CONTINUOUS
 62
   249
 10
371.06357
 20
229.484681
 30
0.0
 11
371.267125
 21
229.727267
 31
0.0
  0
LINE
  8
0
  6
CONTINUOUS
 62
   249
 10
371.05376
 20
229.488547
 30
0.0
 11
371.247797
 21
229.719791
 31
0.0
  0
LINE
  8
0
  6
CONTINUOUS
 62
   249
 10
371.04395
 20
229.492413
 30
0.0
 11
371.228469
 21
229.712314
 31
0.0
  0
LINE
  8
0
  6
CONTINUOUS
 62
   249
 10
371.03414
 20
229.496279
 30
0.0
 11
371.209142
 21
229.704838
 31
0.0
  0
LINE
  8
0
  6
CONTINUOUS
 62
   249
 10
371.02433
 20
229.500144
 30
0.0
 11
371.189814
 21
229.697361
 31
0.0
  0
LINE
  8
0
  6
CONTINUOUS
 62
   249
 10
371.014519
 20
229.50401
 30
0.0
 11
371.170486
 21
229.689884
 31
0.0
  0
LINE
  8
0
  6
CONTINUOUS
 62
   249
 10
371.004709
 20
229.507876
 30
0.0
 11
371.151158
 21
229.682408
 31
0.0
  0
LINE
  8
0
  6
CONTINUOUS
 62
   249
 10
370.994899
 20
229.511742
 30
0.0
 11
371.131831
 21
229.674931
 31
0.0
  0
LINE
  8
0
  6
CONTINUOUS
 62
   249
 10
370.985089
 20
229.515608
 30
0.0
 11
371.112503
 21
229.667455
 31
0.0
  0
LINE
  8
0
  6
CONTINUOUS
 62
   249
 10
370.975278
 20
229.519474
 30
0.0
 11
371.093175
 21
229.659978
 31
0.0
  0
LINE
  8
0
  6
CONTINUOUS
 62
   249
 10
370.965468
 20
229.52334
 30
0.0
 11
371.073848
 21
229.652501
 31
0.0
  0
LINE
  8
0
  6
CONTINUOUS
 62
   249
 10
370.955658
 20
229.527205
 30
0.0
 11
371.05452
 21
229.645025
 31
0.0
  0
LINE
  8
0
  6
CONTINUOUS
 62
   249
 10
370.945848
 20
229.531071
 30
0.0
 11
371.035192
 21
229.637548
 31
0.0
  0
LINE
  8
0
  6
CONTINUOUS
 62
   249
 10
370.936037
 20
229.534937
 30
0.0
 11
371.015865
 21
229.630072
 31
0.0
  0
LINE
  8
0
  6
CONTINUOUS
 62
   249
 10
370.926227
 20
229.538803
 30
0.0
 11
370.996537
 21
229.622595
 31
0.0
  0
LINE
  8
0
  6
CONTINUOUS
 62
   249
 10
370.916417
 20
229.542669
 30
0.0
 11
370.977209
 21
229.615118
 31
0.0
  0
LINE
  8
0
  6
CONTINUOUS
 62
   249
 10
370.906607
 20
229.546535
 30
0.0
 11
370.957882
 21
229.607642
 31
0.0
  0
LINE
  8
0
  6
CONTINUOUS
 62
   249
 10
370.896797
 20
229.550401
 30
0.0
 11
370.938554
 21
229.600165
 31
0.0
  0
LINE
  8
0
  6
CONTINUOUS
 62
   249
 10
370.886986
 20
229.554266
 30
0.0
 11
370.919226
 21
229.592689
 31
0.0
  0
LINE
  8
0
  6
CONTINUOUS
 62
   249
 10
370.877176
 20
229.558132
 30
0.0
 11
370.899899
 21
229.585212
 31
0.0
  0
LINE
  8
0
  6
CONTINUOUS
 62
   249
 10
370.867366
 20
229.561998
 30
0.0
 11
370.880571
 21
229.577735
 31
0.0
  0
LINE
  8
0
  6
CONTINUOUS
 62
   249
 10
370.857556
 20
229.565864
 30
0.0
 11
370.861243
 21
229.570259
 31
0.0
  0
LINE
  8
0
  6
CONTINUOUS
 62
   249
 10
371.338257
 20
229.376437
 30
0.0
 11
371.8083
 21
229.936612
 31
0.0
  0
LINE
  8
0
  6
CONTINUOUS
 62
   249
 10
371.348067
 20
229.372571
 30
0.0
 11
371.827627
 21
229.944089
 31
0.0
  0
LINE
  8
0
  6
CONTINUOUS
 62
   249
 10
371.357877
 20
229.368705
 30
0.0
 11
371.846955
 21
229.951565
 31
0.0
  0
LINE
  8
0
  6
CONTINUOUS
 62
   249
 10
371.367688
 20
229.364839
 30
0.0
 11
371.866283
 21
229.959042
 31
0.0
  0
LINE
  8
0
  6
CONTINUOUS
 62
   249
 10
371.377498
 20
229.360973
 30
0.0
 11
371.88561
 21
229.966518
 31
0.0
  0
LINE
  8
0
  6
CONTINUOUS
 62
   249
 10
371.387308
 20
229.357108
 30
0.0
 11
371.904938
 21
229.973995
 31
0.0
  0
LINE
  8
0
  6
CONTINUOUS
 62
   249
 10
371.397118
 20
229.353242
 30
0.0
 11
371.924266
 21
229.981472
 31
0.0
  0
LINE
  8
0
  6
CONTINUOUS
 62
   249
 10
371.406929
 20
229.349376
 30
0.0
 11
371.943593
 21
229.988948
 31
0.0
  0
LINE
  8
0
  6
CONTINUOUS
 62
   249
 10
371.416739
 20
229.34551
 30
0.0
 11
371.962921
 21
229.996425
 31
0.0
  0
LINE
  8
0
  6
CONTINUOUS
 62
   249
 10
371.426549
 20
229.341644
 30
0.0
 11
371.982249
 21
230.003901
 31
0.0
  0
LINE
  8
0
  6
CONTINUOUS
 62
   249
 10
371.436359
 20
229.337778
 30
0.0
 11
372.001576
 21
230.011378
 31
0.0
  0
LINE
  8
0
  6
CONTINUOUS
 62
   249
 10
371.446169
 20
229.333912
 30
0.0
 11
372.020904
 21
230.018854
 31
0.0
  0
LINE
  8
0
  6
CONTINUOUS
 62
   249
 10
371.45598
 20
229.330047
 30
0.0
 11
372.040232
 21
230.026331
 31
0.0
  0
LINE
  8
0
  6
CONTINUOUS
 62
   249
 10
371.46579
 20
229.326181
 30
0.0
 11
372.059559
 21
230.033808
 31
0.0
  0
LINE
  8
0
  6
CONTINUOUS
 62
   249
 10
371.4756
 20
229.322315
 30
0.0
 11
372.078887
 21
230.041284
 31
0.0
  0
LINE
  8
0
  6
CONTINUOUS
 62
   249
 10
371.48541
 20
229.318449
 30
0.0
 11
372.098215
 21
230.048761
 31
0.0
  0
LINE
  8
0
  6
CONTINUOUS
 62
   249
 10
371.495221
 20
229.314583
 30
0.0
 11
372.117542
 21
230.056237
 31
0.0
  0
LINE
  8
0
  6
CONTINUOUS
 62
   249
 10
371.505031
 20
229.310717
 30
0.0
 11
372.129882
 21
230.055386
 31
0.0
  0
LINE
  8
0
  6
CONTINUOUS
 62
   249
 10
371.514841
 20
229.306851
 30
0.0
 11
372.129882
 21
230.039829
 31
0.0
  0
LINE
  8
0
  6
CONTINUOUS
 62
   249
 10
371.524651
 20
229.302986
 30
0.0
 11
372.129882
 21
230.024272
 31
0.0
  0
LINE
  8
0
  6
CONTINUOUS
 62
   249
 10
371.534462
 20
229.29912
 30
0.0
 11
372.129882
 21
230.008715
 31
0.0
  0
LINE
  8
0
  6
CONTINUOUS
 62
   249
 10
371.544272
 20
229.295254
 30
0.0
 11
372.129882
 21
229.993158
 31
0.0
  0
LINE
  8
0
  6
CONTINUOUS
 62
   249
 10
371.554082
 20
229.291388
 30
0.0
 11
372.129882
 21
229.9776
 31
0.0
  0
LINE
  8
0
  6
CONTINUOUS
 62
   249
 10
371.563892
 20
229.287522
 30
0.0
 11
372.129882
 21
229.962043
 31
0.0
  0
LINE
  8
0
  6
CONTINUOUS
 62
   249
 10
371.573703
 20
229.283656
 30
0.0
 11
372.129882
 21
229.946486
 31
0.0
  0
LINE
  8
0
  6
CONTINUOUS
 62
   249
 10
371.583513
 20
229.27979
 30
0.0
 11
372.129882
 21
229.930929
 31
0.0
  0
LINE
  8
0
  6
CONTINUOUS
 62
   249
 10
371.593323
 20
229.275925
 30
0.0
 11
372.129882
 21
229.915371
 31
0.0
  0
LINE
  8
0
  6
CONTINUOUS
 62
   249
 10
371.603133
 20
229.272059
 30
0.0
 11
372.129882
 21
229.899814
 31
0.0
  0
LINE
  8
0
  6
CONTINUOUS
 62
   249
 10
371.612943
 20
229.268193
 30
0.0
 11
372.129882
 21
229.884257
 31
0.0
  0
LINE
  8
0
  6
CONTINUOUS
 62
   249
 10
371.622754
 20
229.264327
 30
0.0
 11
372.129882
 21
229.8687
 31
0.0
  0
LINE
  8
0
  6
CONTINUOUS
 62
   249
 10
371.632564
 20
229.260461
 30
0.0
 11
372.129882
 21
229.853142
 31
0.0
  0
LINE
  8
0
  6
CONTINUOUS
 62
   249
 10
371.642374
 20
229.256595
 30
0.0
 11
372.129882
 21
229.837585
 31
0.0
  0
LINE
  8
0
  6
CONTINUOUS
 62
   249
 10
371.652184
 20
229.252729
 30
0.0
 11
372.129882
 21
229.822028
 31
0.0
  0
LINE
  8
0
  6
CONTINUOUS
 62
   249
 10
371.661995
 20
229.248864
 30
0.0
 11
372.129882
 21
229.806471
 31
0.0
  0
LINE
  8
0
  6
CONTINUOUS
 62
   249
 10
371.671805
 20
229.244998
 30
0.0
 11
372.129882
 21
229.790913
 31
0.0
  0
LINE
  8
0
  6
CONTINUOUS
 62
   249
 10
371.681615
 20
229.241132
 30
0.0
 11
372.129882
 21
229.775356
 31
0.0
  0
LINE
  8
0
  6
CONTINUOUS
 62
   249
 10
371.691425
 20
229.237266
 30
0.0
 11
372.129882
 21
229.759799
 31
0.0
  0
LINE
  8
0
  6
CONTINUOUS
 62
   249
 10
371.701236
 20
229.2334
 30
0.0
 11
372.129882
 21
229.744242
 31
0.0
  0
LINE
  8
0
  6
CONTINUOUS
 62
   249
 10
371.711046
 20
229.229534
 30
0.0
 11
372.129882
 21
229.728684
 31
0.0
  0
LINE
  8
0
  6
CONTINUOUS
 62
   249
 10
371.720856
 20
229.225668
 30
0.0
 11
372.129882
 21
229.713127
 31
0.0
  0
LINE
  8
0
  6
CONTINUOUS
 62
   249
 10
371.730666
 20
229.221803
 30
0.0
 11
372.129882
 21
229.69757
 31
0.0
  0
LINE
  8
0
  6
CONTINUOUS
 62
   249
 10
371.740476
 20
229.217937
 30
0.0
 11
372.129882
 21
229.682013
 31
0.0
  0
LINE
  8
0
  6
CONTINUOUS
 62
   249
 10
371.750287
 20
229.214071
 30
0.0
 11
372.129882
 21
229.666456
 31
0.0
  0
LINE
  8
0
  6
CONTINUOUS
 62
   249
 10
371.760097
 20
229.210205
 30
0.0
 11
372.129882
 21
229.650898
 31
0.0
  0
LINE
  8
0
  6
CONTINUOUS
 62
   249
 10
371.769907
 20
229.206339
 30
0.0
 11
372.129882
 21
229.635341
 31
0.0
  0
LINE
  8
0
  6
CONTINUOUS
 62
   249
 10
371.779717
 20
229.202473
 30
0.0
 11
372.129882
 21
229.619784
 31
0.0
  0
LINE
  8
0
  6
CONTINUOUS
 62
   249
 10
371.789528
 20
229.198607
 30
0.0
 11
372.129882
 21
229.604227
 31
0.0
  0
LINE
  8
0
  6
CONTINUOUS
 62
   249
 10
371.799338
 20
229.194742
 30
0.0
 11
372.129882
 21
229.588669
 31
0.0
  0
LINE
  8
0
  6
CONTINUOUS
 62
   249
 10
371.809148
 20
229.190876
 30
0.0
 11
372.129882
 21
229.573112
 31
0.0
  0
LINE
  8
0
  6
CONTINUOUS
 62
   249
 10
371.818958
 20
229.18701
 30
0.0
 11
372.129882
 21
229.557555
 31
0.0
  0
LINE
  8
0
  6
CONTINUOUS
 62
   249
 10
371.828769
 20
229.183144
 30
0.0
 11
372.129882
 21
229.541998
 31
0.0
  0
LINE
  8
0
  6
CONTINUOUS
 62
   249
 10
371.838579
 20
229.179278
 30
0.0
 11
372.129882
 21
229.52644
 31
0.0
  0
LINE
  8
0
  6
CONTINUOUS
 62
   249
 10
371.848389
 20
229.175412
 30
0.0
 11
372.129882
 21
229.510883
 31
0.0
  0
LINE
  8
0
  6
CONTINUOUS
 62
   249
 10
371.858199
 20
229.171546
 30
0.0
 11
372.129882
 21
229.495326
 31
0.0
  0
LINE
  8
0
  6
CONTINUOUS
 62
   249
 10
371.868009
 20
229.167681
 30
0.0
 11
372.129882
 21
229.479769
 31
0.0
  0
LINE
  8
0
  6
CONTINUOUS
 62
   249
 10
371.87782
 20
229.163815
 30
0.0
 11
372.129882
 21
229.464211
 31
0.0
  0
LINE
  8
0
  6
CONTINUOUS
 62
   249
 10
371.88763
 20
229.159949
 30
0.0
 11
372.129882
 21
229.448654
 31
0.0
  0
LINE
  8
0
  6
CONTINUOUS
 62
   249
 10
371.89744
 20
229.156083
 30
0.0
 11
372.129882
 21
229.433097
 31
0.0
  0
LINE
  8
0
  6
CONTINUOUS
 62
   249
 10
371.90725
 20
229.152217
 30
0.0
 11
372.129882
 21
229.41754
 31
0.0
  0
LINE
  8
0
  6
CONTINUOUS
 62
   249
 10
371.917061
 20
229.148351
 30
0.0
 11
372.129882
 21
229.401982
 31
0.0
  0
LINE
  8
0
  6
CONTINUOUS
 62
   249
 10
371.926871
 20
229.144485
 30
0.0
 11
372.129882
 21
229.386425
 31
0.0
  0
LINE
  8
0
  6
CONTINUOUS
 62
   249
 10
371.936681
 20
229.14062
 30
0.0
 11
372.129882
 21
229.370868
 31
0.0
  0
LINE
  8
0
  6
CONTINUOUS
 62
   249
 10
371.946491
 20
229.136754
 30
0.0
 11
372.129882
 21
229.355311
 31
0.0
  0
LINE
  8
0
  6
CONTINUOUS
 62
   249
 10
371.956302
 20
229.132888
 30
0.0
 11
372.129882
 21
229.339754
 31
0.0
  0
LINE
  8
0
  6
CONTINUOUS
 62
   249
 10
371.966112
 20
229.129022
 30
0.0
 11
372.129882
 21
229.324196
 31
0.0
  0
LINE
  8
0
  6
CONTINUOUS
 62
   249
 10
371.975922
 20
229.125156
 30
0.0
 11
372.129882
 21
229.308639
 31
0.0
  0
LINE
  8
0
  6
CONTINUOUS
 62
   249
 10
371.985732
 20
229.12129
 30
0.0
 11
372.129882
 21
229.293082
 31
0.0
  0
LINE
  8
0
  6
CONTINUOUS
 62
   249
 10
371.995542
 20
229.117424
 30
0.0
 11
372.129882
 21
229.277525
 31
0.0
  0
LINE
  8
0
  6
CONTINUOUS
 62
   249
 10
372.005353
 20
229.113558
 30
0.0
 11
372.129882
 21
229.261967
 31
0.0
  0
LINE
  8
0
  6
CONTINUOUS
 62
   249
 10
372.015163
 20
229.109693
 30
0.0
 11
372.129882
 21
229.24641
 31
0.0
  0
LINE
  8
0
  6
CONTINUOUS
 62
   249
 10
372.024973
 20
229.105827
 30
0.0
 11
372.129882
 21
229.230853
 31
0.0
  0
LINE
  8
0
  6
CONTINUOUS
 62
   249
 10
372.034783
 20
229.101961
 30
0.0
 11
372.129882
 21
229.215296
 31
0.0
  0
LINE
  8
0
  6
CONTINUOUS
 62
   249
 10
372.044594
 20
229.098095
 30
0.0
 11
372.129882
 21
229.199738
 31
0.0
  0
LINE
  8
0
  6
CONTINUOUS
 62
   249
 10
372.054404
 20
229.094229
 30
0.0
 11
372.129882
 21
229.184181
 31
0.0
  0
LINE
  8
0
  6
CONTINUOUS
 62
   249
 10
372.064214
 20
229.090363
 30
0.0
 11
372.129882
 21
229.168624
 31
0.0
  0
LINE
  8
0
  6
CONTINUOUS
 62
   249
 10
372.074024
 20
229.086497
 30
0.0
 11
372.129882
 21
229.153067
 31
0.0
  0
LINE
  8
0
  6
CONTINUOUS
 62
   249
 10
372.083835
 20
229.082632
 30
0.0
 11
372.129882
 21
229.137509
 31
0.0
  0
LINE
  8
0
  6
CONTINUOUS
 62
   249
 10
372.093645
 20
229.078766
 30
0.0
 11
372.129882
 21
229.121952
 31
0.0
  0
LINE
  8
0
  6
CONTINUOUS
 62
   249
 10
372.103455
 20
229.0749
 30
0.0
 11
372.129882
 21
229.106395
 31
0.0
  0
LINE
  8
0
  6
CONTINUOUS
 62
   249
 10
372.113265
 20
229.071034
 30
0.0
 11
372.129882
 21
229.090838
 31
0.0
  0
LINE
  8
0
  6
CONTINUOUS
 62
   249
 10
372.123075
 20
229.067168
 30
0.0
 11
372.129882
 21
229.07528
 31
0.0
  0
LINE
  8
0
  6
CONTINUOUS
 62
   249
 10
371.285505
 20
229.734377
 30
0.0
 11
372.04309
 21
229.098687
 31
0.0
  0
LINE
  8
0
  6
CONTINUOUS
 62
   249
 10
371.274856
 20
229.730258
 30
0.0
 11
372.013758
 21
229.110246
 31
0.0
  0
LINE
  8
0
  6
CONTINUOUS
 62
   249
 10
371.264208
 20
229.726139
 30
0.0
 11
371.984425
 21
229.121805
 31
0.0
  0
LINE
  8
0
  6
CONTINUOUS
 62
   249
 10
371.25356
 20
229.72202
 30
0.0
 11
371.955092
 21
229.133364
 31
0.0
  0
LINE
  8
0
  6
CONTINUOUS
 62
   249
 10
371.242911
 20
229.717901
 30
0.0
 11
371.92576
 21
229.144923
 31
0.0
  0
LINE
  8
0
  6
CONTINUOUS
 62
   249
 10
371.232263
 20
229.713782
 30
0.0
 11
371.896427
 21
229.156482
 31
0.0
  0
LINE
  8
0
  6
CONTINUOUS
 62
   249
 10
371.221615
 20
229.709663
 30
0.0
 11
371.867094
 21
229.168041
 31
0.0
  0
LINE
  8
0
  6
CONTINUOUS
 62
   249
 10
371.210967
 20
229.705544
 30
0.0
 11
371.837762
 21
229.1796
 31
0.0
  0
LINE
  8
0
  6
CONTINUOUS
 62
   249
 10
371.200318
 20
229.701424
 30
0.0
 11
371.808429
 21
229.191159
 31
0.0
  0
LINE
  8
0
  6
CONTINUOUS
 62
   249
 10
371.18967
 20
229.697305
 30
0.0
 11
371.779096
 21
229.202718
 31
0.0
  0
LINE
  8
0
  6
CONTINUOUS
 62
   249
 10
371.179022
 20
229.693186
 30
0.0
 11
371.749764
 21
229.214277
 31
0.0
  0
LINE
  8
0
  6
CONTINUOUS
 62
   249
 10
371.168374
 20
229.689067
 30
0.0
 11
371.720431
 21
229.225836
 31
0.0
  0
LINE
  8
0
  6
CONTINUOUS
 62
   249
 10
371.157725
 20
229.684948
 30
0.0
 11
371.691099
 21
229.237395
 31
0.0
  0
LINE
  8
0
  6
CONTINUOUS
 62
   249
 10
371.147077
 20
229.680829
 30
0.0
 11
371.661766
 21
229.248954
 31
0.0
  0
LINE
  8
0
  6
CONTINUOUS
 62
   249
 10
371.136429
 20
229.67671
 30
0.0
 11
371.632433
 21
229.260513
 31
0.0
  0
LINE
  8
0
  6
CONTINUOUS
 62
   249
 10
371.12578
 20
229.672591
 30
0.0
 11
371.603101
 21
229.272072
 31
0.0
  0
LINE
  8
0
  6
CONTINUOUS
 62
   249
 10
371.115132
 20
229.668472
 30
0.0
 11
371.573768
 21
229.283631
 31
0.0
  0
LINE
  8
0
  6
CONTINUOUS
 62
   249
 10
371.104484
 20
229.664352
 30
0.0
 11
371.544435
 21
229.295189
 31
0.0
  0
LINE
  8
0
  6
CONTINUOUS
 62
   249
 10
371.093836
 20
229.660233
 30
0.0
 11
371.515103
 21
229.306748
 31
0.0
  0
LINE
  8
0
  6
CONTINUOUS
 62
   249
 10
371.083187
 20
229.656114
 30
0.0
 11
371.48577
 21
229.318307
 31
0.0
  0
LINE
  8
0
  6
CONTINUOUS
 62
   249
 10
371.072539
 20
229.651995
 30
0.0
 11
371.456437
 21
229.329866
 31
0.0
  0
LINE
  8
0
  6
CONTINUOUS
 62
   249
 10
371.061891
 20
229.647876
 30
0.0
 11
371.427105
 21
229.341425
 31
0.0
  0
LINE
  8
0
  6
CONTINUOUS
 62
   249
 10
371.051243
 20
229.643757
 30
0.0
 11
371.397772
 21
229.352984
 31
0.0
  0
LINE
  8
0
  6
CONTINUOUS
 62
   249
 10
371.040594
 20
229.639638
 30
0.0
 11
371.368439
 21
229.364543
 31
0.0
  0
LINE
  8
0
  6
CONTINUOUS
 62
   249
 10
371.029946
 20
229.635519
 30
0.0
 11
371.339107
 21
229.376102
 31
0.0
  0
LINE
  8
0
  6
CONTINUOUS
 62
   249
 10
371.019298
 20
229.6314
 30
0.0
 11
371.309774
 21
229.387661
 31
0.0
  0
LINE
  8
0
  6
CONTINUOUS
 62
   249
 10
371.008649
 20
229.627281
 30
0.0
 11
371.280441
 21
229.39922
 31
0.0
  0
LINE
  8
0
  6
CONTINUOUS
 62
   249
 10
370.998001
 20
229.623161
 30
0.0
 11
371.251109
 21
229.410779
 31
0.0
  0
LINE
  8
0
  6
CONTINUOUS
 62
   249
 10
370.987353
 20
229.619042
 30
0.0
 11
371.221776
 21
229.422338
 31
0.0
  0
LINE
  8
0
  6
CONTINUOUS
 62
   249
 10
370.976705
 20
229.614923
 30
0.0
 11
371.192444
 21
229.433897
 31
0.0
  0
LINE
  8
0
  6
CONTINUOUS
 62
   249
 10
370.966056
 20
229.610804
 30
0.0
 11
371.163111
 21
229.445456
 31
0.0
  0
LINE
  8
0
  6
CONTINUOUS
 62
   249
 10
370.955408
 20
229.606685
 30
0.0
 11
371.133778
 21
229.457015
 31
0.0
  0
LINE
  8
0
  6
CONTINUOUS
 62
   249
 10
370.94476
 20
229.602566
 30
0.0
 11
371.104446
 21
229.468574
 31
0.0
  0
LINE
  8
0
  6
CONTINUOUS
 62
   249
 10
370.934112
 20
229.598447
 30
0.0
 11
371.075113
 21
229.480132
 31
0.0
  0
LINE
  8
0
  6
CONTINUOUS
 62
   249
 10
370.923463
 20
229.594328
 30
0.0
 11
371.04578
 21
229.491691
 31
0.0
  0
LINE
  8
0
  6
CONTINUOUS
 62
   249
 10
370.912815
 20
229.590209
 30
0.0
 11
371.016448
 21
229.50325
 31
0.0
  0
LINE
  8
0
  6
CONTINUOUS
 62
   249
 10
370.902167
 20
229.586089
 30
0.0
 11
370.987115
 21
229.514809
 31
0.0
  0
LINE
  8
0
  6
CONTINUOUS
 62
   249
 10
370.891518
 20
229.58197
 30
0.0
 11
370.957782
 21
229.526368
 31
0.0
  0
LINE
  8
0
  6
CONTINUOUS
 62
   249
 10
370.88087
 20
229.577851
 30
0.0
 11
370.92845
 21
229.537927
 31
0.0
  0
LINE
  8
0
  6
CONTINUOUS
 62
   249
 10
370.870222
 20
229.573732
 30
0.0
 11
370.899117
 21
229.549486
 31
0.0
  0
LINE
  8
0
  6
CONTINUOUS
 62
   249
 10
370.859574
 20
229.569613
 30
0.0
 11
370.869784
 21
229.561045
 31
0.0
  0
LINE
  8
0
  6
CONTINUOUS
 62
   249
 10
371.296153
 20
229.738496
 30
0.0
 11
372.072423
 21
229.087129
 31
0.0
  0
LINE
  8
0
  6
CONTINUOUS
 62
   249
 10
371.306801
 20
229.742616
 30
0.0
 11
372.101756
 21
229.07557
 31
0.0
  0
LINE
  8
0
  6
CONTINUOUS
 62
   249
 10
371.317449
 20
229.746735
 30
0.0
 11
372.129882
 21
229.065022
 31
0.0
  0
LINE
  8
0
  6
CONTINUOUS
 62
   249
 10
371.328098
 20
229.750854
 30
0.0
 11
372.129882
 21
229.078076
 31
0.0
  0
LINE
  8
0
  6
CONTINUOUS
 62
   249
 10
371.338746
 20
229.754973
 30
0.0
 11
372.129882
 21
229.091131
 31
0.0
  0
LINE
  8
0
  6
CONTINUOUS
 62
   249
 10
371.349394
 20
229.759092
 30
0.0
 11
372.129882
 21
229.104185
 31
0.0
  0
LINE
  8
0
  6
CONTINUOUS
 62
   249
 10
371.360043
 20
229.763211
 30
0.0
 11
372.129882
 21
229.117239
 31
0.0
  0
LINE
  8
0
  6
CONTINUOUS
 62
   249
 10
371.370691
 20
229.76733
 30
0.0
 11
372.129882
 21
229.130293
 31
0.0
  0
LINE
  8
0
  6
CONTINUOUS
 62
   249
 10
371.381339
 20
229.771449
 30
0.0
 11
372.129882
 21
229.143347
 31
0.0
  0
LINE
  8
0
  6
CONTINUOUS
 62
   249
 10
371.391987
 20
229.775568
 30
0.0
 11
372.129882
 21
229.156401
 31
0.0
  0
LINE
  8
0
  6
CONTINUOUS
 62
   249
 10
371.402636
 20
229.779688
 30
0.0
 11
372.129882
 21
229.169455
 31
0.0
  0
LINE
  8
0
  6
CONTINUOUS
 62
   249
 10
371.413284
 20
229.783807
 30
0.0
 11
372.129882
 21
229.182509
 31
0.0
  0
LINE
  8
0
  6
CONTINUOUS
 62
   249
 10
371.423932
 20
229.787926
 30
0.0
 11
372.129882
 21
229.195563
 31
0.0
  0
LINE
  8
0
  6
CONTINUOUS
 62
   249
 10
371.43458
 20
229.792045
 30
0.0
 11
372.129882
 21
229.208617
 31
0.0
  0
LINE
  8
0
  6
CONTINUOUS
 62
   249
 10
371.445229
 20
229.796164
 30
0.0
 11
372.129882
 21
229.221671
 31
0.0
  0
LINE
  8
0
  6
CONTINUOUS
 62
   249
 10
371.455877
 20
229.800283
 30
0.0
 11
372.129882
 21
229.234725
 31
0.0
  0
LINE
  8
0
  6
CONTINUOUS
 62
   249
 10
371.466525
 20
229.804402
 30
0.0
 11
372.129882
 21
229.247779
 31
0.0
  0
LINE
  8
0
  6
CONTINUOUS
 62
   249
 10
371.477174
 20
229.808521
 30
0.0
 11
372.129882
 21
229.260833
 31
0.0
  0
LINE
  8
0
  6
CONTINUOUS
 62
   249
 10
371.487822
 20
229.81264
 30
0.0
 11
372.129882
 21
229.273888
 31
0.0
  0
LINE
  8
0
  6
CONTINUOUS
 62
   249
 10
371.49847
 20
229.81676
 30
0.0
 11
372.129882
 21
229.286942
 31
0.0
  0
LINE
  8
0
  6
CONTINUOUS
 62
   249
 10
371.509118
 20
229.820879
 30
0.0
 11
372.129882
 21
229.299996
 31
0.0
  0
LINE
  8
0
  6
CONTINUOUS
 62
   249
 10
371.519767
 20
229.824998
 30
0.0
 11
372.129882
 21
229.31305
 31
0.0
  0
LINE
  8
0
  6
CONTINUOUS
 62
   249
 10
371.530415
 20
229.829117
 30
0.0
 11
372.129882
 21
229.326104
 31
0.0
  0
LINE
  8
0
  6
CONTINUOUS
 62
   249
 10
371.541063
 20
229.833236
 30
0.0
 11
372.129882
 21
229.339158
 31
0.0
  0
LINE
  8
0
  6
CONTINUOUS
 62
   249
 10
371.551711
 20
229.837355
 30
0.0
 11
372.129882
 21
229.352212
 31
0.0
  0
LINE
  8
0
  6
CONTINUOUS
 62
   249
 10
371.56236
 20
229.841474
 30
0.0
 11
372.129882
 21
229.365266
 31
0.0
  0
LINE
  8
0
  6
CONTINUOUS
 62
   249
 10
371.573008
 20
229.845593
 30
0.0
 11
372.129882
 21
229.37832
 31
0.0
  0
LINE
  8
0
  6
CONTINUOUS
 62
   249
 10
371.583656
 20
229.849712
 30
0.0
 11
372.129882
 21
229.391374
 31
0.0
  0
LINE
  8
0
  6
CONTINUOUS
 62
   249
 10
371.594305
 20
229.853832
 30
0.0
 11
372.129882
 21
229.404428
 31
0.0
  0
LINE
  8
0
  6
CONTINUOUS
 62
   249
 10
371.604953
 20
229.857951
 30
0.0
 11
372.129882
 21
229.417482
 31
0.0
  0
LINE
  8
0
  6
CONTINUOUS
 62
   249
 10
371.615601
 20
229.86207
 30
0.0
 11
372.129882
 21
229.430536
 31
0.0
  0
LINE
  8
0
  6
CONTINUOUS
 62
   249
 10
371.626249
 20
229.866189
 30
0.0
 11
372.129882
 21
229.44359
 31
0.0
  0
LINE
  8
0
  6
CONTINUOUS
 62
   249
 10
371.636898
 20
229.870308
 30
0.0
 11
372.129882
 21
229.456645
 31
0.0
  0
LINE
  8
0
  6
CONTINUOUS
 62
   249
 10
371.647546
 20
229.874427
 30
0.0
 11
372.129882
 21
229.469699
 31
0.0
  0
LINE
  8
0
  6
CONTINUOUS
 62
   249
 10
371.658194
 20
229.878546
 30
0.0
 11
372.129882
 21
229.482753
 31
0.0
  0
LINE
  8
0
  6
CONTINUOUS
 62
   249
 10
371.668842
 20
229.882665
 30
0.0
 11
372.129882
 21
229.495807
 31
0.0
  0
LINE
  8
0
  6
CONTINUOUS
 62
   249
 10
371.679491
 20
229.886784
 30
0.0
 11
372.129882
 21
229.508861
 31
0.0
  0
LINE
  8
0
  6
CONTINUOUS
 62
   249
 10
371.690139
 20
229.890903
 30
0.0
 11
372.129882
 21
229.521915
 31
0.0
  0
LINE
  8
0
  6
CONTINUOUS
 62
   249
 10
371.700787
 20
229.895023
 30
0.0
 11
372.129882
 21
229.534969
 31
0.0
  0
LINE
  8
0
  6
CONTINUOUS
 62
   249
 10
371.711436
 20
229.899142
 30
0.0
 11
372.129882
 21
229.548023
 31
0.0
  0
LINE
  8
0
  6
CONTINUOUS
 62
   249
 10
371.722084
 20
229.903261
 30
0.0
 11
372.129882
 21
229.561077
 31
0.0
  0
LINE
  8
0
  6
CONTINUOUS
 62
   249
 10
371.732732
 20
229.90738
 30
0.0
 11
372.129882
 21
229.574131
 31
0.0
  0
LINE
  8
0
  6
CONTINUOUS
 62
   249
 10
371.74338
 20
229.911499
 30
0.0
 11
372.129882
 21
229.587185
 31
0.0
  0
LINE
  8
0
  6
CONTINUOUS
 62
   249
 10
371.754029
 20
229.915618
 30
0.0
 11
372.129882
 21
229.600239
 31
0.0
  0
LINE
  8
0
  6
CONTINUOUS
 62
   249
 10
371.764677
 20
229.919737
 30
0.0
 11
372.129882
 21
229.613293
 31
0.0
  0
LINE
  8
0
  6
CONTINUOUS
 62
   249
 10
371.775325
 20
229.923856
 30
0.0
 11
372.129882
 21
229.626348
 31
0.0
  0
LINE
  8
0
  6
CONTINUOUS
 62
   249
 10
371.785974
 20
229.927975
 30
0.0
 11
372.129882
 21
229.639402
 31
0.0
  0
LINE
  8
0
  6
CONTINUOUS
 62
   249
 10
371.796622
 20
229.932095
 30
0.0
 11
372.129882
 21
229.652456
 31
0.0
  0
LINE
  8
0
  6
CONTINUOUS
 62
   249
 10
371.80727
 20
229.936214
 30
0.0
 11
372.129882
 21
229.66551
 31
0.0
  0
LINE
  8
0
  6
CONTINUOUS
 62
   249
 10
371.817918
 20
229.940333
 30
0.0
 11
372.129882
 21
229.678564
 31
0.0
  0
LINE
  8
0
  6
CONTINUOUS
 62
   249
 10
371.828567
 20
229.944452
 30
0.0
 11
372.129882
 21
229.691618
 31
0.0
  0
LINE
  8
0
  6
CONTINUOUS
 62
   249
 10
371.839215
 20
229.948571
 30
0.0
 11
372.129882
 21
229.704672
 31
0.0
  0
LINE
  8
0
  6
CONTINUOUS
 62
   249
 10
371.849863
 20
229.95269
 30
0.0
 11
372.129882
 21
229.717726
 31
0.0
  0
LINE
  8
0
  6
CONTINUOUS
 62
   249
 10
371.860511
 20
229.956809
 30
0.0
 11
372.129882
 21
229.73078
 31
0.0
  0
LINE
  8
0
  6
CONTINUOUS
 62
   249
 10
371.87116
 20
229.960928
 30
0.0
 11
372.129882
 21
229.743834
 31
0.0
  0
LINE
  8
0
  6
CONTINUOUS
 62
   249
 10
371.881808
 20
229.965047
 30
0.0
 11
372.129882
 21
229.756888
 31
0.0
  0
LINE
  8
0
  6
CONTINUOUS
 62
   249
 10
371.892456
 20
229.969167
 30
0.0
 11
372.129882
 21
229.769942
 31
0.0
  0
LINE
  8
0
  6
CONTINUOUS
 62
   249
 10
371.903105
 20
229.973286
 30
0.0
 11
372.129882
 21
229.782996
 31
0.0
  0
LINE
  8
0
  6
CONTINUOUS
 62
   249
 10
371.913753
 20
229.977405
 30
0.0
 11
372.129882
 21
229.79605
 31
0.0
  0
LINE
  8
0
  6
CONTINUOUS
 62
   249
 10
371.924401
 20
229.981524
 30
0.0
 11
372.129882
 21
229.809105
 31
0.0
  0
LINE
  8
0
  6
CONTINUOUS
 62
   249
 10
371.935049
 20
229.985643
 30
0.0
 11
372.129882
 21
229.822159
 31
0.0
  0
LINE
  8
0
  6
CONTINUOUS
 62
   249
 10
371.945698
 20
229.989762
 30
0.0
 11
372.129882
 21
229.835213
 31
0.0
  0
LINE
  8
0
  6
CONTINUOUS
 62
   249
 10
371.956346
 20
229.993881
 30
0.0
 11
372.129882
 21
229.848267
 31
0.0
  0
LINE
  8
0
  6
CONTINUOUS
 62
   249
 10
371.966994
 20
229.998
 30
0.0
 11
372.129882
 21
229.861321
 31
0.0
  0
LINE
  8
0
  6
CONTINUOUS
 62
   249
 10
371.977642
 20
230.002119
 30
0.0
 11
372.129882
 21
229.874375
 31
0.0
  0
LINE
  8
0
  6
CONTINUOUS
 62
   249
 10
371.988291
 20
230.006239
 30
0.0
 11
372.129882
 21
229.887429
 31
0.0
  0
LINE
  8
0
  6
CONTINUOUS
 62
   249
 10
371.998939
 20
230.010358
 30
0.0
 11
372.129882
 21
229.900483
 31
0.0
  0
LINE
  8
0
  6
CONTINUOUS
 62
   249
 10
372.009587
 20
230.014477
 30
0.0
 11
372.129882
 21
229.913537
 31
0.0
  0
LINE
  8
0
  6
CONTINUOUS
 62
   249
 10
372.020236
 20
230.018596
 30
0.0
 11
372.129882
 21
229.926591
 31
0.0
  0
LINE
  8
0
  6
CONTINUOUS
 62
   249
 10
372.030884
 20
230.022715
 30
0.0
 11
372.129882
 21
229.939645
 31
0.0
  0
LINE
  8
0
  6
CONTINUOUS
 62
   249
 10
372.041532
 20
230.026834
 30
0.0
 11
372.129882
 21
229.952699
 31
0.0
  0
LINE
  8
0
  6
CONTINUOUS
 62
   249
 10
372.05218
 20
230.030953
 30
0.0
 11
372.129882
 21
229.965753
 31
0.0
  0
LINE
  8
0
  6
CONTINUOUS
 62
   249
 10
372.062829
 20
230.035072
 30
0.0
 11
372.129882
 21
229.978807
 31
0.0
  0
LINE
  8
0
  6
CONTINUOUS
 62
   249
 10
372.073477
 20
230.039191
 30
0.0
 11
372.129882
 21
229.991862
 31
0.0
  0
LINE
  8
0
  6
CONTINUOUS
 62
   249
 10
372.084125
 20
230.043311
 30
0.0
 11
372.129882
 21
230.004916
 31
0.0
  0
LINE
  8
0
  6
CONTINUOUS
 62
   249
 10
372.094773
 20
230.04743
 30
0.0
 11
372.129882
 21
230.01797
 31
0.0
  0
LINE
  8
0
  6
CONTINUOUS
 62
   249
 10
372.105422
 20
230.051549
 30
0.0
 11
372.129882
 21
230.031024
 31
0.0
  0
LINE
  8
0
  6
CONTINUOUS
 62
   249
 10
372.11607
 20
230.055668
 30
0.0
 11
372.129882
 21
230.044078
 31
0.0
  0
LINE
  8
0
  6
CONTINUOUS
 62
   249
 10
372.126718
 20
230.059787
 30
0.0
 11
372.129882
 21
230.057132
 31
0.0
  0
ENDSEC
  0
EOF
