  0
SECTION
  2
HEADER
  9
$ACADVER
  1
AC1009
  9
$INSBASE
 10
0.0
 20
0.0
 30
0.0
  9
$EXTMIN
 10
104.635923
 20
128.06825
 30
-0.001526
  9
$EXTMAX
 10
2403.655357
 20
1698.024822
 30
0.0
  9
$LIMMIN
 10
0.0
 20
0.0
  9
$LIMMAX
 10
12.0
 20
9.0
  9
$ORTHOMODE
 70
     0
  9
$REGENMODE
 70
     1
  9
$FILLMODE
 70
     1
  9
$QTEXTMODE
 70
     0
  9
$MIRRTEXT
 70
     1
  9
$DRAGMODE
 70
     2
  9
$LTSCALE
 40
20.0
  9
$OSMODE
 70
  1023
  9
$ATTMODE
 70
     1
  9
$TEXTSIZE
 40
0.2
  9
$TRACEWID
 40
0.05
  9
$TEXTSTYLE
  7
STANDARD
  9
$CLAYER
  8
0
  9
$CELTYPE
  6
CONTINUOUS
  9
$CECOLOR
 62
   256
  9
$DIMSCALE
 40
1.0
  9
$DIMASZ
 40
10.0
  9
$DIMEXO
 40
0.0625
  9
$DIMDLI
 40
0.38
  9
$DIMRND
 40
0.0
  9
$DIMDLE
 40
0.0
  9
$DIMEXE
 40
0.18
  9
$DIMTP
 40
0.0
  9
$DIMTM
 40
0.0
  9
$DIMTXT
 40
10.0
  9
$DIMCEN
 40
0.09
  9
$DIMTSZ
 40
0.0
  9
$DIMTOL
 70
     0
  9
$DIMLIM
 70
     0
  9
$DIMTIH
 70
     1
  9
$DIMTOH
 70
     1
  9
$DIMSE1
 70
     0
  9
$DIMSE2
 70
     0
  9
$DIMTAD
 70
     0
  9
$DIMZIN
 70
     0
  9
$DIMBLK
  1

  9
$DIMASO
 70
     1
  9
$DIMSHO
 70
     1
  9
$DIMPOST
  1

  9
$DIMAPOST
  1

  9
$DIMALT
 70
     0
  9
$DIMALTD
 70
     2
  9
$DIMALTF
 40
25.4
  9
$DIMLFAC
 40
1.0
  9
$DIMTOFL
 70
     0
  9
$DIMTVP
 40
0.0
  9
$DIMTIX
 70
     0
  9
$DIMSOXD
 70
     0
  9
$DIMSAH
 70
     0
  9
$DIMBLK1
  1

  9
$DIMBLK2
  1

  9
$DIMSTYLE
  2
STANDARD
  9
$DIMCLRD
 70
     1
  9
$DIMCLRE
 70
     1
  9
$DIMCLRT
 70
     1
  9
$DIMTFAC
 40
1.0
  9
$DIMGAP
 40
10.0
  9
$LUNITS
 70
     2
  9
$LUPREC
 70
     4
  9
$SKETCHINC
 40
0.1
  9
$FILLETRAD
 40
0.0
  9
$AUNITS
 70
     0
  9
$AUPREC
 70
     0
  9
$MENU
  1
acad
  9
$ELEVATION
 40
0.0
  9
$PELEVATION
 40
0.0
  9
$THICKNESS
 40
0.0
  9
$LIMCHECK
 70
     0
  9
$BLIPMODE
 70
     0
  9
$CHAMFERA
 40
0.0
  9
$CHAMFERB
 40
0.0
  9
$SKPOLY
 70
     0
  9
$TDCREATE
 40
2452054.610623
  9
$TDUPDATE
 40
2452058.470749
  9
$TDINDWG
 40
0.009313
  9
$TDUSRTIMER
 40
0.009313
  9
$USRTIMER
 70
     1
  9
$ANGBASE
 50
0.0
  9
$ANGDIR
 70
     0
  9
$PDMODE
 70
     0
  9
$PDSIZE
 40
0.0
  9
$PLINEWID
 40
0.0
  9
$COORDS
 70
     1
  9
$SPLFRAME
 70
     0
  9
$SPLINETYPE
 70
     6
  9
$SPLINESEGS
 70
     8
  9
$ATTDIA
 70
     0
  9
$ATTREQ
 70
     1
  9
$HANDLING
 70
     1
  9
$HANDSEED
  5
609
  9
$SURFTAB1
 70
     6
  9
$SURFTAB2
 70
     6
  9
$SURFTYPE
 70
     6
  9
$SURFU
 70
     6
  9
$SURFV
 70
     6
  9
$UCSNAME
  2

  9
$UCSORG
 10
0.0
 20
0.0
 30
0.0
  9
$UCSXDIR
 10
1.0
 20
0.0
 30
0.0
  9
$UCSYDIR
 10
0.0
 20
1.0
 30
0.0
  9
$PUCSNAME
  2

  9
$PUCSORG
 10
0.0
 20
0.0
 30
0.0
  9
$PUCSXDIR
 10
1.0
 20
0.0
 30
0.0
  9
$PUCSYDIR
 10
0.0
 20
1.0
 30
0.0
  9
$USERI1
 70
     0
  9
$USERI2
 70
     0
  9
$USERI3
 70
     0
  9
$USERI4
 70
     0
  9
$USERI5
 70
     0
  9
$USERR1
 40
0.0
  9
$USERR2
 40
0.0
  9
$USERR3
 40
0.0
  9
$USERR4
 40
0.0
  9
$USERR5
 40
0.0
  9
$WORLDVIEW
 70
     1
  9
$SHADEDGE
 70
     3
  9
$SHADEDIF
 70
    70
  9
$TILEMODE
 70
     1
  9
$MAXACTVP
 70
    48
  9
$PLIMCHECK
 70
     0
  9
$PEXTMIN
 10
1.000000E+020
 20
1.000000E+020
 30
1.000000E+020
  9
$PEXTMAX
 10
-1.000000E+020
 20
-1.000000E+020
 30
-1.000000E+020
  9
$PLIMMIN
 10
0.0
 20
0.0
  9
$PLIMMAX
 10
12.0
 20
9.0
  9
$UNITMODE
 70
     0
  9
$VISRETAIN
 70
     1
  9
$PLINEGEN
 70
     0
  9
$PSLTSCALE
 70
     1
  0
ENDSEC
  0
SECTION
  2
TABLES
  0
TABLE
  2
VPORT
 70
     3
  0
VPORT
  2
*ACTIVE
 70
     0
 10
0.0
 20
0.0
 11
1.0
 21
1.0
 12
1254.14564
 22
913.046536
 13
0.0
 23
0.0
 14
1.0
 24
1.0
 15
0.0
 25
0.0
 16
0.0
 26
0.0
 36
1.0
 17
0.0
 27
0.0
 37
0.0
 40
1579.966922
 41
1.679787
 42
50.0
 43
0.0
 44
0.0
 50
0.0
 51
0.0
 71
     0
 72
   100
 73
     1
 74
     1
 75
     0
 76
     0
 77
     0
 78
     0
  0
ENDTAB
  0
TABLE
  2
LTYPE
 70
     3
  0
LTYPE
  2
CONTINUOUS
 70
     0
  3
Solid line
 72
    65
 73
     0
 40
0.0
  0
LTYPE
  2
CENTER
 70
     0
  3
____ _ ____ _ ____ _ ____ _ ____ _ ____
 72
    65
 73
     4
 40
2.0
 49
1.25
 49
-0.25
 49
0.25
 49
-0.25
  0
LTYPE
  2
DASHED
 70
     0
  3
_ _ _ _ _ _ _ _ _ _ _ _ _ _ _ _ _ _ _ _ _
 72
    65
 73
     2
 40
0.75
 49
0.5
 49
-0.25
  0
ENDTAB
  0
TABLE
  2
LAYER
 70
     5
  0
LAYER
  2
0
 70
     0
 62
     7
  6
CONTINUOUS
  0
LAYER
  2
5
 70
     0
 62
     7
  6
CONTINUOUS
  0
LAYER
  2
6
 70
     0
 62
     5
  6
CENTER
  0
LAYER
  2
7
 70
     0
 62
     3
  6
DASHED
  0
LAYER
  2
BYLAYER
 70
     0
 62
     7
  6
CONTINUOUS
  0
ENDTAB
  0
TABLE
  2
STYLE
 70
     1
  0
STYLE
  2
STANDARD
 70
     0
 40
0.0
 41
1.0
 50
0.0
 71
     0
 42
0.2
  3
txt
  4

  0
ENDTAB
  0
TABLE
  2
VIEW
 70
     0
  0
ENDTAB
  0
TABLE
  2
UCS
 70
     0
  0
ENDTAB
  0
TABLE
  2
APPID
 70
     1
  0
APPID
  2
ACAD
 70
     0
  0
ENDTAB
  0
TABLE
  2
DIMSTYLE
 70
     1
  0
DIMSTYLE
  2
STANDARD
 70
     0
  3

  4

  5

  6

  7

 40
1.0
 41
0.18
 42
0.0625
 43
0.38
 44
0.18
 45
0.0
 46
0.0
 47
0.0
 48
0.0
140
0.18
141
0.09
142
0.0
143
25.4
144
1.0
145
0.0
146
1.0
147
0.09
 71
     0
 72
     0
 73
     1
 74
     1
 75
     0
 76
     0
 77
     0
 78
     0
170
     0
171
     2
172
     0
173
     0
174
     0
175
     0
176
     0
177
     0
178
     0
  0
ENDTAB
  0
ENDSEC
  0
SECTION
  2
BLOCKS
  0
BLOCK
  8
0
  2
$MODEL_SPACE
 70
     0
 10
0.0
 20
0.0
 30
0.0
  3
$MODEL_SPACE
  1

  0
ENDBLK
  5
1A
  8
0
  0
BLOCK
 67
     1
  8
0
  2
$PAPER_SPACE
 70
     0
 10
0.0
 20
0.0
 30
0.0
  3
$PAPER_SPACE
  1

  0
ENDBLK
  5
17
 67
     1
  8
0
  0
BLOCK
  8
0
  2
A$C05293501
 70
     0
 10
0.0
 20
0.0
 30
0.0
  3
A$C05293501
  1

  0
LINE
  5
5D3
  8
5
  6
CONTINUOUS
 10
60.4918
 20
70.750001
 30
0.0
 11
60.4918
 21
0.000001
 31
0.0
  0
LINE
  5
5D4
  8
5
  6
CENTER
 10
60.4918
 20
70.750001
 30
0.0
 11
60.4918
 21
0.000001
 31
0.0
  0
LINE
  5
5D5
  8
5
  6
CONTINUOUS
 10
50.4918
 20
70.750001
 30
0.0
 11
50.4918
 21
0.000001
 31
0.0
  0
LINE
  5
5D6
  8
5
  6
CENTER
 10
50.4918
 20
70.750001
 30
0.0
 11
50.4918
 21
0.000001
 31
0.0
  0
LINE
  5
5D7
  8
5
  6
CONTINUOUS
 10
40.4918
 20
70.750001
 30
0.0
 11
40.4918
 21
0.000001
 31
0.0
  0
LINE
  5
5D8
  8
5
  6
CENTER
 10
40.4918
 20
70.750001
 30
0.0
 11
40.4918
 21
0.000001
 31
0.0
  0
LINE
  5
5D9
  8
5
  6
CONTINUOUS
 10
30.4918
 20
70.750001
 30
0.0
 11
30.4918
 21
0.000001
 31
0.0
  0
LINE
  5
5DA
  8
5
  6
CENTER
 10
30.4918
 20
70.750001
 30
0.0
 11
30.4918
 21
0.000001
 31
0.0
  0
LINE
  5
5DB
  8
5
  6
CONTINUOUS
 10
20.4918
 20
70.750001
 30
0.0
 11
20.4918
 21
13.187001
 31
0.0
  0
LINE
  5
5DC
  8
5
  6
CENTER
 10
20.4918
 20
70.750001
 30
0.0
 11
20.4918
 21
12.818001
 31
0.0
  0
LINE
  5
5DD
  8
5
  6
CONTINUOUS
 10
10.4918
 20
70.750001
 30
0.0
 11
10.4918
 21
35.248001
 31
0.0
  0
LINE
  5
5DE
  8
5
  6
CENTER
 10
10.4918
 20
70.750001
 30
0.0
 11
10.4918
 21
35.248001
 31
0.0
  0
LINE
  5
5DF
  8
5
  6
CONTINUOUS
 10
0.7536
 20
40.776001
 30
0.0
 11
70.6364
 21
40.776001
 31
0.0
  0
LINE
  5
5E0
  8
5
  6
CONTINUOUS
 10
0.0
 20
40.776001
 30
0.0
 11
70.6364
 21
40.776001
 31
0.0
  0
LINE
  5
5E1
  8
5
  6
CONTINUOUS
 10
10.8588
 20
30.776001
 30
0.0
 11
70.6364
 21
30.776001
 31
0.0
  0
LINE
  5
5E2
  8
5
  6
CONTINUOUS
 10
6.8688
 20
30.776001
 30
0.0
 11
70.6364
 21
30.776001
 31
0.0
  0
LINE
  5
5E3
  8
5
  6
CONTINUOUS
 10
10.4918
 20
20.776001
 30
0.0
 11
70.6364
 21
20.776001
 31
0.0
  0
LINE
  5
5E4
  8
5
  6
CONTINUOUS
 10
10.4918
 20
20.776001
 30
0.0
 11
70.6364
 21
20.776001
 31
0.0
  0
LINE
  5
5E5
  8
5
  6
CONTINUOUS
 10
23.4865
 20
10.776001
 30
0.0
 11
70.6364
 21
10.776001
 31
0.0
  0
LINE
  5
5E6
  8
5
  6
CONTINUOUS
 10
22.9952
 20
10.776001
 30
0.0
 11
70.6364
 21
10.776001
 31
0.0
  0
LINE
  5
5E7
  8
5
  6
CONTINUOUS
 10
1.2561
 20
60.776001
 30
0.0
 11
70.6364
 21
60.776001
 31
0.0
  0
LINE
  5
5E8
  8
5
  6
CONTINUOUS
 10
1.2561
 20
60.776001
 30
0.0
 11
70.6364
 21
60.776001
 31
0.0
  0
LINE
  5
5E9
  8
5
  6
CONTINUOUS
 10
0.2512
 20
50.776001
 30
0.0
 11
70.6364
 21
50.776001
 31
0.0
  0
LINE
  5
5EA
  8
5
  6
CONTINUOUS
 10
0.2512
 20
50.776001
 30
0.0
 11
70.6364
 21
50.776001
 31
0.0
  0
ENDBLK
  5
5EC
  8
0
  0
BLOCK
  8
0
  2
A$C27E33DB7
 70
     0
 10
0.0
 20
0.0
 30
0.0
  3
A$C27E33DB7
  1

  0
INSERT
  5
5EE
  8
0
  6
CONTINUOUS
  2
A$C05293501
 10
0.0
 20
-0.000001
 30
0.0
  0
ENDBLK
  5
5F0
  8
0
  0
ENDSEC
  0
SECTION
  2
ENTITIES
  0
LINE
  5
25
  8
5
  6
CONTINUOUS
 10
1404.096
 20
1072.373
 30
0.0
 11
968.0958
 21
1072.373
 31
0.0
  0
LINE
  5
26
  8
5
  6
CONTINUOUS
 10
1404.108
 20
1461.874
 30
0.0
 11
1406.315
 21
1444.649
 31
0.0
  0
LINE
  5
27
  8
5
  6
CONTINUOUS
 10
1408.541
 20
1427.273
 30
0.0
 11
1406.315
 21
1444.649
 31
0.0
  0
LINE
  5
28
  8
5
  6
CONTINUOUS
 10
1404.096
 20
1461.973
 30
0.0
 11
1404.108
 21
1461.874
 31
0.0
  0
LINE
  5
29
  8
5
  6
CONTINUOUS
 10
1410.077
 20
1415.286
 30
0.0
 11
1408.541
 21
1427.273
 31
0.0
  0
LINE
  5
2A
  8
5
  6
CONTINUOUS
 10
1257.616
 20
1444.624
 30
0.0
 11
1278.973
 21
1461.874
 31
0.0
  0
LINE
  5
2B
  8
5
  6
CONTINUOUS
 10
1278.973
 20
1461.874
 30
0.0
 11
1279.096
 21
1461.973
 31
0.0
  0
LINE
  5
2C
  8
5
  6
CONTINUOUS
 10
1412.672
 20
986.4733
 30
0.0
 11
1412.096
 21
981.9733
 31
0.0
  0
LINE
  5
2D
  8
5
  6
CONTINUOUS
 10
1253.096
 20
1440.973
 30
0.0
 11
1257.616
 21
1444.624
 31
0.0
  0
LINE
  5
2E
  8
5
  6
CONTINUOUS
 10
1279.096
 20
1461.973
 30
0.0
 11
1404.096
 21
1461.973
 31
0.0
  0
LINE
  5
2F
  8
5
  6
CONTINUOUS
 10
1406.312
 20
1089.773
 30
0.0
 11
1406.318
 21
1089.723
 31
0.0
  0
LINE
  5
30
  8
5
  6
CONTINUOUS
 10
954.0958
 20
1221.973
 30
0.0
 11
954.0958
 21
1002.973
 31
0.0
  0
LINE
  5
31
  8
5
  6
CONTINUOUS
 10
954.0958
 20
1440.973
 30
0.0
 11
954.0958
 21
1221.973
 31
0.0
  0
LINE
  5
32
  8
5
  6
CONTINUOUS
 10
896.5958
 20
1496.973
 30
0.0
 11
896.5958
 21
946.9733
 31
0.0
  0
LINE
  5
33
  8
5
  6
CONTINUOUS
 10
878.5958
 20
1496.973
 30
0.0
 11
878.5958
 21
946.9733
 31
0.0
  0
CIRCLE
  5
34
  8
5
  6
CONTINUOUS
 10
902.5958
 20
1113.973
 30
0.0
 40
1.5
  0
LINE
  5
35
  8
5
  6
CONTINUOUS
 10
873.5958
 20
1446.973
 30
0.0
 11
873.5958
 21
996.9733
 31
0.0
  0
LINE
  5
36
  8
5
  6
CONTINUOUS
 10
757.5958
 20
1258.473
 30
0.0
 11
748.5958
 21
1258.473
 31
0.0
  0
LINE
  5
37
  8
5
  6
CONTINUOUS
 10
859.5958
 20
1258.473
 30
0.0
 11
757.5958
 21
1258.473
 31
0.0
  0
LINE
  5
38
  8
5
  6
CONTINUOUS
 10
868.5958
 20
1258.473
 30
0.0
 11
859.5958
 21
1258.473
 31
0.0
  0
LINE
  5
39
  8
5
  6
CONTINUOUS
 10
738.5958
 20
1189.473
 30
0.0
 11
738.5958
 21
1254.473
 31
0.0
  0
LINE
  5
3A
  8
5
  6
CONTINUOUS
 10
1412.096
 20
981.9733
 30
0.0
 11
982.0958
 21
981.9733
 31
0.0
  0
LINE
  5
3B
  8
5
  6
CONTINUOUS
 10
979.8797
 20
999.2727
 30
0.0
 11
979.8733
 21
999.3227
 31
0.0
  0
LINE
  5
3C
  8
5
  6
CONTINUOUS
 10
979.8733
 20
999.3227
 30
0.0
 11
979.8668
 21
999.3733
 31
0.0
  0
LINE
  5
3D
  8
5
  6
CONTINUOUS
 10
982.0958
 20
981.9733
 30
0.0
 11
979.8797
 21
999.2727
 31
0.0
  0
LINE
  5
3E
  8
5
  6
CONTINUOUS
 10
979.8668
 20
999.3733
 30
0.0
 11
977.625
 21
1016.873
 31
0.0
  0
LINE
  5
3F
  8
5
  6
CONTINUOUS
 10
977.625
 20
1016.873
 30
0.0
 11
976.115
 21
1028.66
 31
0.0
  0
LINE
  5
40
  8
5
  6
CONTINUOUS
 10
1406.318
 20
1354.224
 30
0.0
 11
1406.312
 21
1354.173
 31
0.0
  0
LINE
  5
41
  8
5
  6
CONTINUOUS
 10
1062.596
 20
1072.373
 30
0.0
 11
1062.596
 21
1052.25
 31
0.0
  0
LINE
  5
42
  8
5
  6
CONTINUOUS
 10
1062.596
 20
1052.25
 30
0.0
 11
1054.596
 21
1045.182
 31
0.0
  0
LINE
  5
43
  8
5
  6
CONTINUOUS
 10
965.8733
 20
1089.723
 30
0.0
 11
965.8798
 21
1089.773
 31
0.0
  0
LINE
  5
44
  8
5
  6
CONTINUOUS
 10
965.8797
 20
1354.173
 30
0.0
 11
965.8733
 21
1354.224
 31
0.0
  0
LINE
  5
45
  8
5
  6
CONTINUOUS
 10
1054.596
 20
1045.182
 30
0.0
 11
1034.596
 21
1045.182
 31
0.0
  0
LINE
  5
46
  8
5
  6
CONTINUOUS
 10
1034.596
 20
1045.182
 30
0.0
 11
1026.596
 21
1052.25
 31
0.0
  0
LINE
  5
47
  8
5
  6
CONTINUOUS
 10
1026.596
 20
1052.25
 30
0.0
 11
1026.596
 21
1072.373
 31
0.0
  0
LINE
  5
48
  8
5
  6
CONTINUOUS
 10
997.9797
 20
1032.78
 30
0.0
 11
994.8457
 21
1072.373
 31
0.0
  0
LINE
  5
49
  8
5
  6
CONTINUOUS
 10
997.9797
 20
1032.78
 30
0.0
 11
1015.096
 21
1018.68
 31
0.0
  0
LINE
  5
4A
  8
5
  6
CONTINUOUS
 10
1015.096
 20
1018.68
 30
0.0
 11
1074.096
 21
1018.68
 31
0.0
  0
LINE
  5
4B
  8
5
  6
CONTINUOUS
 10
1074.096
 20
1018.68
 30
0.0
 11
1091.212
 21
1032.78
 31
0.0
  0
LINE
  5
4C
  8
5
  6
CONTINUOUS
 10
1091.212
 20
1032.78
 30
0.0
 11
1094.346
 21
1072.373
 31
0.0
  0
LINE
  5
4D
  8
5
  6
CONTINUOUS
 10
994.4403
 20
1041.463
 30
0.0
 11
993.4231
 21
1062.033
 31
0.0
  0
LINE
  5
4E
  8
5
  6
CONTINUOUS
 10
994.4403
 20
1041.463
 30
0.0
 11
997.9797
 21
1010.702
 31
0.0
  0
LINE
  5
4F
  8
5
  6
CONTINUOUS
 10
997.9797
 20
1010.702
 30
0.0
 11
997.9797
 21
1032.78
 31
0.0
  0
LINE
  5
50
  8
5
  6
CONTINUOUS
 10
1091.212
 20
1032.78
 30
0.0
 11
1091.212
 21
1010.702
 31
0.0
  0
LINE
  5
51
  8
5
  6
CONTINUOUS
 10
1253.096
 20
1427.473
 30
0.0
 11
1253.096
 21
1381.913
 31
0.0
  0
LINE
  5
52
  8
5
  6
CONTINUOUS
 10
1253.096
 20
1427.473
 30
0.0
 11
1253.096
 21
1440.973
 31
0.0
  0
LINE
  5
53
  8
5
  6
CONTINUOUS
 10
968.0958
 20
1371.573
 30
0.0
 11
1404.096
 21
1371.573
 31
0.0
  0
LINE
  5
54
  8
5
  6
CONTINUOUS
 10
1094.751
 20
1041.463
 30
0.0
 11
1091.212
 21
1010.702
 31
0.0
  0
LINE
  5
55
  8
5
  6
CONTINUOUS
 10
1406.325
 20
1354.173
 30
0.0
 11
1408.567
 21
1336.673
 31
0.0
  0
LINE
  5
56
  8
5
  6
CONTINUOUS
 10
1408.567
 20
1336.673
 30
0.0
 11
1410.077
 21
1324.886
 31
0.0
  0
LINE
  5
57
  8
5
  6
CONTINUOUS
 10
1404.096
 20
1371.573
 30
0.0
 11
1406.318
 21
1354.224
 31
0.0
  0
LINE
  5
58
  8
5
  6
CONTINUOUS
 10
1408.567
 20
1107.273
 30
0.0
 11
1410.077
 21
1119.06
 31
0.0
  0
LINE
  5
59
  8
5
  6
CONTINUOUS
 10
1406.318
 20
1089.723
 30
0.0
 11
1404.096
 21
1072.373
 31
0.0
  0
LINE
  5
5A
  8
5
  6
CONTINUOUS
 10
1406.325
 20
1089.773
 30
0.0
 11
1408.567
 21
1107.273
 31
0.0
  0
LINE
  5
5B
  8
5
  6
CONTINUOUS
 10
965.8668
 20
1354.173
 30
0.0
 11
963.625
 21
1336.673
 31
0.0
  0
LINE
  5
5C
  8
5
  6
CONTINUOUS
 10
1703.596
 20
1425.267
 30
0.0
 11
1703.596
 21
1305.267
 31
0.0
  0
LINE
  5
5D
  8
5
  6
CONTINUOUS
 10
963.625
 20
1336.673
 30
0.0
 11
962.115
 21
1324.886
 31
0.0
  0
LINE
  5
5E
  8
5
  6
CONTINUOUS
 10
965.8733
 20
1354.224
 30
0.0
 11
968.0958
 21
1371.573
 31
0.0
  0
LINE
  5
5F
  8
5
  6
CONTINUOUS
 10
977.4103
 20
1412.391
 30
0.0
 11
979.5958
 21
1474.973
 31
0.0
  0
LINE
  5
60
  8
5
  6
CONTINUOUS
 10
963.625
 20
1107.273
 30
0.0
 11
962.115
 21
1119.06
 31
0.0
  0
LINE
  5
61
  8
5
  6
CONTINUOUS
 10
968.0958
 20
1072.373
 30
0.0
 11
965.8733
 21
1089.723
 31
0.0
  0
LINE
  5
62
  8
5
  6
CONTINUOUS
 10
965.8668
 20
1089.773
 30
0.0
 11
963.625
 21
1107.273
 31
0.0
  0
LINE
  5
63
  8
5
  6
CONTINUOUS
 10
1540.596
 20
1100.92
 30
0.0
 11
1540.596
 21
1343.027
 31
0.0
  0
LINE
  5
64
  8
5
  6
CONTINUOUS
 10
1540.596
 20
1100.92
 30
0.0
 11
1540.596
 21
989.4733
 31
0.0
  0
LINE
  5
65
  8
5
  6
CONTINUOUS
 10
1540.596
 20
1454.473
 30
0.0
 11
1540.596
 21
1343.027
 31
0.0
  0
LINE
  5
66
  8
5
  6
CONTINUOUS
 10
1613.596
 20
1361.973
 30
0.0
 11
1613.596
 21
1081.973
 31
0.0
  0
LINE
  5
67
  8
5
  6
CONTINUOUS
 10
1472.096
 20
1457.473
 30
0.0
 11
1411.596
 21
1457.473
 31
0.0
  0
LINE
  5
68
  8
5
  6
CONTINUOUS
 10
1472.096
 20
1454.473
 30
0.0
 11
1540.596
 21
1454.473
 31
0.0
  0
LINE
  5
69
  8
5
  6
CONTINUOUS
 10
1472.096
 20
989.4733
 30
0.0
 11
1540.596
 21
989.4733
 31
0.0
  0
LINE
  5
6A
  8
5
  6
CONTINUOUS
 10
1472.096
 20
1099.677
 30
0.0
 11
1472.096
 21
986.4733
 31
0.0
  0
LINE
  5
6B
  8
5
  6
CONTINUOUS
 10
1472.096
 20
1457.473
 30
0.0
 11
1472.096
 21
1344.269
 31
0.0
  0
LINE
  5
6C
  8
5
  6
CONTINUOUS
 10
1472.096
 20
1099.677
 30
0.0
 11
1472.096
 21
1344.269
 31
0.0
  0
LINE
  5
6D
  8
5
  6
CONTINUOUS
 10
1411.596
 20
1344.269
 30
0.0
 11
1411.596
 21
1099.677
 31
0.0
  0
LINE
  5
6E
  8
5
  6
CONTINUOUS
 10
1411.596
 20
1344.269
 30
0.0
 11
1411.596
 21
1457.473
 31
0.0
  0
LINE
  5
6F
  8
5
  6
CONTINUOUS
 10
1404.108
 20
1461.874
 30
0.0
 11
1278.973
 21
1461.874
 31
0.0
  0
LINE
  5
70
  8
5
  6
CONTINUOUS
 10
1257.616
 20
1444.624
 30
0.0
 11
1406.312
 21
1444.624
 31
0.0
  0
LINE
  5
71
  8
5
  6
CONTINUOUS
 10
1406.315
 20
1444.649
 30
0.0
 11
1406.312
 21
1444.624
 31
0.0
  0
LINE
  5
72
  8
5
  6
CONTINUOUS
 10
1404.096
 20
1427.473
 30
0.0
 11
1383.876
 21
1427.473
 31
0.0
  0
LINE
  5
73
  8
5
  6
CONTINUOUS
 10
1289.316
 20
1427.473
 30
0.0
 11
1253.096
 21
1427.473
 31
0.0
  0
LINE
  5
74
  8
5
  6
CONTINUOUS
 10
1406.312
 20
1444.624
 30
0.0
 11
1404.096
 21
1427.473
 31
0.0
  0
LINE
  5
75
  8
5
  6
CONTINUOUS
 10
1406.312
 20
1089.773
 30
0.0
 11
965.8798
 21
1089.773
 31
0.0
  0
LINE
  5
76
  8
5
  6
CONTINUOUS
 10
1404.096
 20
1106.873
 30
0.0
 11
1406.312
 21
1089.773
 31
0.0
  0
LINE
  5
77
  8
5
  6
CONTINUOUS
 10
968.0959
 20
1106.873
 30
0.0
 11
1404.096
 21
1106.873
 31
0.0
  0
LINE
  5
78
  8
5
  6
CONTINUOUS
 10
965.8798
 20
1089.773
 30
0.0
 11
968.0959
 21
1106.873
 31
0.0
  0
LINE
  5
79
  8
5
  6
CONTINUOUS
 10
1406.312
 20
1354.173
 30
0.0
 11
965.8797
 21
1354.173
 31
0.0
  0
LINE
  5
7A
  8
5
  6
CONTINUOUS
 10
968.0959
 20
1336.673
 30
0.0
 11
965.8797
 21
1354.173
 31
0.0
  0
LINE
  5
7B
  8
5
  6
CONTINUOUS
 10
1404.096
 20
1336.673
 30
0.0
 11
968.0959
 21
1336.673
 31
0.0
  0
LINE
  5
7C
  8
5
  6
CONTINUOUS
 10
1406.312
 20
1354.173
 30
0.0
 11
1404.096
 21
1336.673
 31
0.0
  0
LINE
  5
7D
  8
5
  6
CONTINUOUS
 10
1404.096
 20
1336.673
 30
0.0
 11
1408.567
 21
1336.673
 31
0.0
  0
LINE
  5
7E
  8
5
  6
CONTINUOUS
 10
1703.596
 20
1405.267
 30
0.0
 11
1720.916
 21
1415.267
 31
0.0
  0
LINE
  5
80
  8
5
  6
CONTINUOUS
 10
1404.096
 20
1106.873
 30
0.0
 11
1404.096
 21
1107.273
 31
0.0
  0
LINE
  5
81
  8
5
  6
CONTINUOUS
 10
1406.786
 20
1221.973
 30
0.0
 11
1404.096
 21
1221.973
 31
0.0
  0
LINE
  5
82
  8
5
  6
CONTINUOUS
 10
1404.096
 20
1204.673
 30
0.0
 11
1404.096
 21
1221.973
 31
0.0
  0
LINE
  5
83
  8
5
  6
CONTINUOUS
 10
1404.096
 20
1204.673
 30
0.0
 11
1406.874
 21
1204.673
 31
0.0
  0
LINE
  5
84
  8
5
  6
CONTINUOUS
 10
1407.136
 20
1256.473
 30
0.0
 11
1404.096
 21
1256.473
 31
0.0
  0
LINE
  5
85
  8
5
  6
CONTINUOUS
 10
1472.096
 20
986.4733
 30
0.0
 11
1411.596
 21
986.4733
 31
0.0
  0
LINE
  5
86
  8
5
  6
CONTINUOUS
 10
1703.596
 20
1385.267
 30
0.0
 11
1720.916
 21
1395.267
 31
0.0
  0
LINE
  5
87
  8
5
  6
CONTINUOUS
 10
1404.096
 20
1239.273
 30
0.0
 11
1404.096
 21
1256.473
 31
0.0
  0
LINE
  5
88
  8
5
  6
CONTINUOUS
 10
1404.096
 20
1239.273
 30
0.0
 11
1406.874
 21
1239.273
 31
0.0
  0
LINE
  5
89
  8
5
  6
CONTINUOUS
 10
1408.026
 20
1286.373
 30
0.0
 11
1404.096
 21
1286.373
 31
0.0
  0
LINE
  5
8A
  8
5
  6
CONTINUOUS
 10
1404.096
 20
1271.473
 30
0.0
 11
1404.096
 21
1286.373
 31
0.0
  0
LINE
  5
8B
  8
5
  6
CONTINUOUS
 10
1404.096
 20
1271.473
 30
0.0
 11
1407.512
 21
1271.473
 31
0.0
  0
LINE
  5
8C
  8
5
  6
CONTINUOUS
 10
1409.65
 20
1318.373
 30
0.0
 11
1404.096
 21
1318.373
 31
0.0
  0
LINE
  5
8D
  8
5
  6
CONTINUOUS
 10
1404.096
 20
1301.373
 30
0.0
 11
1404.096
 21
1318.373
 31
0.0
  0
LINE
  5
8E
  8
5
  6
CONTINUOUS
 10
1404.096
 20
1301.373
 30
0.0
 11
1408.695
 21
1301.373
 31
0.0
  0
LINE
  5
8F
  8
5
  6
CONTINUOUS
 10
1703.596
 20
1365.267
 30
0.0
 11
1720.916
 21
1375.267
 31
0.0
  0
LINE
  5
90
  8
5
  6
CONTINUOUS
 10
1411.596
 20
986.4733
 30
0.0
 11
1411.596
 21
1099.677
 31
0.0
  0
LINE
  5
91
  8
5
  6
CONTINUOUS
 10
1703.596
 20
1345.267
 30
0.0
 11
1720.916
 21
1355.267
 31
0.0
  0
LINE
  5
92
  8
5
  6
CONTINUOUS
 10
1703.596
 20
1325.267
 30
0.0
 11
1720.916
 21
1335.267
 31
0.0
  0
LINE
  5
93
  8
5
  6
CONTINUOUS
 10
1407.136
 20
1187.473
 30
0.0
 11
1404.096
 21
1187.473
 31
0.0
  0
LINE
  5
94
  8
5
  6
CONTINUOUS
 10
1404.096
 20
1172.573
 30
0.0
 11
1404.096
 21
1187.473
 31
0.0
  0
LINE
  5
95
  8
5
  6
CONTINUOUS
 10
1404.096
 20
1172.573
 30
0.0
 11
1407.509
 21
1172.573
 31
0.0
  0
LINE
  5
96
  8
5
  6
CONTINUOUS
 10
1408.026
 20
1157.573
 30
0.0
 11
1404.096
 21
1157.573
 31
0.0
  0
LINE
  5
97
  8
5
  6
CONTINUOUS
 10
1404.096
 20
1142.573
 30
0.0
 11
1404.096
 21
1157.573
 31
0.0
  0
LINE
  5
98
  8
5
  6
CONTINUOUS
 10
1404.096
 20
1142.573
 30
0.0
 11
1408.695
 21
1142.573
 31
0.0
  0
LINE
  5
99
  8
5
  6
CONTINUOUS
 10
1409.65
 20
1125.573
 30
0.0
 11
1404.096
 21
1125.573
 31
0.0
  0
LINE
  5
9A
  8
5
  6
CONTINUOUS
 10
1404.096
 20
1107.273
 30
0.0
 11
1404.096
 21
1125.573
 31
0.0
  0
LINE
  5
9B
  8
5
  6
CONTINUOUS
 10
1404.096
 20
1187.473
 30
0.0
 11
1404.096
 21
1204.673
 31
0.0
  0
LINE
  5
9C
  8
5
  6
CONTINUOUS
 10
1404.096
 20
1221.973
 30
0.0
 11
1404.096
 21
1239.273
 31
0.0
  0
LINE
  5
9D
  8
5
  6
CONTINUOUS
 10
1404.096
 20
1256.473
 30
0.0
 11
1404.096
 21
1271.473
 31
0.0
  0
LINE
  5
9E
  8
5
  6
CONTINUOUS
 10
1404.096
 20
1286.373
 30
0.0
 11
1404.096
 21
1301.373
 31
0.0
  0
LINE
  5
9F
  8
5
  6
CONTINUOUS
 10
1404.096
 20
1318.373
 30
0.0
 11
1404.096
 21
1336.673
 31
0.0
  0
LINE
  5
A0
  8
5
  6
CONTINUOUS
 10
1404.096
 20
1157.573
 30
0.0
 11
1404.096
 21
1172.573
 31
0.0
  0
LINE
  5
A1
  8
5
  6
CONTINUOUS
 10
1245.096
 20
1524.273
 30
0.0
 11
954.0958
 21
1524.273
 31
0.0
  0
LINE
  5
A2
  8
5
  6
CONTINUOUS
 10
954.5959
 20
1502.973
 30
0.0
 11
954.5959
 21
1524.273
 31
0.0
  0
LINE
  5
A3
  8
5
  6
CONTINUOUS
 10
1244.596
 20
1524.273
 30
0.0
 11
1244.596
 21
1502.973
 31
0.0
  0
LINE
  5
A4
  8
5
  6
CONTINUOUS
 10
960.0958
 20
1647.973
 30
0.0
 11
1239.096
 21
1647.973
 31
0.0
  0
LINE
  5
A5
  8
5
  6
CONTINUOUS
 10
1242.612
 20
1547.273
 30
0.0
 11
956.5793
 21
1547.273
 31
0.0
  0
LINE
  5
A6
  8
5
  6
CONTINUOUS
 10
956.5793
 20
1547.273
 30
0.0
 11
960.0958
 21
1647.973
 31
0.0
  0
LINE
  5
A7
  8
5
  6
CONTINUOUS
 10
1404.096
 20
1125.573
 30
0.0
 11
1404.096
 21
1142.573
 31
0.0
  0
LINE
  5
A8
  8
5
  6
CONTINUOUS
 10
963.625
 20
1336.673
 30
0.0
 11
968.0959
 21
1336.673
 31
0.0
  0
LINE
  5
AA
  8
5
  6
CONTINUOUS
 10
968.0959
 20
1107.273
 30
0.0
 11
968.0959
 21
1106.873
 31
0.0
  0
LINE
  5
AB
  8
5
  6
CONTINUOUS
 10
965.3179
 20
1204.673
 30
0.0
 11
968.0959
 21
1204.673
 31
0.0
  0
LINE
  5
AC
  8
5
  6
CONTINUOUS
 10
968.0959
 20
1221.973
 30
0.0
 11
968.0959
 21
1204.673
 31
0.0
  0
LINE
  5
AD
  8
5
  6
CONTINUOUS
 10
968.0959
 20
1221.973
 30
0.0
 11
965.4056
 21
1221.973
 31
0.0
  0
LINE
  5
AE
  8
5
  6
CONTINUOUS
 10
1242.612
 20
1547.273
 30
0.0
 11
1239.096
 21
1647.973
 31
0.0
  0
LINE
  5
AF
  8
5
  6
CONTINUOUS
 10
1011.588
 20
1694.973
 30
0.0
 11
1187.601
 21
1694.969
 31
0.0
  0
LINE
  5
B0
  8
5
  6
CONTINUOUS
 10
965.3179
 20
1239.273
 30
0.0
 11
968.0959
 21
1239.273
 31
0.0
  0
LINE
  5
B1
  8
5
  6
CONTINUOUS
 10
968.0959
 20
1256.473
 30
0.0
 11
968.0959
 21
1239.273
 31
0.0
  0
LINE
  5
B2
  8
5
  6
CONTINUOUS
 10
968.0959
 20
1256.473
 30
0.0
 11
965.0553
 21
1256.473
 31
0.0
  0
LINE
  5
B3
  8
5
  6
CONTINUOUS
 10
964.6796
 20
1271.473
 30
0.0
 11
968.0959
 21
1271.473
 31
0.0
  0
LINE
  5
B4
  8
5
  6
CONTINUOUS
 10
968.0959
 20
1286.373
 30
0.0
 11
968.0959
 21
1271.473
 31
0.0
  0
LINE
  5
B5
  8
5
  6
CONTINUOUS
 10
968.0959
 20
1286.373
 30
0.0
 11
964.1651
 21
1286.373
 31
0.0
  0
LINE
  5
B6
  8
5
  6
CONTINUOUS
 10
963.4969
 20
1301.373
 30
0.0
 11
968.0959
 21
1301.373
 31
0.0
  0
LINE
  5
B7
  8
5
  6
CONTINUOUS
 10
968.0959
 20
1318.373
 30
0.0
 11
968.0959
 21
1301.373
 31
0.0
  0
LINE
  5
B8
  8
5
  6
CONTINUOUS
 10
968.0959
 20
1318.373
 30
0.0
 11
962.5414
 21
1318.373
 31
0.0
  0
LINE
  5
B9
  8
5
  6
CONTINUOUS
 10
964.6825
 20
1172.573
 30
0.0
 11
968.0959
 21
1172.573
 31
0.0
  0
LINE
  5
BA
  8
5
  6
CONTINUOUS
 10
968.0959
 20
1187.473
 30
0.0
 11
968.0959
 21
1172.573
 31
0.0
  0
LINE
  5
BB
  8
5
  6
CONTINUOUS
 10
968.0959
 20
1187.473
 30
0.0
 11
965.0553
 21
1187.473
 31
0.0
  0
LINE
  5
BC
  8
5
  6
CONTINUOUS
 10
1065.729
 20
1697.973
 30
0.0
 11
1065.729
 21
1694.973
 31
0.0
  0
LINE
  5
BD
  8
5
  6
CONTINUOUS
 10
1067.229
 20
1694.973
 30
0.0
 11
1067.229
 21
1697.973
 31
0.0
  0
LINE
  5
BE
  8
5
  6
CONTINUOUS
 10
1092.244
 20
1694.973
 30
0.0
 11
1092.244
 21
1697.973
 31
0.0
  0
LINE
  5
BF
  8
5
  6
CONTINUOUS
 10
1102.086
 20
1694.973
 30
0.0
 11
1102.086
 21
1697.973
 31
0.0
  0
LINE
  5
C0
  8
5
  6
CONTINUOUS
 10
1095.768
 20
1062.033
 30
0.0
 11
1094.751
 21
1041.463
 31
0.0
  0
LINE
  5
C1
  8
5
  6
CONTINUOUS
 10
1095.768
 20
1062.033
 30
0.0
 11
1411.596
 21
1062.033
 31
0.0
  0
LINE
  5
C2
  8
5
  6
CONTINUOUS
 10
1026.596
 20
1062.033
 30
0.0
 11
1062.596
 21
1062.033
 31
0.0
  0
LINE
  5
C3
  8
5
  6
CONTINUOUS
 10
982.0958
 20
1062.033
 30
0.0
 11
993.4231
 21
1062.033
 31
0.0
  0
LINE
  5
C4
  8
5
  6
CONTINUOUS
 10
982.0958
 20
1062.033
 30
0.0
 11
982.0958
 21
1016.473
 31
0.0
  0
LINE
  5
C5
  8
5
  6
CONTINUOUS
 10
982.0958
 20
1016.473
 30
0.0
 11
997.3157
 21
1016.473
 31
0.0
  0
LINE
  5
C6
  8
5
  6
CONTINUOUS
 10
1091.876
 20
1016.473
 30
0.0
 11
1411.596
 21
1016.473
 31
0.0
  0
LINE
  5
C7
  8
5
  6
CONTINUOUS
 10
896.5958
 20
1005.47
 30
0.0
 11
954.0957
 21
1003.462
 31
0.0
  0
LINE
  5
C8
  8
5
  6
CONTINUOUS
 10
954.0957
 20
1440.484
 30
0.0
 11
896.5958
 21
1438.476
 31
0.0
  0
LINE
  5
C9
  8
5
  6
CONTINUOUS
 10
977.625
 20
1016.873
 30
0.0
 11
977.6249
 21
1035.413
 31
0.0
  0
LINE
  5
CA
  8
5
  6
CONTINUOUS
 10
1219.596
 20
1474.973
 30
0.0
 11
1221.781
 21
1412.391
 31
0.0
  0
LINE
  5
CB
  8
5
  6
CONTINUOUS
 10
979.8667
 20
1047.376
 30
0.0
 11
979.8667
 21
999.3732
 31
0.0
  0
LINE
  5
CC
  8
5
  6
CONTINUOUS
 10
979.8733
 20
999.3227
 30
0.0
 11
982.0958
 21
1016.473
 31
0.0
  0
LINE
  5
CD
  8
5
  6
CONTINUOUS
 10
979.8797
 20
999.2727
 30
0.0
 11
1411.596
 21
999.2727
 31
0.0
  0
LINE
  5
CE
  8
5
  6
CONTINUOUS
 10
1091.212
 20
1010.702
 30
0.0
 11
1074.096
 21
1001.002
 31
0.0
  0
LINE
  5
CF
  8
5
  6
CONTINUOUS
 10
1074.096
 20
1001.002
 30
0.0
 11
1015.096
 21
1001.002
 31
0.0
  0
LINE
  5
D0
  8
5
  6
CONTINUOUS
 10
1015.096
 20
1001.002
 30
0.0
 11
997.9797
 21
1010.702
 31
0.0
  0
LINE
  5
D1
  8
5
  6
CONTINUOUS
 10
1074.096
 20
1001.002
 30
0.0
 11
1074.096
 21
1018.68
 31
0.0
  0
LINE
  5
D2
  8
5
  6
CONTINUOUS
 10
1015.096
 20
1018.68
 30
0.0
 11
1015.096
 21
1001.002
 31
0.0
  0
LINE
  5
D3
  8
5
  6
CONTINUOUS
 10
878.5957
 20
1446.973
 30
0.0
 11
873.5958
 21
1446.973
 31
0.0
  0
LINE
  5
D4
  8
5
  6
CONTINUOUS
 10
1103.586
 20
1694.973
 30
0.0
 11
1103.586
 21
1697.973
 31
0.0
  0
LINE
  5
D5
  8
5
  6
CONTINUOUS
 10
963.4969
 20
1142.573
 30
0.0
 11
968.0959
 21
1142.573
 31
0.0
  0
LINE
  5
D6
  8
5
  6
CONTINUOUS
 10
873.5957
 20
996.9733
 30
0.0
 11
878.5957
 21
996.9733
 31
0.0
  0
LINE
  5
D7
  8
5
  6
CONTINUOUS
 10
896.5958
 20
1496.973
 30
0.0
 11
878.5958
 21
1496.973
 31
0.0
  0
LINE
  5
D8
  8
5
  6
CONTINUOUS
 10
878.5957
 20
946.9734
 30
0.0
 11
896.5958
 21
946.9734
 31
0.0
  0
LINE
  5
D9
  8
5
  6
CONTINUOUS
 10
748.596
 20
1254.473
 30
0.0
 11
738.5958
 21
1254.473
 31
0.0
  0
LINE
  5
DA
  8
5
  6
CONTINUOUS
 10
873.5958
 20
1254.473
 30
0.0
 11
868.5957
 21
1254.473
 31
0.0
  0
LINE
  5
DB
  8
5
  6
CONTINUOUS
 10
1136.19
 20
1694.973
 30
0.0
 11
1136.19
 21
1697.973
 31
0.0
  0
LINE
  5
DC
  8
5
  6
CONTINUOUS
 10
1124.848
 20
1694.973
 30
0.0
 11
1124.848
 21
1697.973
 31
0.0
  0
LINE
  5
DD
  8
5
  6
CONTINUOUS
 10
1134.69
 20
1694.973
 30
0.0
 11
1134.69
 21
1697.973
 31
0.0
  0
LINE
  5
DE
  8
5
  6
CONTINUOUS
 10
1048.588
 20
1697.973
 30
0.0
 11
1054.918
 21
1697.973
 31
0.0
  0
LINE
  5
DF
  8
5
  6
CONTINUOUS
 10
1054.918
 20
1697.973
 30
0.0
 11
1057.554
 21
1697.973
 31
0.0
  0
LINE
  5
E0
  8
5
  6
CONTINUOUS
 10
968.0959
 20
1157.573
 30
0.0
 11
968.0959
 21
1142.573
 31
0.0
  0
LINE
  5
E1
  8
5
  6
CONTINUOUS
 10
1057.554
 20
1697.973
 30
0.0
 11
1065.729
 21
1697.973
 31
0.0
  0
LINE
  5
E2
  8
5
  6
CONTINUOUS
 10
968.0959
 20
1157.573
 30
0.0
 11
964.1651
 21
1157.573
 31
0.0
  0
LINE
  5
E3
  8
5
  6
CONTINUOUS
 10
968.0959
 20
1125.573
 30
0.0
 11
968.0959
 21
1107.273
 31
0.0
  0
LINE
  5
E4
  8
5
  6
CONTINUOUS
 10
968.0959
 20
1125.573
 30
0.0
 11
962.5414
 21
1125.573
 31
0.0
  0
LINE
  5
E5
  8
5
  6
CONTINUOUS
 10
1067.229
 20
1697.973
 30
0.0
 11
1075.367
 21
1697.973
 31
0.0
  0
LINE
  5
E6
  8
5
  6
CONTINUOUS
 10
1075.367
 20
1697.973
 30
0.0
 11
1078.11
 21
1697.973
 31
0.0
  0
LINE
  5
E7
  8
5
  6
CONTINUOUS
 10
968.0959
 20
1204.673
 30
0.0
 11
968.0959
 21
1187.473
 31
0.0
  0
LINE
  5
E8
  8
5
  6
CONTINUOUS
 10
1078.11
 20
1697.973
 30
0.0
 11
1084.896
 21
1697.973
 31
0.0
  0
LINE
  5
E9
  8
5
  6
CONTINUOUS
 10
968.0959
 20
1239.273
 30
0.0
 11
968.0959
 21
1221.973
 31
0.0
  0
LINE
  5
EA
  8
5
  6
CONTINUOUS
 10
968.0959
 20
1271.473
 30
0.0
 11
968.0959
 21
1256.473
 31
0.0
  0
LINE
  5
EB
  8
5
  6
CONTINUOUS
 10
968.0959
 20
1301.373
 30
0.0
 11
968.0959
 21
1286.373
 31
0.0
  0
LINE
  5
EC
  8
5
  6
CONTINUOUS
 10
968.0959
 20
1336.673
 30
0.0
 11
968.0959
 21
1318.373
 31
0.0
  0
LINE
  5
ED
  8
5
  6
CONTINUOUS
 10
968.0959
 20
1172.573
 30
0.0
 11
968.0959
 21
1157.573
 31
0.0
  0
LINE
  5
EE
  8
5
  6
CONTINUOUS
 10
968.0959
 20
1142.573
 30
0.0
 11
968.0959
 21
1125.573
 31
0.0
  0
LINE
  5
EF
  8
5
  6
CONTINUOUS
 10
1404.096
 20
1125.573
 30
0.0
 11
968.0959
 21
1125.573
 31
0.0
  0
LINE
  5
F1
  8
5
  6
CONTINUOUS
 10
1404.096
 20
1157.573
 30
0.0
 11
968.0959
 21
1157.573
 31
0.0
  0
LINE
  5
F2
  8
5
  6
CONTINUOUS
 10
968.0959
 20
1142.573
 30
0.0
 11
1404.096
 21
1142.573
 31
0.0
  0
LINE
  5
F3
  8
5
  6
CONTINUOUS
 10
1404.096
 20
1187.473
 30
0.0
 11
968.0959
 21
1187.473
 31
0.0
  0
LINE
  5
F4
  8
5
  6
CONTINUOUS
 10
968.0959
 20
1172.573
 30
0.0
 11
1404.096
 21
1172.573
 31
0.0
  0
LINE
  5
F5
  8
5
  6
CONTINUOUS
 10
1404.096
 20
1318.373
 30
0.0
 11
968.0959
 21
1318.373
 31
0.0
  0
LINE
  5
F6
  8
5
  6
CONTINUOUS
 10
968.0959
 20
1301.373
 30
0.0
 11
1404.096
 21
1301.373
 31
0.0
  0
LINE
  5
F7
  8
5
  6
CONTINUOUS
 10
1404.096
 20
1286.373
 30
0.0
 11
968.0959
 21
1286.373
 31
0.0
  0
LINE
  5
F8
  8
5
  6
CONTINUOUS
 10
968.0959
 20
1271.473
 30
0.0
 11
1404.096
 21
1271.473
 31
0.0
  0
LINE
  5
F9
  8
5
  6
CONTINUOUS
 10
1092.244
 20
1697.973
 30
0.0
 11
1102.086
 21
1697.973
 31
0.0
  0
LINE
  5
FA
  8
5
  6
CONTINUOUS
 10
1103.586
 20
1697.973
 30
0.0
 11
1107.016
 21
1697.973
 31
0.0
  0
LINE
  5
FB
  8
5
  6
CONTINUOUS
 10
1107.016
 20
1697.973
 30
0.0
 11
1117.607
 21
1697.973
 31
0.0
  0
LINE
  5
FC
  8
5
  6
CONTINUOUS
 10
1404.096
 20
1256.473
 30
0.0
 11
968.0959
 21
1256.473
 31
0.0
  0
LINE
  5
FD
  8
5
  6
CONTINUOUS
 10
968.0959
 20
1239.273
 30
0.0
 11
1404.096
 21
1239.273
 31
0.0
  0
LINE
  5
FE
  8
5
  6
CONTINUOUS
 10
1136.19
 20
1697.973
 30
0.0
 11
1139.62
 21
1697.973
 31
0.0
  0
LINE
  5
FF
  8
5
  6
CONTINUOUS
 10
1139.62
 20
1697.973
 30
0.0
 11
1150.211
 21
1697.973
 31
0.0
  0
LINE
  5
101
  8
5
  6
CONTINUOUS
 10
968.0959
 20
1204.673
 30
0.0
 11
1404.096
 21
1204.673
 31
0.0
  0
LINE
  5
102
  8
5
  6
CONTINUOUS
 10
1408.541
 20
1408.411
 30
0.0
 11
1408.541
 21
1427.273
 31
0.0
  0
LINE
  5
103
  8
5
  6
CONTINUOUS
 10
1406.312
 20
1444.624
 30
0.0
 11
1406.312
 21
1396.495
 31
0.0
  0
LINE
  5
104
  8
5
  6
CONTINUOUS
 10
1124.848
 20
1697.973
 30
0.0
 11
1134.69
 21
1697.973
 31
0.0
  0
LINE
  5
105
  8
5
  6
CONTINUOUS
 10
959.6343
 20
1664.973
 30
0.0
 11
1011.588
 21
1694.973
 31
0.0
  0
LINE
  5
106
  8
5
  6
CONTINUOUS
 10
1187.601
 20
1694.969
 30
0.0
 11
1239.557
 21
1664.973
 31
0.0
  0
LINE
  5
107
  8
5
  6
CONTINUOUS
 10
1014.096
 20
1664.662
 30
0.0
 11
1014.096
 21
1664.973
 31
0.0
  0
LINE
  5
108
  8
5
  6
CONTINUOUS
 10
1404.096
 20
1381.913
 30
0.0
 11
1404.096
 21
1427.473
 31
0.0
  0
LINE
  5
109
  8
5
  6
CONTINUOUS
 10
1014.096
 20
1664.973
 30
0.0
 11
959.0958
 21
1664.973
 31
0.0
  0
LINE
  5
10A
  8
5
  6
CONTINUOUS
 10
1307.096
 20
1425.267
 30
0.0
 11
1289.98
 21
1411.166
 31
0.0
  0
LINE
  5
10B
  8
5
  6
CONTINUOUS
 10
1185.096
 20
1664.973
 30
0.0
 11
1185.096
 21
1664.662
 31
0.0
  0
LINE
  5
10C
  8
5
  6
CONTINUOUS
 10
1240.096
 20
1664.973
 30
0.0
 11
1185.096
 21
1664.973
 31
0.0
  0
LINE
  5
10D
  8
5
  6
CONTINUOUS
 10
1245.096
 20
1524.273
 30
0.0
 11
1240.096
 21
1652.973
 31
0.0
  0
LINE
  5
10E
  8
5
  6
CONTINUOUS
 10
959.0957
 20
1652.973
 30
0.0
 11
954.0958
 21
1524.273
 31
0.0
  0
LINE
  5
10F
  8
5
  6
CONTINUOUS
 10
959.0958
 20
1664.973
 30
0.0
 11
959.0957
 21
1652.973
 31
0.0
  0
LINE
  5
110
  8
5
  6
CONTINUOUS
 10
1240.096
 20
1652.973
 30
0.0
 11
1240.096
 21
1664.973
 31
0.0
  0
LINE
  5
111
  8
5
  6
CONTINUOUS
 10
954.5959
 20
1502.973
 30
0.0
 11
982.5959
 21
1474.973
 31
0.0
  0
LINE
  5
112
  8
5
  6
CONTINUOUS
 10
1216.596
 20
1474.973
 30
0.0
 11
1244.596
 21
1502.973
 31
0.0
  0
LINE
  5
113
  8
5
  6
CONTINUOUS
 10
1307.096
 20
1442.944
 30
0.0
 11
1307.096
 21
1425.267
 31
0.0
  0
LINE
  5
114
  8
5
  6
CONTINUOUS
 10
738.5958
 20
1189.473
 30
0.0
 11
873.5958
 21
1189.473
 31
0.0
  0
LINE
  5
115
  8
5
  6
CONTINUOUS
 10
1216.596
 20
1474.973
 30
0.0
 11
1219.596
 21
1474.973
 31
0.0
  0
LINE
  5
116
  8
5
  6
CONTINUOUS
 10
979.5958
 20
1474.973
 30
0.0
 11
982.5959
 21
1474.973
 31
0.0
  0
LINE
  5
117
  8
5
  6
CONTINUOUS
 10
990.6043
 20
1474.973
 30
0.0
 11
993.6043
 21
1474.973
 31
0.0
  0
LINE
  5
118
  8
5
  6
CONTINUOUS
 10
993.6043
 20
1474.973
 30
0.0
 11
1205.587
 21
1474.973
 31
0.0
  0
LINE
  5
119
  8
5
  6
CONTINUOUS
 10
1205.587
 20
1474.973
 30
0.0
 11
1208.587
 21
1474.973
 31
0.0
  0
LINE
  5
11A
  8
5
  6
CONTINUOUS
 10
1216.596
 20
1474.973
 30
0.0
 11
1208.587
 21
1474.973
 31
0.0
  0
LINE
  5
11B
  8
5
  6
CONTINUOUS
 10
990.6043
 20
1474.973
 30
0.0
 11
982.5959
 21
1474.973
 31
0.0
  0
LINE
  5
11C
  8
5
  6
CONTINUOUS
 10
954.5959
 20
1502.973
 30
0.0
 11
1244.596
 21
1502.973
 31
0.0
  0
LINE
  5
11D
  8
5
  6
CONTINUOUS
 10
1048.588
 20
1694.973
 30
0.0
 11
1048.588
 21
1697.973
 31
0.0
  0
LINE
  5
11E
  8
5
  6
CONTINUOUS
 10
1054.919
 20
1694.973
 30
0.0
 11
1054.918
 21
1697.973
 31
0.0
  0
LINE
  5
11F
  8
5
  6
CONTINUOUS
 10
1057.554
 20
1694.973
 30
0.0
 11
1057.554
 21
1697.973
 31
0.0
  0
LINE
  5
120
  8
5
  6
CONTINUOUS
 10
1075.367
 20
1694.973
 30
0.0
 11
1075.367
 21
1697.973
 31
0.0
  0
LINE
  5
121
  8
5
  6
CONTINUOUS
 10
1078.11
 20
1694.973
 30
0.0
 11
1078.11
 21
1697.973
 31
0.0
  0
LINE
  5
122
  8
5
  6
CONTINUOUS
 10
1084.896
 20
1694.973
 30
0.0
 11
1084.896
 21
1697.973
 31
0.0
  0
LINE
  5
123
  8
5
  6
CONTINUOUS
 10
993.6043
 20
1474.973
 30
0.0
 11
991.1087
 21
1403.511
 31
0.0
  0
LINE
  5
124
  8
5
  6
CONTINUOUS
 10
1107.016
 20
1694.973
 30
0.0
 11
1107.016
 21
1697.973
 31
0.0
  0
LINE
  5
125
  8
5
  6
CONTINUOUS
 10
1117.607
 20
1694.973
 30
0.0
 11
1117.607
 21
1697.973
 31
0.0
  0
LINE
  5
126
  8
5
  6
CONTINUOUS
 10
1139.62
 20
1694.973
 30
0.0
 11
1139.62
 21
1697.973
 31
0.0
  0
LINE
  5
127
  8
5
  6
CONTINUOUS
 10
1150.211
 20
1694.973
 30
0.0
 11
1150.211
 21
1697.973
 31
0.0
  0
LINE
  5
128
  8
5
  6
CONTINUOUS
 10
1185.096
 20
1664.662
 30
0.0
 11
1014.096
 21
1664.662
 31
0.0
  0
LINE
  5
129
  8
5
  6
CONTINUOUS
 10
1187.596
 20
1664.973
 30
0.0
 11
1187.601
 21
1694.969
 31
0.0
  0
LINE
  5
12A
  8
5
  6
CONTINUOUS
 10
1289.98
 20
1433.244
 30
0.0
 11
1307.096
 21
1442.944
 31
0.0
  0
LINE
  5
12B
  8
5
  6
CONTINUOUS
 10
1011.588
 20
1694.973
 30
0.0
 11
1011.596
 21
1664.973
 31
0.0
  0
LINE
  5
12C
  8
5
  6
CONTINUOUS
 10
1289.98
 20
1411.166
 30
0.0
 11
1289.98
 21
1433.244
 31
0.0
  0
LINE
  5
12D
  8
5
  6
CONTINUOUS
 10
1366.096
 20
1442.944
 30
0.0
 11
1383.212
 21
1433.244
 31
0.0
  0
LINE
  5
12E
  8
5
  6
CONTINUOUS
 10
1366.096
 20
1425.267
 30
0.0
 11
1366.096
 21
1442.944
 31
0.0
  0
LINE
  5
12F
  8
5
  6
CONTINUOUS
 10
1383.212
 20
1411.166
 30
0.0
 11
1366.096
 21
1425.267
 31
0.0
  0
LINE
  5
130
  8
5
  6
CONTINUOUS
 10
1240.096
 20
1652.973
 30
0.0
 11
959.0957
 21
1652.973
 31
0.0
  0
LINE
  5
131
  8
5
  6
CONTINUOUS
 10
1383.212
 20
1433.244
 30
0.0
 11
1383.212
 21
1411.166
 31
0.0
  0
LINE
  5
132
  8
5
  6
CONTINUOUS
 10
1318.596
 20
1391.697
 30
0.0
 11
1326.596
 21
1398.764
 31
0.0
  0
LINE
  5
133
  8
5
  6
CONTINUOUS
 10
525.1071
 20
1524.273
 30
0.0
 11
234.1071
 21
1524.273
 31
0.0
  0
LINE
  5
134
  8
5
  6
CONTINUOUS
 10
524.6071
 20
1524.273
 30
0.0
 11
524.6071
 21
1502.973
 31
0.0
  0
LINE
  5
135
  8
5
  6
CONTINUOUS
 10
234.6071
 20
1524.273
 30
0.0
 11
234.6071
 21
1502.973
 31
0.0
  0
LINE
  5
136
  8
5
  6
CONTINUOUS
 10
1346.596
 20
1398.764
 30
0.0
 11
1354.596
 21
1391.697
 31
0.0
  0
LINE
  5
137
  8
5
  6
CONTINUOUS
 10
1326.596
 20
1398.764
 30
0.0
 11
1346.596
 21
1398.764
 31
0.0
  0
LINE
  5
138
  8
5
  6
CONTINUOUS
 10
1366.096
 20
1425.267
 30
0.0
 11
1307.096
 21
1425.267
 31
0.0
  0
LINE
  5
139
  8
5
  6
CONTINUOUS
 10
1307.096
 20
1442.944
 30
0.0
 11
1366.096
 21
1442.944
 31
0.0
  0
LINE
  5
13A
  8
5
  6
CONTINUOUS
 10
1318.596
 20
1381.913
 30
0.0
 11
1354.596
 21
1381.913
 31
0.0
  0
LINE
  5
13B
  8
5
  6
CONTINUOUS
 10
1253.096
 20
1381.913
 30
0.0
 11
1285.423
 21
1381.913
 31
0.0
  0
LINE
  5
13C
  8
5
  6
CONTINUOUS
 10
1208.083
 20
1403.511
 30
0.0
 11
991.1087
 21
1403.511
 31
0.0
  0
LINE
  5
13D
  8
5
  6
CONTINUOUS
 10
1387.768
 20
1381.913
 30
0.0
 11
1404.096
 21
1381.913
 31
0.0
  0
LINE
  5
13E
  8
5
  6
CONTINUOUS
 10
1386.751
 20
1402.483
 30
0.0
 11
1387.768
 21
1381.913
 31
0.0
  0
LINE
  5
13F
  8
5
  6
CONTINUOUS
 10
1285.423
 20
1381.913
 30
0.0
 11
1286.44
 21
1402.483
 31
0.0
  0
LINE
  5
140
  8
5
  6
CONTINUOUS
 10
1289.98
 20
1411.166
 30
0.0
 11
1286.846
 21
1371.573
 31
0.0
  0
LINE
  5
141
  8
5
  6
CONTINUOUS
 10
1286.44
 20
1402.483
 30
0.0
 11
1289.98
 21
1433.244
 31
0.0
  0
LINE
  5
142
  8
5
  6
CONTINUOUS
 10
1386.751
 20
1402.483
 30
0.0
 11
1383.212
 21
1433.244
 31
0.0
  0
LINE
  5
143
  8
5
  6
CONTINUOUS
 10
1383.212
 20
1411.166
 30
0.0
 11
1386.346
 21
1371.573
 31
0.0
  0
LINE
  5
144
  8
5
  6
CONTINUOUS
 10
1318.596
 20
1371.573
 30
0.0
 11
1318.596
 21
1391.697
 31
0.0
  0
LINE
  5
145
  8
5
  6
CONTINUOUS
 10
1354.596
 20
1391.697
 30
0.0
 11
1354.596
 21
1371.573
 31
0.0
  0
LINE
  5
146
  8
5
  6
CONTINUOUS
 10
1604.596
 20
1081.973
 30
0.0
 11
1540.596
 21
998.4733
 31
0.0
  0
LINE
  5
147
  8
5
  6
CONTINUOUS
 10
1604.596
 20
1361.973
 30
0.0
 11
1540.596
 21
1445.473
 31
0.0
  0
LINE
  5
148
  8
5
  6
CONTINUOUS
 10
1604.596
 20
1361.973
 30
0.0
 11
1604.596
 21
1081.973
 31
0.0
  0
LINE
  5
149
  8
5
  6
CONTINUOUS
 10
1613.596
 20
1081.973
 30
0.0
 11
1604.596
 21
1081.973
 31
0.0
  0
LINE
  5
14A
  8
5
  6
CONTINUOUS
 10
1613.596
 20
1361.973
 30
0.0
 11
1604.596
 21
1361.973
 31
0.0
  0
LINE
  5
14B
  8
5
  6
CONTINUOUS
 10
1411.596
 20
1099.677
 30
0.0
 11
1472.096
 21
1099.677
 31
0.0
  0
LINE
  5
14C
  8
5
  6
CONTINUOUS
 10
1472.096
 20
1344.269
 30
0.0
 11
1411.596
 21
1344.269
 31
0.0
  0
LINE
  5
14D
  8
5
  6
CONTINUOUS
 10
1540.596
 20
1343.027
 30
0.0
 11
1472.096
 21
1343.027
 31
0.0
  0
LINE
  5
14E
  8
5
  6
CONTINUOUS
 10
1472.096
 20
1100.92
 30
0.0
 11
1540.596
 21
1100.92
 31
0.0
  0
LINE
  5
14F
  8
6
  6
CENTER
 10
2093.262
 20
941.9733
 30
0.0
 11
2093.262
 21
1501.973
 31
0.0
  0
LINE
  5
150
  8
6
  6
CENTER
 10
1813.262
 20
1221.973
 30
0.0
 11
2373.262
 21
1221.973
 31
0.0
  0
LINE
  5
151
  8
7
  6
DASHED
 10
2344.262
 20
1112.473
 30
0.0
 11
2344.262
 21
1115.473
 31
0.0
  0
LINE
  5
152
  8
5
  6
CONTINUOUS
 10
2386.262
 20
1477.623
 30
0.0
 11
2386.262
 21
1597.623
 31
0.0
  0
LINE
  5
153
  8
7
  6
DASHED
 10
2255.648
 20
1112.473
 30
0.0
 11
2344.262
 21
1112.473
 31
0.0
  0
LINE
  5
154
  8
7
  6
DASHED
 10
2257.631
 20
1115.473
 30
0.0
 11
2344.262
 21
1115.473
 31
0.0
  0
LINE
  5
155
  8
5
  6
CONTINUOUS
 10
2386.262
 20
1577.623
 30
0.0
 11
2403.582
 21
1587.623
 31
0.0
  0
LINE
  5
156
  8
5
  6
CONTINUOUS
 10
2386.262
 20
1557.967
 30
0.0
 11
2403.582
 21
1567.967
 31
0.0
  0
LINE
  5
157
  8
5
  6
CONTINUOUS
 10
2386.262
 20
1537.967
 30
0.0
 11
2403.582
 21
1547.967
 31
0.0
  0
LINE
  5
158
  8
5
  6
CONTINUOUS
 10
2386.262
 20
1517.967
 30
0.0
 11
2403.582
 21
1527.967
 31
0.0
  0
LINE
  5
159
  8
5
  6
CONTINUOUS
 10
2386.262
 20
1497.967
 30
0.0
 11
2403.582
 21
1507.967
 31
0.0
  0
LINE
  5
15A
  8
6
  6
CENTER
 10
379.6071
 20
993.4733
 30
0.0
 11
379.6071
 21
1450.473
 31
0.0
  0
LINE
  5
15B
  8
6
  6
CENTER
 10
151.1071
 20
1221.973
 30
0.0
 11
608.1071
 21
1221.973
 31
0.0
  0
LINE
  5
15C
  8
6
  6
CENTER
 10
1638.596
 20
403.1061
 30
0.0
 11
1187.6
 21
403.106393
 31
0.0
  0
LINE
  5
15D
  8
5
  6
CONTINUOUS
 10
183.1071
 20
1647.973
 30
0.0
 11
238.9128
 21
1647.973
 31
0.0
  0
LINE
  5
15E
  8
5
  6
CONTINUOUS
 10
235.0006
 20
1547.273
 30
0.0
 11
183.1071
 21
1547.273
 31
0.0
  0
LINE
  5
15F
  8
5
  6
CONTINUOUS
 10
183.1071
 20
1547.273
 30
0.0
 11
183.1071
 21
1647.973
 31
0.0
  0
LINE
  5
160
  8
5
  6
CONTINUOUS
 10
291.6071
 20
1694.973
 30
0.0
 11
467.615
 21
1694.973
 31
0.0
  0
LINE
  5
161
  8
5
  6
CONTINUOUS
 10
380.7302
 20
1694.973
 30
0.0
 11
380.7302
 21
1697.973
 31
0.0
  0
LINE
  5
162
  8
5
  6
CONTINUOUS
 10
398.5137
 20
1694.973
 30
0.0
 11
398.5137
 21
1697.973
 31
0.0
  0
LINE
  5
163
  8
5
  6
CONTINUOUS
 10
360.6112
 20
1694.973
 30
0.0
 11
360.6112
 21
1697.973
 31
0.0
  0
LINE
  5
164
  8
5
  6
CONTINUOUS
 10
379.2302
 20
1694.973
 30
0.0
 11
379.2302
 21
1697.973
 31
0.0
  0
LINE
  5
165
  8
5
  6
CONTINUOUS
 10
360.6112
 20
1697.973
 30
0.0
 11
360.6112
 21
1697.973
 31
0.0
  0
LINE
  5
166
  8
5
  6
CONTINUOUS
 10
380.7302
 20
1697.973
 30
0.0
 11
380.7302
 21
1697.973
 31
0.0
  0
LINE
  5
167
  8
5
  6
CONTINUOUS
 10
360.6112
 20
1697.973
 30
0.0
 11
360.6112
 21
1697.973
 31
0.0
  0
LINE
  5
168
  8
5
  6
CONTINUOUS
 10
380.7302
 20
1697.973
 30
0.0
 11
380.7302
 21
1697.973
 31
0.0
  0
LINE
  5
169
  8
5
  6
CONTINUOUS
 10
757.5957
 20
1253.202
 30
0.0
 11
859.5958
 21
1253.202
 31
0.0
  0
LINE
  5
16A
  8
5
  6
CONTINUOUS
 10
868.5957
 20
1254.473
 30
0.0
 11
868.5958
 21
1258.473
 31
0.0
  0
LINE
  5
16B
  8
5
  6
CONTINUOUS
 10
859.5958
 20
1258.473
 30
0.0
 11
859.5958
 21
1253.202
 31
0.0
  0
LINE
  5
16C
  8
5
  6
CONTINUOUS
 10
757.5958
 20
1258.473
 30
0.0
 11
757.5957
 21
1253.202
 31
0.0
  0
LINE
  5
16D
  8
5
  6
CONTINUOUS
 10
748.5958
 20
1258.473
 30
0.0
 11
748.5957
 21
1254.474
 31
0.0
  0
LINE
  5
16E
  8
5
  6
CONTINUOUS
 10
954.0958
 20
1002.973
 30
0.0
 11
979.4055
 21
1002.973
 31
0.0
  0
LINE
  5
16F
  8
5
  6
CONTINUOUS
 10
978.4066
 20
1440.973
 30
0.0
 11
954.0958
 21
1440.973
 31
0.0
  0
LINE
  5
170
  8
5
  6
CONTINUOUS
 10
1253.096
 20
1440.973
 30
0.0
 11
1220.785
 21
1440.973
 31
0.0
  0
LINE
  5
171
  8
5
  6
CONTINUOUS
 10
380.7302
 20
1697.973
 30
0.0
 11
382.5549
 21
1697.973
 31
0.0
  0
LINE
  5
172
  8
5
  6
CONTINUOUS
 10
1411.596
 20
1440.973
 30
0.0
 11
1406.786
 21
1440.973
 31
0.0
  0
LINE
  5
173
  8
5
  6
CONTINUOUS
 10
158.6362
 20
1018.68
 30
0.0
 11
167.1084
 21
1032.78
 31
0.0
  0
LINE
  5
174
  8
5
  6
CONTINUOUS
 10
1208.083
 20
1403.511
 30
0.0
 11
1205.587
 21
1474.973
 31
0.0
  0
LINE
  5
175
  8
5
  6
CONTINUOUS
 10
167.1084
 20
1032.78
 30
0.0
 11
183.5841
 21
1060.2
 31
0.0
  0
LINE
  5
176
  8
5
  6
CONTINUOUS
 10
382.5549
 20
1697.973
 30
0.0
 11
391.0573
 21
1697.973
 31
0.0
  0
LINE
  5
177
  8
5
  6
CONTINUOUS
 10
391.0573
 20
1697.973
 30
0.0
 11
398.5137
 21
1697.973
 31
0.0
  0
LINE
  5
178
  8
5
  6
CONTINUOUS
 10
360.6112
 20
1697.973
 30
0.0
 11
371.2034
 21
1697.973
 31
0.0
  0
LINE
  5
179
  8
5
  6
CONTINUOUS
 10
371.2034
 20
1697.973
 30
0.0
 11
379.2302
 21
1697.973
 31
0.0
  0
LINE
  5
17A
  8
5
  6
CONTINUOUS
 10
467.615
 20
1694.973
 30
0.0
 11
519.5686
 21
1664.973
 31
0.0
  0
LINE
  5
17B
  8
5
  6
CONTINUOUS
 10
239.6456
 20
1664.973
 30
0.0
 11
291.6071
 21
1694.973
 31
0.0
  0
LINE
  5
17C
  8
5
  6
CONTINUOUS
 10
294.1071
 20
1664.662
 30
0.0
 11
294.1071
 21
1664.973
 31
0.0
  0
LINE
  5
17D
  8
5
  6
CONTINUOUS
 10
294.1071
 20
1664.973
 30
0.0
 11
239.1071
 21
1664.973
 31
0.0
  0
LINE
  5
17E
  8
5
  6
CONTINUOUS
 10
465.1071
 20
1664.973
 30
0.0
 11
465.1071
 21
1664.662
 31
0.0
  0
LINE
  5
17F
  8
5
  6
CONTINUOUS
 10
520.1071
 20
1664.973
 30
0.0
 11
465.1071
 21
1664.973
 31
0.0
  0
LINE
  5
180
  8
5
  6
CONTINUOUS
 10
234.107
 20
1524.273
 30
0.0
 11
239.1071
 21
1652.973
 31
0.0
  0
LINE
  5
181
  8
5
  6
CONTINUOUS
 10
520.107
 20
1652.973
 30
0.0
 11
525.1071
 21
1524.273
 31
0.0
  0
LINE
  5
182
  8
5
  6
CONTINUOUS
 10
239.1071
 20
1652.973
 30
0.0
 11
239.1071
 21
1664.973
 31
0.0
  0
LINE
  5
183
  8
5
  6
CONTINUOUS
 10
520.1071
 20
1664.973
 30
0.0
 11
520.107
 21
1652.973
 31
0.0
  0
LINE
  5
184
  8
5
  6
CONTINUOUS
 10
262.6071
 20
1474.973
 30
0.0
 11
234.6071
 21
1502.973
 31
0.0
  0
LINE
  5
185
  8
5
  6
CONTINUOUS
 10
524.6071
 20
1502.973
 30
0.0
 11
496.6071
 21
1474.973
 31
0.0
  0
LINE
  5
186
  8
5
  6
CONTINUOUS
 10
270.6157
 20
1474.973
 30
0.0
 11
273.6156
 21
1474.973
 31
0.0
  0
LINE
  5
187
  8
5
  6
CONTINUOUS
 10
485.5986
 20
1474.973
 30
0.0
 11
273.6156
 21
1474.973
 31
0.0
  0
LINE
  5
188
  8
5
  6
CONTINUOUS
 10
485.5986
 20
1474.973
 30
0.0
 11
488.5985
 21
1474.973
 31
0.0
  0
LINE
  5
189
  8
5
  6
CONTINUOUS
 10
496.6071
 20
1474.973
 30
0.0
 11
499.6071
 21
1474.973
 31
0.0
  0
LINE
  5
18A
  8
5
  6
CONTINUOUS
 10
259.6071
 20
1474.973
 30
0.0
 11
262.6071
 21
1474.973
 31
0.0
  0
LINE
  5
18B
  8
5
  6
CONTINUOUS
 10
496.6071
 20
1474.973
 30
0.0
 11
488.5985
 21
1474.973
 31
0.0
  0
LINE
  5
18C
  8
5
  6
CONTINUOUS
 10
270.6157
 20
1474.973
 30
0.0
 11
262.6071
 21
1474.973
 31
0.0
  0
LINE
  5
18D
  8
5
  6
CONTINUOUS
 10
234.6071
 20
1502.973
 30
0.0
 11
524.6071
 21
1502.973
 31
0.0
  0
LINE
  5
18E
  8
5
  6
CONTINUOUS
 10
382.555
 20
1694.973
 30
0.0
 11
382.5549
 21
1697.973
 31
0.0
  0
LINE
  5
18F
  8
5
  6
CONTINUOUS
 10
391.0573
 20
1694.973
 30
0.0
 11
391.0573
 21
1697.973
 31
0.0
  0
LINE
  5
190
  8
5
  6
CONTINUOUS
 10
371.2035
 20
1694.973
 30
0.0
 11
371.2034
 21
1697.973
 31
0.0
  0
LINE
  5
191
  8
5
  6
CONTINUOUS
 10
465.1071
 20
1664.662
 30
0.0
 11
294.1072
 21
1664.662
 31
0.0
  0
LINE
  5
192
  8
5
  6
CONTINUOUS
 10
467.6071
 20
1664.973
 30
0.0
 11
467.615
 21
1694.973
 31
0.0
  0
LINE
  5
193
  8
5
  6
CONTINUOUS
 10
291.6071
 20
1694.973
 30
0.0
 11
291.6071
 21
1664.973
 31
0.0
  0
LINE
  5
194
  8
5
  6
CONTINUOUS
 10
520.107
 20
1652.973
 30
0.0
 11
239.1071
 21
1652.973
 31
0.0
  0
LINE
  5
195
  8
5
  6
CONTINUOUS
 10
1253.096
 20
306.6067
 30
0.0
 11
1253.096
 21
323.6067
 31
0.0
  0
LINE
  5
196
  8
5
  6
CONTINUOUS
 10
1253.096
 20
338.6067
 30
0.0
 11
1253.096
 21
353.6067
 31
0.0
  0
LINE
  5
197
  8
5
  6
CONTINUOUS
 10
1253.096
 20
368.5067
 30
0.0
 11
1253.096
 21
385.7066
 31
0.0
  0
LINE
  5
198
  8
5
  6
CONTINUOUS
 10
1253.096
 20
403.0066
 30
0.0
 11
1253.096
 21
420.3067
 31
0.0
  0
LINE
  5
199
  8
5
  6
CONTINUOUS
 10
1253.096
 20
437.5066
 30
0.0
 11
1253.096
 21
452.4067
 31
0.0
  0
LINE
  5
19A
  8
5
  6
CONTINUOUS
 10
1253.096
 20
467.4066
 30
0.0
 11
1253.096
 21
482.4067
 31
0.0
  0
LINE
  5
19B
  8
5
  6
CONTINUOUS
 10
1253.096
 20
499.4066
 30
0.0
 11
1253.096
 21
517.7066
 31
0.0
  0
LINE
  5
19C
  8
5
  6
CONTINUOUS
 10
1253.096
 20
535.2067
 30
0.0
 11
1253.096
 21
539.0893
 31
0.0
  0
LINE
  5
19D
  8
5
  6
CONTINUOUS
 10
1253.096
 20
539.0893
 30
0.0
 11
1253.096
 21
552.6066
 31
0.0
  0
LINE
  5
19E
  8
5
  6
CONTINUOUS
 10
1253.096
 20
270.8067
 30
0.0
 11
1253.096
 21
288.2067
 31
0.0
  0
LINE
  5
19F
  8
5
  6
CONTINUOUS
 10
1253.096
 20
288.2067
 30
0.0
 11
1253.096
 21
306.6067
 31
0.0
  0
LINE
  5
1A0
  8
5
  6
CONTINUOUS
 10
1253.096
 20
323.6066
 30
0.0
 11
1253.096
 21
338.6067
 31
0.0
  0
LINE
  5
1A1
  8
5
  6
CONTINUOUS
 10
1253.096
 20
353.6067
 30
0.0
 11
1253.096
 21
368.5067
 31
0.0
  0
LINE
  5
1A2
  8
5
  6
CONTINUOUS
 10
260.3549
 20
986.4733
 30
0.0
 11
264.9071
 21
981.9733
 31
0.0
  0
LINE
  5
1A3
  8
5
  6
CONTINUOUS
 10
494.3071
 20
981.9733
 30
0.0
 11
498.8593
 21
986.4733
 31
0.0
  0
LINE
  5
1A4
  8
5
  6
CONTINUOUS
 10
592.1058
 20
1032.78
 30
0.0
 11
575.6301
 21
1060.2
 31
0.0
  0
LINE
  5
1A5
  8
5
  6
CONTINUOUS
 10
592.1058
 20
1032.78
 30
0.0
 11
600.578
 21
1018.68
 31
0.0
  0
LINE
  5
1A6
  8
5
  6
CONTINUOUS
 10
1253.096
 20
385.7066
 30
0.0
 11
1253.096
 21
403.0066
 31
0.0
  0
LINE
  5
1A7
  8
5
  6
CONTINUOUS
 10
214.2186
 20
1029.566
 30
0.0
 11
189.1862
 21
1010.702
 31
0.0
  0
LINE
  5
1A8
  8
5
  6
CONTINUOUS
 10
189.1862
 20
1010.702
 30
0.0
 11
176.3139
 21
1001.002
 31
0.0
  0
LINE
  5
1A9
  8
5
  6
CONTINUOUS
 10
176.3139
 20
1001.002
 30
0.0
 11
158.6362
 21
1018.68
 31
0.0
  0
LINE
  5
1AA
  8
5
  6
CONTINUOUS
 10
200.5084
 20
1019.234
 30
0.0
 11
200.5084
 21
1019.234
 31
0.0
  0
LINE
  5
1AB
  8
5
  6
CONTINUOUS
 10
1253.096
 20
420.3067
 30
0.0
 11
1253.096
 21
437.5066
 31
0.0
  0
LINE
  5
1AC
  8
5
  6
CONTINUOUS
 10
1253.096
 20
452.4067
 30
0.0
 11
1253.096
 21
467.4066
 31
0.0
  0
ARC
  5
1AD
  8
5
  6
CONTINUOUS
 10
148.6372
 20
1317.644
 30
0.0
 40
9.25
 50
167.4823
 51
192.5177
  0
ARC
  5
1AE
  8
5
  6
CONTINUOUS
 10
148.6372
 20
1126.302
 30
0.0
 40
9.25
 50
167.4823
 51
192.5177
  0
ARC
  5
1AF
  8
5
  6
CONTINUOUS
 10
283.9362
 20
991.0034
 30
0.0
 40
9.25
 50
257.4822
 51
282.5178
  0
ARC
  5
1B0
  8
5
  6
CONTINUOUS
 10
475.2779
 20
991.0034
 30
0.0
 40
9.25
 50
257.4822
 51
282.5178
  0
ARC
  5
1B1
  8
5
  6
CONTINUOUS
 10
610.577
 20
1126.302
 30
0.0
 40
9.25
 50
347.4822
 51
12.5178
  0
ARC
  5
1B2
  8
5
  6
CONTINUOUS
 10
610.577
 20
1317.644
 30
0.0
 40
9.25
 50
347.4822
 51
12.5178
  0
LINE
  5
1B3
  8
5
  6
CONTINUOUS
 10
128.6071
 20
1115.473
 30
0.0
 11
128.6071
 21
1112.473
 31
0.0
  0
ARC
  5
1B4
  8
5
  6
CONTINUOUS
 10
379.6071
 20
1221.973
 30
0.0
 40
275.0
 50
115.9179
 51
131.6479
  0
ARC
  5
1B5
  8
5
  6
CONTINUOUS
 10
379.6071
 20
1221.973
 30
0.0
 40
275.0
 50
138.9399
 51
221.0601
  0
ARC
  5
1B6
  8
5
  6
CONTINUOUS
 10
379.6071
 20
1221.973
 30
0.0
 40
275.0
 50
228.3521
 51
311.6479
  0
ARC
  5
1B7
  8
5
  6
CONTINUOUS
 10
379.6071
 20
1221.973
 30
0.0
 40
275.0
 50
318.9399
 51
41.0601
  0
ARC
  5
1B8
  8
5
  6
CONTINUOUS
 10
379.6071
 20
1221.973
 30
0.0
 40
275.0
 50
48.35208
 51
64.08214
  0
LINE
  5
1B9
  8
5
  6
CONTINUOUS
 10
283.2071
 20
981.9733
 30
0.0
 11
264.9071
 21
981.9733
 31
0.0
  0
LINE
  5
1BA
  8
5
  6
CONTINUOUS
 10
476.0071
 20
981.9733
 30
0.0
 11
459.0071
 21
981.9733
 31
0.0
  0
LINE
  5
1BB
  8
5
  6
CONTINUOUS
 10
444.0071
 20
981.9733
 30
0.0
 11
429.0071
 21
981.9733
 31
0.0
  0
LINE
  5
1BC
  8
5
  6
CONTINUOUS
 10
414.1071
 20
981.9733
 30
0.0
 11
396.9071
 21
981.9733
 31
0.0
  0
LINE
  5
1BD
  8
5
  6
CONTINUOUS
 10
315.2071
 20
981.9733
 30
0.0
 11
300.2071
 21
981.9733
 31
0.0
  0
LINE
  5
1BE
  8
5
  6
CONTINUOUS
 10
345.1071
 20
981.9733
 30
0.0
 11
330.2071
 21
981.9733
 31
0.0
  0
LINE
  5
1BF
  8
5
  6
CONTINUOUS
 10
379.6071
 20
981.9733
 30
0.0
 11
362.3071
 21
981.9733
 31
0.0
  0
LINE
  5
1C0
  8
5
  6
CONTINUOUS
 10
300.2071
 20
981.9733
 30
0.0
 11
283.2071
 21
981.9733
 31
0.0
  0
LINE
  5
1C1
  8
5
  6
CONTINUOUS
 10
494.3071
 20
981.9733
 30
0.0
 11
476.0071
 21
981.9733
 31
0.0
  0
LINE
  5
1C2
  8
5
  6
CONTINUOUS
 10
459.0071
 20
981.9733
 30
0.0
 11
444.0071
 21
981.9733
 31
0.0
  0
LINE
  5
1C3
  8
5
  6
CONTINUOUS
 10
429.0071
 20
981.9733
 30
0.0
 11
414.1071
 21
981.9733
 31
0.0
  0
LINE
  5
1C4
  8
5
  6
CONTINUOUS
 10
396.9071
 20
981.9733
 30
0.0
 11
379.6071
 21
981.9733
 31
0.0
  0
LINE
  5
1C5
  8
5
  6
CONTINUOUS
 10
330.2071
 20
981.9733
 30
0.0
 11
315.2071
 21
981.9733
 31
0.0
  0
LINE
  5
1C6
  8
5
  6
CONTINUOUS
 10
362.3071
 20
981.9733
 30
0.0
 11
345.1071
 21
981.9733
 31
0.0
  0
LINE
  5
1C7
  8
5
  6
CONTINUOUS
 10
1253.096
 20
482.4067
 30
0.0
 11
1253.096
 21
499.4066
 31
0.0
  0
LINE
  5
1C8
  8
5
  6
CONTINUOUS
 10
1253.096
 20
517.7066
 30
0.0
 11
1253.096
 21
535.2067
 31
0.0
  0
LINE
  5
1C9
  8
5
  6
CONTINUOUS
 10
1253.096
 20
552.6066
 30
0.0
 11
1253.096
 21
552.7067
 31
0.0
  0
LINE
  5
1CA
  8
5
  6
CONTINUOUS
 10
1253.096
 20
253.5067
 30
0.0
 11
1253.096
 21
267.1241
 31
0.0
  0
LINE
  5
1CB
  8
5
  6
CONTINUOUS
 10
1253.096
 20
267.1241
 30
0.0
 11
1253.096
 21
270.8067
 31
0.0
  0
LINE
  5
1CC
  8
5
  6
CONTINUOUS
 10
960.0958
 20
206.6067
 30
0.0
 11
1239.096
 21
206.6067
 31
0.0
  0
LINE
  5
1CD
  8
5
  6
CONTINUOUS
 10
956.5793
 20
206.6067
 30
0.0
 11
960.0958
 21
206.6067
 31
0.0
  0
LINE
  5
1CE
  8
5
  6
CONTINUOUS
 10
1242.612
 20
206.6067
 30
0.0
 11
1239.096
 21
206.6067
 31
0.0
  0
LINE
  5
1CF
  8
5
  6
CONTINUOUS
 10
1061.589
 20
422.0099
 30
0.0
 11
1055.489
 21
404.2256
 31
0.0
  0
LINE
  5
1D0
  8
5
  6
CONTINUOUS
 10
558.7058
 20
1019.234
 30
0.0
 11
558.7058
 21
1019.234
 31
0.0
  0
LINE
  5
1D1
  8
5
  6
CONTINUOUS
 10
600.578
 20
1018.68
 30
0.0
 11
582.9003
 21
1001.002
 31
0.0
  0
LINE
  5
1D2
  8
5
  6
CONTINUOUS
 10
582.9003
 20
1001.002
 30
0.0
 11
570.028
 21
1010.702
 31
0.0
  0
LINE
  5
1D3
  8
5
  6
CONTINUOUS
 10
544.9955
 20
1029.566
 30
0.0
 11
570.028
 21
1010.702
 31
0.0
  0
LINE
  5
1D4
  8
5
  6
CONTINUOUS
 10
380.7302
 20
1694.973
 30
0.0
 11
380.7302
 21
1694.973
 31
0.0
  0
LINE
  5
1D5
  8
5
  6
CONTINUOUS
 10
380.7302
 20
1697.973
 30
0.0
 11
380.7302
 21
1697.973
 31
0.0
  0
LINE
  5
1D6
  8
5
  6
CONTINUOUS
 10
167.1084
 20
1032.78
 30
0.0
 11
189.1862
 21
1010.702
 31
0.0
  0
LINE
  5
1D7
  8
5
  6
CONTINUOUS
 10
362.3071
 20
986.4732
 30
0.0
 11
362.3071
 21
981.9733
 31
0.0
  0
LINE
  5
1D8
  8
5
  6
CONTINUOUS
 10
379.6071
 20
981.9733
 30
0.0
 11
379.6071
 21
986.4732
 31
0.0
  0
LINE
  5
1D9
  8
5
  6
CONTINUOUS
 10
330.2071
 20
986.4732
 30
0.0
 11
330.2071
 21
981.9733
 31
0.0
  0
LINE
  5
1DA
  8
5
  6
CONTINUOUS
 10
1055.489
 20
404.2256
 30
0.0
 11
1065.728
 21
404.2263
 31
0.0
  0
LINE
  5
1DB
  8
5
  6
CONTINUOUS
 10
345.1071
 20
981.9733
 30
0.0
 11
345.1072
 21
986.4732
 31
0.0
  0
LINE
  5
1DC
  8
5
  6
CONTINUOUS
 10
300.2071
 20
986.4732
 30
0.0
 11
300.2071
 21
981.9733
 31
0.0
  0
LINE
  5
1DD
  8
5
  6
CONTINUOUS
 10
315.2071
 20
981.9733
 30
0.0
 11
315.2072
 21
986.4732
 31
0.0
  0
LINE
  5
1DE
  8
5
  6
CONTINUOUS
 10
396.9071
 20
986.4732
 30
0.0
 11
396.9071
 21
981.9733
 31
0.0
  0
LINE
  5
1DF
  8
5
  6
CONTINUOUS
 10
414.1071
 20
981.9733
 30
0.0
 11
414.107
 21
986.4732
 31
0.0
  0
LINE
  5
1E0
  8
5
  6
CONTINUOUS
 10
429.007
 20
986.4732
 30
0.0
 11
429.0071
 21
981.9733
 31
0.0
  0
LINE
  5
1E1
  8
5
  6
CONTINUOUS
 10
444.0071
 20
981.9733
 30
0.0
 11
444.0072
 21
986.4732
 31
0.0
  0
LINE
  5
1E2
  8
5
  6
CONTINUOUS
 10
459.0071
 20
986.4732
 30
0.0
 11
459.0071
 21
981.9733
 31
0.0
  0
LINE
  5
1E3
  8
5
  6
CONTINUOUS
 10
476.0071
 20
981.9733
 30
0.0
 11
476.007
 21
986.4732
 31
0.0
  0
LINE
  5
1E4
  8
5
  6
CONTINUOUS
 10
264.907
 20
986.4732
 30
0.0
 11
264.907
 21
981.9733
 31
0.0
  0
LINE
  5
1E5
  8
5
  6
CONTINUOUS
 10
1065.728
 20
404.2263
 30
0.0
 11
1065.727
 21
422.0099
 31
0.0
  0
LINE
  5
1E6
  8
5
  6
CONTINUOUS
 10
1065.727
 20
422.0099
 30
0.0
 11
1061.589
 21
422.0099
 31
0.0
  0
LINE
  5
1E7
  8
5
  6
CONTINUOUS
 10
1065.729
 20
391.7912
 30
0.0
 11
1065.728
 21
402.7261
 31
0.0
  0
LINE
  5
1E8
  8
5
  6
CONTINUOUS
 10
1065.728
 20
402.7261
 30
0.0
 11
1054.975
 21
402.7257
 31
0.0
  0
LINE
  5
1E9
  8
5
  6
CONTINUOUS
 10
1054.975
 20
402.7257
 30
0.0
 11
1048.588
 21
384.1067
 31
0.0
  0
LINE
  5
1EA
  8
5
  6
CONTINUOUS
 10
1048.588
 20
384.1067
 30
0.0
 11
1054.918
 21
384.1069
 31
0.0
  0
LINE
  5
1EB
  8
5
  6
CONTINUOUS
 10
1054.918
 20
384.1069
 30
0.0
 11
1057.554
 21
391.7909
 31
0.0
  0
LINE
  5
1EC
  8
5
  6
CONTINUOUS
 10
1057.554
 20
391.7909
 30
0.0
 11
1065.729
 21
391.7912
 31
0.0
  0
LINE
  5
1ED
  8
5
  6
CONTINUOUS
 10
1067.228
 20
404.2263
 30
0.0
 11
1077.714
 21
404.2267
 31
0.0
  0
LINE
  5
1EE
  8
5
  6
CONTINUOUS
 10
1077.714
 20
404.2267
 30
0.0
 11
1071.365
 21
422.0102
 31
0.0
  0
LINE
  5
1EF
  8
5
  6
CONTINUOUS
 10
283.2071
 20
981.9733
 30
0.0
 11
283.2071
 21
986.4732
 31
0.0
  0
LINE
  5
1F0
  8
5
  6
CONTINUOUS
 10
1071.365
 20
422.0102
 30
0.0
 11
1067.227
 21
422.0101
 31
0.0
  0
LINE
  5
1F1
  8
5
  6
CONTINUOUS
 10
494.3071
 20
986.4732
 30
0.0
 11
494.3071
 21
981.9733
 31
0.0
  0
LINE
  5
1F2
  8
5
  6
CONTINUOUS
 10
570.028
 20
1010.702
 30
0.0
 11
592.1058
 21
1032.78
 31
0.0
  0
LINE
  5
1F3
  8
5
  6
CONTINUOUS
 10
128.6071
 20
1112.473
 30
0.0
 11
139.6071
 21
1112.473
 31
0.0
  0
LINE
  5
1F4
  8
5
  6
CONTINUOUS
 10
139.6071
 20
1115.473
 30
0.0
 11
128.6071
 21
1115.473
 31
0.0
  0
LINE
  5
1F5
  8
5
  6
CONTINUOUS
 10
1067.227
 20
422.0101
 30
0.0
 11
1067.228
 21
404.2263
 31
0.0
  0
LINE
  5
1F6
  8
5
  6
CONTINUOUS
 10
954.0958
 20
622.1067
 30
0.0
 11
954.0958
 21
548.6068
 31
0.0
  0
LINE
  5
1F7
  8
5
  6
CONTINUOUS
 10
954.0958
 20
257.6067
 30
0.0
 11
954.0958
 21
184.1067
 31
0.0
  0
LINE
  5
1F8
  8
5
  6
CONTINUOUS
 10
896.5958
 20
403.1067
 30
0.0
 11
896.5958
 21
128.1067
 31
0.0
  0
LINE
  5
1F9
  8
5
  6
CONTINUOUS
 10
1078.249
 20
402.7268
 30
0.0
 11
1067.228
 21
402.7263
 31
0.0
  0
LINE
  5
1FA
  8
5
  6
CONTINUOUS
 10
1067.228
 20
402.7263
 30
0.0
 11
1067.229
 21
391.7912
 31
0.0
  0
LINE
  5
1FB
  8
5
  6
CONTINUOUS
 10
1067.229
 20
391.7912
 30
0.0
 11
1075.367
 21
391.7917
 31
0.0
  0
LINE
  5
1FC
  8
5
  6
CONTINUOUS
 10
1075.367
 20
391.7917
 30
0.0
 11
1078.11
 21
384.108
 31
0.0
  0
LINE
  5
1FD
  8
5
  6
CONTINUOUS
 10
1078.11
 20
384.108
 30
0.0
 11
1084.896
 21
384.1083
 31
0.0
  0
LINE
  5
1FE
  8
5
  6
CONTINUOUS
 10
1084.896
 20
384.1083
 30
0.0
 11
1078.249
 21
402.7268
 31
0.0
  0
LINE
  5
1FF
  8
5
  6
CONTINUOUS
 10
1102.084
 20
422.0116
 30
0.0
 11
1092.242
 21
422.0112
 31
0.0
  0
LINE
  5
200
  8
5
  6
CONTINUOUS
 10
1092.242
 20
422.0112
 30
0.0
 11
1092.243
 21
404.2274
 31
0.0
  0
LINE
  5
201
  8
5
  6
CONTINUOUS
 10
1092.243
 20
404.2274
 30
0.0
 11
1102.085
 21
404.2278
 31
0.0
  0
LINE
  5
202
  8
5
  6
CONTINUOUS
 10
896.5958
 20
678.1067
 30
0.0
 11
896.5958
 21
403.1067
 31
0.0
  0
LINE
  5
203
  8
5
  6
CONTINUOUS
 10
878.5958
 20
403.1067
 30
0.0
 11
878.5958
 21
128.1067
 31
0.0
  0
LINE
  5
204
  8
5
  6
CONTINUOUS
 10
878.5958
 20
678.1067
 30
0.0
 11
878.5958
 21
403.1067
 31
0.0
  0
LINE
  5
205
  8
5
  6
CONTINUOUS
 10
902.5958
 20
152.1067
 30
0.0
 11
904.0958
 21
152.1067
 31
0.0
  0
LINE
  5
206
  8
5
  6
CONTINUOUS
 10
901.0958
 20
152.1067
 30
0.0
 11
902.5958
 21
152.1067
 31
0.0
  0
LINE
  5
207
  8
5
  6
CONTINUOUS
 10
873.5958
 20
403.1067
 30
0.0
 11
873.5958
 21
178.1067
 31
0.0
  0
LINE
  5
208
  8
5
  6
CONTINUOUS
 10
873.5958
 20
628.1067
 30
0.0
 11
873.5958
 21
403.1067
 31
0.0
  0
LINE
  5
209
  8
5
  6
CONTINUOUS
 10
738.5958
 20
370.6067
 30
0.0
 11
738.5958
 21
435.6067
 31
0.0
  0
ARC
  5
20A
  8
5
  6
CONTINUOUS
 10
859.5958
 20
403.1067
 30
0.0
 40
9.0
 50
270.0
 51
90.0
  0
LINE
  5
20B
  8
5
  6
CONTINUOUS
 10
859.5959
 20
394.1066
 30
0.0
 11
757.5957
 21
394.1066
 31
0.0
  0
ARC
  5
20C
  8
5
  6
CONTINUOUS
 10
757.5958
 20
403.1067
 30
0.0
 40
9.0
 50
90.0
 51
270.0
  0
LINE
  5
20D
  8
5
  6
CONTINUOUS
 10
544.9955
 20
1414.381
 30
0.0
 11
570.028
 21
1433.244
 31
0.0
  0
LINE
  5
20E
  8
5
  6
CONTINUOUS
 10
570.028
 20
1433.244
 30
0.0
 11
582.9003
 21
1442.944
 31
0.0
  0
LINE
  5
20F
  8
5
  6
CONTINUOUS
 10
600.578
 20
1425.266
 30
0.0
 11
592.1058
 21
1411.166
 31
0.0
  0
LINE
  5
210
  8
5
  6
CONTINUOUS
 10
592.1058
 20
1411.166
 30
0.0
 11
575.6301
 21
1383.746
 31
0.0
  0
LINE
  5
211
  8
5
  6
CONTINUOUS
 10
582.9003
 20
1442.944
 30
0.0
 11
600.578
 21
1425.266
 31
0.0
  0
LINE
  5
212
  8
5
  6
CONTINUOUS
 10
498.9462
 20
1457.473
 30
0.0
 11
494.4071
 21
1461.973
 31
0.0
  0
LINE
  5
213
  8
5
  6
CONTINUOUS
 10
264.7071
 20
1461.874
 30
0.0
 11
260.2679
 21
1457.473
 31
0.0
  0
LINE
  5
214
  8
5
  6
CONTINUOUS
 10
264.8071
 20
1461.973
 30
0.0
 11
264.7071
 21
1461.874
 31
0.0
  0
LINE
  5
215
  8
5
  6
CONTINUOUS
 10
475.9071
 20
1461.973
 30
0.0
 11
494.2071
 21
1461.973
 31
0.0
  0
LINE
  5
216
  8
5
  6
CONTINUOUS
 10
443.9071
 20
1461.973
 30
0.0
 11
458.9071
 21
1461.973
 31
0.0
  0
LINE
  5
217
  8
5
  6
CONTINUOUS
 10
414.0071
 20
1461.973
 30
0.0
 11
428.9071
 21
1461.973
 31
0.0
  0
LINE
  5
218
  8
5
  6
CONTINUOUS
 10
379.5071
 20
1461.973
 30
0.0
 11
396.8071
 21
1461.973
 31
0.0
  0
LINE
  5
219
  8
5
  6
CONTINUOUS
 10
345.0071
 20
1461.973
 30
0.0
 11
362.2071
 21
1461.973
 31
0.0
  0
LINE
  5
21A
  8
5
  6
CONTINUOUS
 10
315.1071
 20
1461.973
 30
0.0
 11
330.1071
 21
1461.973
 31
0.0
  0
LINE
  5
21B
  8
5
  6
CONTINUOUS
 10
283.1071
 20
1461.973
 30
0.0
 11
300.1071
 21
1461.973
 31
0.0
  0
LINE
  5
21C
  8
5
  6
CONTINUOUS
 10
494.2071
 20
1461.973
 30
0.0
 11
494.4071
 21
1461.973
 31
0.0
  0
LINE
  5
21D
  8
5
  6
CONTINUOUS
 10
458.9071
 20
1461.973
 30
0.0
 11
475.9071
 21
1461.973
 31
0.0
  0
LINE
  5
21E
  8
5
  6
CONTINUOUS
 10
428.9071
 20
1461.973
 30
0.0
 11
443.9071
 21
1461.973
 31
0.0
  0
LINE
  5
21F
  8
5
  6
CONTINUOUS
 10
396.8071
 20
1461.973
 30
0.0
 11
414.0071
 21
1461.973
 31
0.0
  0
LINE
  5
220
  8
5
  6
CONTINUOUS
 10
362.2071
 20
1461.973
 30
0.0
 11
379.5071
 21
1461.973
 31
0.0
  0
LINE
  5
221
  8
5
  6
CONTINUOUS
 10
330.1071
 20
1461.973
 30
0.0
 11
345.0071
 21
1461.973
 31
0.0
  0
LINE
  5
222
  8
5
  6
CONTINUOUS
 10
300.1071
 20
1461.973
 30
0.0
 11
315.1071
 21
1461.973
 31
0.0
  0
LINE
  5
223
  8
5
  6
CONTINUOUS
 10
264.8071
 20
1461.973
 30
0.0
 11
283.1071
 21
1461.973
 31
0.0
  0
LINE
  5
224
  8
5
  6
CONTINUOUS
 10
615.1071
 20
1102.721
 30
0.0
 11
619.6071
 21
1107.273
 31
0.0
  0
LINE
  5
225
  8
5
  6
CONTINUOUS
 10
619.6071
 20
1336.673
 30
0.0
 11
615.1071
 21
1341.225
 31
0.0
  0
LINE
  5
226
  8
5
  6
CONTINUOUS
 10
139.6071
 20
1106.873
 30
0.0
 11
144.1071
 21
1102.425
 31
0.0
  0
LINE
  5
227
  8
5
  6
CONTINUOUS
 10
144.1071
 20
1341.225
 30
0.0
 11
139.6071
 21
1336.673
 31
0.0
  0
LINE
  5
228
  8
5
  6
CONTINUOUS
 10
619.6071
 20
1221.973
 30
0.0
 11
619.6071
 21
1204.673
 31
0.0
  0
LINE
  5
229
  8
5
  6
CONTINUOUS
 10
757.5957
 20
412.1066
 30
0.0
 11
859.5958
 21
412.1067
 31
0.0
  0
LINE
  5
22A
  8
5
  6
CONTINUOUS
 10
954.0958
 20
621.6179
 30
0.0
 11
896.5959
 21
619.6099
 31
0.0
  0
LINE
  5
22B
  8
5
  6
CONTINUOUS
 10
896.5959
 20
186.6035
 30
0.0
 11
954.0958
 21
184.5956
 31
0.0
  0
LINE
  5
22C
  8
5
  6
CONTINUOUS
 10
901.0958
 20
186.4464
 30
0.0
 11
901.0958
 21
152.1067
 31
0.0
  0
LINE
  5
22D
  8
5
  6
CONTINUOUS
 10
904.0957
 20
152.1067
 30
0.0
 11
904.0958
 21
186.3416
 31
0.0
  0
LINE
  5
22E
  8
5
  6
CONTINUOUS
 10
619.6071
 20
1256.473
 30
0.0
 11
619.6071
 21
1239.273
 31
0.0
  0
LINE
  5
22F
  8
5
  6
CONTINUOUS
 10
873.5958
 20
178.1067
 30
0.0
 11
878.5958
 21
178.1067
 31
0.0
  0
LINE
  5
230
  8
5
  6
CONTINUOUS
 10
878.5958
 20
628.1066
 30
0.0
 11
873.5958
 21
628.1067
 31
0.0
  0
LINE
  5
231
  8
5
  6
CONTINUOUS
 10
619.6071
 20
1286.373
 30
0.0
 11
619.6071
 21
1271.473
 31
0.0
  0
LINE
  5
232
  8
5
  6
CONTINUOUS
 10
878.5958
 20
128.1066
 30
0.0
 11
896.5959
 21
128.1066
 31
0.0
  0
LINE
  5
233
  8
5
  6
CONTINUOUS
 10
619.6071
 20
1318.373
 30
0.0
 11
619.6071
 21
1301.373
 31
0.0
  0
LINE
  5
234
  8
5
  6
CONTINUOUS
 10
619.6071
 20
1187.473
 30
0.0
 11
619.6071
 21
1172.573
 31
0.0
  0
LINE
  5
235
  8
5
  6
CONTINUOUS
 10
896.5958
 20
678.1067
 30
0.0
 11
878.5958
 21
678.1067
 31
0.0
  0
LINE
  5
236
  8
5
  6
CONTINUOUS
 10
619.6071
 20
1157.573
 30
0.0
 11
619.6071
 21
1142.573
 31
0.0
  0
LINE
  5
237
  8
5
  6
CONTINUOUS
 10
619.6071
 20
1125.573
 30
0.0
 11
619.6071
 21
1107.273
 31
0.0
  0
LINE
  5
238
  8
5
  6
CONTINUOUS
 10
619.6071
 20
1204.673
 30
0.0
 11
619.6071
 21
1187.473
 31
0.0
  0
LINE
  5
239
  8
5
  6
CONTINUOUS
 10
619.6071
 20
1239.273
 30
0.0
 11
619.6071
 21
1221.973
 31
0.0
  0
LINE
  5
23A
  8
5
  6
CONTINUOUS
 10
619.6071
 20
1271.473
 30
0.0
 11
619.6071
 21
1256.473
 31
0.0
  0
LINE
  5
23B
  8
5
  6
CONTINUOUS
 10
619.6071
 20
1301.373
 30
0.0
 11
619.6071
 21
1286.373
 31
0.0
  0
LINE
  5
23C
  8
5
  6
CONTINUOUS
 10
619.6071
 20
1336.673
 30
0.0
 11
619.6071
 21
1318.373
 31
0.0
  0
LINE
  5
23D
  8
5
  6
CONTINUOUS
 10
619.6071
 20
1172.573
 30
0.0
 11
619.6071
 21
1157.573
 31
0.0
  0
LINE
  5
23E
  8
5
  6
CONTINUOUS
 10
619.6071
 20
1142.573
 30
0.0
 11
619.6071
 21
1125.573
 31
0.0
  0
LINE
  5
23F
  8
5
  6
CONTINUOUS
 10
139.6071
 20
1107.273
 30
0.0
 11
139.6071
 21
1125.573
 31
0.0
  0
LINE
  5
240
  8
5
  6
CONTINUOUS
 10
139.6071
 20
1142.573
 30
0.0
 11
139.6071
 21
1157.573
 31
0.0
  0
LINE
  5
241
  8
5
  6
CONTINUOUS
 10
139.6071
 20
1172.573
 30
0.0
 11
139.6071
 21
1187.473
 31
0.0
  0
LINE
  5
242
  8
5
  6
CONTINUOUS
 10
139.6071
 20
1301.373
 30
0.0
 11
139.6071
 21
1318.373
 31
0.0
  0
LINE
  5
243
  8
5
  6
CONTINUOUS
 10
139.6071
 20
1271.473
 30
0.0
 11
139.6071
 21
1286.373
 31
0.0
  0
LINE
  5
244
  8
5
  6
CONTINUOUS
 10
139.6071
 20
1239.273
 30
0.0
 11
139.6071
 21
1256.473
 31
0.0
  0
LINE
  5
245
  8
5
  6
CONTINUOUS
 10
139.6071
 20
1204.673
 30
0.0
 11
139.6071
 21
1221.973
 31
0.0
  0
LINE
  5
246
  8
5
  6
CONTINUOUS
 10
139.6071
 20
1125.573
 30
0.0
 11
139.6071
 21
1142.573
 31
0.0
  0
LINE
  5
247
  8
5
  6
CONTINUOUS
 10
139.6071
 20
1106.873
 30
0.0
 11
139.6071
 21
1107.273
 31
0.0
  0
LINE
  5
248
  8
5
  6
CONTINUOUS
 10
738.5958
 20
370.6067
 30
0.0
 11
873.5958
 21
370.6067
 31
0.0
  0
LINE
  5
249
  8
5
  6
CONTINUOUS
 10
1411.596
 20
622.1067
 30
0.0
 11
1406.786
 21
622.1067
 31
0.0
  0
LINE
  5
24A
  8
5
  6
CONTINUOUS
 10
965.4056
 20
622.1067
 30
0.0
 11
954.0958
 21
622.1067
 31
0.0
  0
LINE
  5
24B
  8
5
  6
CONTINUOUS
 10
954.0958
 20
184.1067
 30
0.0
 11
965.4057
 21
184.1067
 31
0.0
  0
LINE
  5
24C
  8
5
  6
CONTINUOUS
 10
2305.761
 20
1032.78
 30
0.0
 11
2300.618
 21
1041.339
 31
0.0
  0
LINE
  5
24D
  8
5
  6
CONTINUOUS
 10
2305.761
 20
1032.78
 30
0.0
 11
2314.233
 21
1018.68
 31
0.0
  0
LINE
  5
24E
  8
5
  6
CONTINUOUS
 10
1872.291
 20
1018.68
 30
0.0
 11
1880.763
 21
1032.78
 31
0.0
  0
LINE
  5
24F
  8
5
  6
CONTINUOUS
 10
1880.763
 20
1032.78
 30
0.0
 11
1885.906
 21
1041.339
 31
0.0
  0
LINE
  5
250
  8
5
  6
CONTINUOUS
 10
2296.555
 20
1001.002
 30
0.0
 11
2283.683
 21
1010.702
 31
0.0
  0
LINE
  5
251
  8
5
  6
CONTINUOUS
 10
2276.014
 20
1016.482
 30
0.0
 11
2283.683
 21
1010.702
 31
0.0
  0
LINE
  5
252
  8
5
  6
CONTINUOUS
 10
2314.233
 20
1018.68
 30
0.0
 11
2296.555
 21
1001.002
 31
0.0
  0
CIRCLE
  5
253
  8
5
  6
CONTINUOUS
 10
2324.232
 20
1317.644
 30
0.0
 40
9.25
  0
CIRCLE
  5
254
  8
5
  6
CONTINUOUS
 10
2324.232
 20
1126.302
 30
0.0
 40
9.25
  0
CIRCLE
  5
255
  8
5
  6
CONTINUOUS
 10
2188.933
 20
991.0034
 30
0.0
 40
9.25
  0
CIRCLE
  5
256
  8
5
  6
CONTINUOUS
 10
1997.591
 20
991.0034
 30
0.0
 40
9.25
  0
CIRCLE
  5
257
  8
5
  6
CONTINUOUS
 10
1862.292
 20
1126.302
 30
0.0
 40
9.25
  0
CIRCLE
  5
258
  8
5
  6
CONTINUOUS
 10
1862.292
 20
1317.644
 30
0.0
 40
9.25
  0
CIRCLE
  5
259
  8
5
  6
CONTINUOUS
 10
1997.591
 20
1452.943
 30
0.0
 40
9.25
  0
CIRCLE
  5
25A
  8
5
  6
CONTINUOUS
 10
2188.933
 20
1452.943
 30
0.0
 40
9.25
  0
LINE
  5
25B
  8
5
  6
CONTINUOUS
 10
2124.262
 20
1115.473
 30
0.0
 11
2124.262
 21
1112.473
 31
0.0
  0
CIRCLE
  5
25C
  8
5
  6
CONTINUOUS
 10
2093.262
 20
1221.973
 30
0.0
 40
225.0
  0
LINE
  5
25D
  8
5
  6
CONTINUOUS
 10
1102.085
 20
404.2278
 30
0.0
 11
1102.084
 21
422.0116
 31
0.0
  0
LINE
  5
25E
  8
5
  6
CONTINUOUS
 10
1102.085
 20
402.7278
 30
0.0
 11
1092.243
 21
402.7274
 31
0.0
  0
LINE
  5
25F
  8
5
  6
CONTINUOUS
 10
1092.243
 20
402.7274
 30
0.0
 11
1092.244
 21
384.1086
 31
0.0
  0
LINE
  5
260
  8
5
  6
CONTINUOUS
 10
1092.244
 20
384.1086
 30
0.0
 11
1102.086
 21
384.1091
 31
0.0
  0
CIRCLE
  5
261
  8
5
  6
CONTINUOUS
 10
2093.262
 20
1221.973
 30
0.0
 40
275.0
  0
LINE
  5
262
  8
5
  6
CONTINUOUS
 10
2067.262
 20
1156.214
 30
0.0
 11
2067.262
 21
1128.473
 31
0.0
  0
LINE
  5
263
  8
5
  6
CONTINUOUS
 10
2119.262
 20
1156.214
 30
0.0
 11
2119.262
 21
1128.473
 31
0.0
  0
LINE
  5
264
  8
5
  6
CONTINUOUS
 10
2119.262
 20
1128.473
 30
0.0
 11
2067.262
 21
1128.473
 31
0.0
  0
LINE
  5
265
  8
5
  6
CONTINUOUS
 10
1918.672
 20
1128.473
 30
0.0
 11
2067.262
 21
1128.473
 31
0.0
  0
LINE
  5
266
  8
5
  6
CONTINUOUS
 10
139.6071
 20
1157.573
 30
0.0
 11
139.6071
 21
1172.573
 31
0.0
  0
LINE
  5
267
  8
5
  6
CONTINUOUS
 10
139.6071
 20
1187.473
 30
0.0
 11
139.6071
 21
1204.673
 31
0.0
  0
LINE
  5
268
  8
5
  6
CONTINUOUS
 10
139.6071
 20
1318.373
 30
0.0
 11
139.6071
 21
1336.673
 31
0.0
  0
LINE
  5
269
  8
5
  6
CONTINUOUS
 10
139.6071
 20
1286.373
 30
0.0
 11
139.6071
 21
1301.373
 31
0.0
  0
LINE
  5
26A
  8
5
  6
CONTINUOUS
 10
139.6071
 20
1256.473
 30
0.0
 11
139.6071
 21
1271.473
 31
0.0
  0
LINE
  5
26B
  8
5
  6
CONTINUOUS
 10
139.6071
 20
1221.973
 30
0.0
 11
139.6071
 21
1239.273
 31
0.0
  0
LINE
  5
26C
  8
5
  6
CONTINUOUS
 10
2119.262
 20
1128.473
 30
0.0
 11
2267.852
 21
1128.473
 31
0.0
  0
LINE
  5
26D
  8
5
  6
CONTINUOUS
 10
2074.262
 20
1106.473
 30
0.0
 11
2112.262
 21
1106.473
 31
0.0
  0
LINE
  5
26E
  8
5
  6
CONTINUOUS
 10
2112.262
 20
1106.473
 30
0.0
 11
2129.262
 21
1106.473
 31
0.0
  0
LINE
  5
26F
  8
5
  6
CONTINUOUS
 10
2129.262
 20
1106.473
 30
0.0
 11
2146.262
 21
1106.473
 31
0.0
  0
LINE
  5
270
  8
5
  6
CONTINUOUS
 10
2146.262
 20
1106.473
 30
0.0
 11
2163.262
 21
1106.473
 31
0.0
  0
LINE
  5
271
  8
5
  6
CONTINUOUS
 10
2163.262
 20
1106.473
 30
0.0
 11
2180.262
 21
1106.473
 31
0.0
  0
LINE
  5
272
  8
5
  6
CONTINUOUS
 10
2180.262
 20
1106.473
 30
0.0
 11
2254.146
 21
1106.473
 31
0.0
  0
LINE
  5
273
  8
5
  6
CONTINUOUS
 10
1932.378
 20
1106.473
 30
0.0
 11
2006.262
 21
1106.473
 31
0.0
  0
LINE
  5
274
  8
5
  6
CONTINUOUS
 10
2006.262
 20
1106.473
 30
0.0
 11
2023.262
 21
1106.473
 31
0.0
  0
LINE
  5
275
  8
5
  6
CONTINUOUS
 10
2023.262
 20
1106.473
 30
0.0
 11
2040.262
 21
1106.473
 31
0.0
  0
LINE
  5
276
  8
5
  6
CONTINUOUS
 10
2040.262
 20
1106.473
 30
0.0
 11
2057.262
 21
1106.473
 31
0.0
  0
LINE
  5
277
  8
5
  6
CONTINUOUS
 10
2057.262
 20
1106.473
 30
0.0
 11
2074.262
 21
1106.473
 31
0.0
  0
LINE
  5
278
  8
5
  6
CONTINUOUS
 10
2074.262
 20
1016.973
 30
0.0
 11
2074.262
 21
1024.836
 31
0.0
  0
LINE
  5
279
  8
5
  6
CONTINUOUS
 10
2074.262
 20
1024.836
 30
0.0
 11
2074.262
 21
1106.473
 31
0.0
  0
LINE
  5
27A
  8
5
  6
CONTINUOUS
 10
1102.086
 20
384.1091
 30
0.0
 11
1102.085
 21
402.7278
 31
0.0
  0
LINE
  5
27B
  8
5
  6
CONTINUOUS
 10
258.996
 20
1457.473
 30
0.0
 11
259.6071
 21
1474.973
 31
0.0
  0
LINE
  5
27C
  8
5
  6
CONTINUOUS
 10
2112.262
 20
1016.973
 30
0.0
 11
2093.262
 21
1016.974
 31
0.0
  0
LINE
  5
27D
  8
5
  6
CONTINUOUS
 10
499.6071
 20
1474.973
 30
0.0
 11
500.2182
 21
1457.473
 31
0.0
  0
LINE
  5
27E
  8
5
  6
CONTINUOUS
 10
2093.262
 20
1016.974
 30
0.0
 11
2074.262
 21
1016.973
 31
0.0
  0
LINE
  5
27F
  8
5
  6
CONTINUOUS
 10
2112.262
 20
1024.836
 30
0.0
 11
2112.262
 21
1016.973
 31
0.0
  0
LINE
  5
280
  8
5
  6
CONTINUOUS
 10
1113.997
 20
402.7283
 30
0.0
 11
1103.585
 21
402.7279
 31
0.0
  0
LINE
  5
281
  8
5
  6
CONTINUOUS
 10
1103.585
 20
402.7279
 30
0.0
 11
1103.586
 21
384.1091
 31
0.0
  0
LINE
  5
282
  8
5
  6
CONTINUOUS
 10
1103.586
 20
384.1091
 30
0.0
 11
1107.016
 21
384.1093
 31
0.0
  0
ARC
  5
283
  8
5
  6
CONTINUOUS
 10
1107.015
 20
394.7011
 30
0.0
 40
10.59176
 50
270.0024
 51
0.0026
  0
LINE
  5
284
  8
5
  6
CONTINUOUS
 10
2112.262
 20
1106.473
 30
0.0
 11
2112.262
 21
1024.836
 31
0.0
  0
LINE
  5
285
  8
5
  6
CONTINUOUS
 10
158.6362
 20
1425.266
 30
0.0
 11
176.3139
 21
1442.944
 31
0.0
  0
LINE
  5
286
  8
5
  6
CONTINUOUS
 10
2102.262
 20
1258.473
 30
0.0
 11
2084.262
 21
1258.473
 31
0.0
  0
CIRCLE
  5
287
  8
5
  6
CONTINUOUS
 10
2093.262
 20
1221.973
 30
0.0
 40
32.5
  0
ARC
  5
288
  8
5
  6
CONTINUOUS
 10
2093.262
 20
1221.973
 30
0.0
 40
37.49997
 50
0.000002
 51
103.2617
  0
ARC
  5
289
  8
5
  6
CONTINUOUS
 10
2093.262
 20
1221.973
 30
0.0
 40
37.50001
 50
103.8865
 51
0.0
  0
LINE
  5
28A
  8
5
  6
CONTINUOUS
 10
2102.262
 20
1258.473
 30
0.0
 11
2102.262
 21
1253.202
 31
0.0
  0
LINE
  5
28B
  8
5
  6
CONTINUOUS
 10
2084.262
 20
1258.473
 30
0.0
 11
2084.262
 21
1253.202
 31
0.0
  0
LINE
  5
290
  8
5
  6
CONTINUOUS
 10
1889.969
 20
1001.002
 30
0.0
 11
1872.291
 21
1018.68
 31
0.0
  0
LINE
  5
291
  8
5
  6
CONTINUOUS
 10
1910.51
 20
1016.482
 30
0.0
 11
1902.841
 21
1010.702
 31
0.0
  0
LINE
  5
292
  8
5
  6
CONTINUOUS
 10
1902.841
 20
1010.702
 30
0.0
 11
1889.969
 21
1001.002
 31
0.0
  0
LINE
  5
293
  8
5
  6
CONTINUOUS
 10
2093.643
 20
1694.973
 30
0.0
 11
2093.643
 21
1694.973
 31
0.0
  0
LINE
  5
294
  8
5
  6
CONTINUOUS
 10
2093.643
 20
1697.973
 30
0.0
 11
2093.643
 21
1697.973
 31
0.0
  0
ARC
  5
295
  8
5
  6
CONTINUOUS
 10
1105.597
 20
394.1254
 30
0.0
 40
12.0238
 50
2.746474
 51
45.68326
  0
LINE
  5
296
  8
5
  6
CONTINUOUS
 10
2074.359
 20
1697.973
 30
0.0
 11
2074.359
 21
1697.973
 31
0.0
  0
LINE
  5
297
  8
5
  6
CONTINUOUS
 10
2283.683
 20
1010.702
 30
0.0
 11
2305.761
 21
1032.78
 31
0.0
  0
LINE
  5
298
  8
5
  6
CONTINUOUS
 10
1880.763
 20
1032.78
 30
0.0
 11
1902.841
 21
1010.702
 31
0.0
  0
LINE
  5
299
  8
5
  6
CONTINUOUS
 10
2124.262
 20
1112.473
 30
0.0
 11
2255.648
 21
1112.473
 31
0.0
  0
LINE
  5
29A
  8
5
  6
CONTINUOUS
 10
2124.262
 20
1115.473
 30
0.0
 11
2257.631
 21
1115.473
 31
0.0
  0
ARC
  5
29B
  8
5
  6
CONTINUOUS
 10
2093.262
 20
1221.973
 30
0.0
 40
76.16056
 50
128.6254
 51
146.0802
  0
LINE
  5
29C
  8
5
  6
CONTINUOUS
 10
2045.721
 20
1281.473
 30
0.0
 11
1904.36
 21
1281.473
 31
0.0
  0
ARC
  5
29D
  8
5
  6
CONTINUOUS
 10
2093.262
 20
1221.973
 30
0.0
 40
198.0506
 50
162.5167
 51
167.6084
  0
LINE
  5
29E
  8
5
  6
CONTINUOUS
 10
1899.825
 20
1264.473
 30
0.0
 11
2030.062
 21
1264.473
 31
0.0
  0
ARC
  5
29F
  8
5
  6
CONTINUOUS
 10
2093.262
 20
1221.973
 30
0.0
 40
76.16056
 50
33.91978
 51
51.37464
  0
LINE
  5
2A0
  8
5
  6
CONTINUOUS
 10
2156.461
 20
1264.473
 30
0.0
 11
2286.699
 21
1264.473
 31
0.0
  0
ARC
  5
2A1
  8
5
  6
CONTINUOUS
 10
2093.262
 20
1221.973
 30
0.0
 40
198.0506
 50
12.39159
 51
17.48333
  0
LINE
  5
2A2
  8
5
  6
CONTINUOUS
 10
2282.163
 20
1281.473
 30
0.0
 11
2140.803
 21
1281.473
 31
0.0
  0
ARC
  5
2A3
  8
5
  6
CONTINUOUS
 10
2093.262
 20
1221.973
 30
0.0
 40
76.16056
 50
160.4385
 51
173.5921
  0
LINE
  5
2A4
  8
5
  6
CONTINUOUS
 10
2021.497
 20
1247.473
 30
0.0
 11
1896.86
 21
1247.473
 31
0.0
  0
ARC
  5
2A5
  8
5
  6
CONTINUOUS
 10
2093.262
 20
1221.973
 30
0.0
 40
198.0505
 50
172.6024
 51
177.5402
  0
LINE
  5
2A6
  8
5
  6
CONTINUOUS
 10
1895.394
 20
1230.473
 30
0.0
 11
2017.577
 21
1230.473
 31
0.0
  0
LINE
  5
2A7
  8
5
  6
CONTINUOUS
 10
1103.585
 20
404.2278
 30
0.0
 11
1112.117
 21
404.2283
 31
0.0
  0
ARC
  5
2A8
  8
5
  6
CONTINUOUS
 10
1105.597
 20
394.1254
 30
0.0
 40
12.0238
 50
57.16557
 51
82.7483
  0
ARC
  5
2A9
  8
5
  6
CONTINUOUS
 10
1104.85
 20
415.4467
 30
0.0
 40
9.662929
 50
283.5587
 51
354.7079
  0
ARC
  5
2AA
  8
5
  6
CONTINUOUS
 10
1107.015
 20
414.5551
 30
0.0
 40
7.45678
 50
0.002581
 51
90.00258
  0
LINE
  5
2AB
  8
5
  6
CONTINUOUS
 10
1107.014
 20
422.0118
 30
0.0
 11
1103.584
 21
422.0117
 31
0.0
  0
LINE
  5
2AC
  8
5
  6
CONTINUOUS
 10
1103.584
 20
422.0117
 30
0.0
 11
1103.585
 21
404.2278
 31
0.0
  0
LINE
  5
2AD
  8
5
  6
CONTINUOUS
 10
1124.847
 20
404.229
 30
0.0
 11
1134.689
 21
404.2294
 31
0.0
  0
LINE
  5
2AE
  8
5
  6
CONTINUOUS
 10
1134.689
 20
404.2294
 30
0.0
 11
1134.688
 21
422.013
 31
0.0
  0
LINE
  5
2AF
  8
5
  6
CONTINUOUS
 10
1134.688
 20
422.013
 30
0.0
 11
1124.846
 21
422.0127
 31
0.0
  0
LINE
  5
2B0
  8
5
  6
CONTINUOUS
 10
1124.846
 20
422.0127
 30
0.0
 11
1124.847
 21
404.229
 31
0.0
  0
LINE
  5
2B1
  8
5
  6
CONTINUOUS
 10
1136.189
 20
404.2294
 30
0.0
 11
1144.721
 21
404.2298
 31
0.0
  0
ARC
  5
2B2
  8
5
  6
CONTINUOUS
 10
1138.201
 20
394.1269
 30
0.0
 40
12.02387
 50
57.16567
 51
82.7483
  0
ARC
  5
2B3
  8
5
  6
CONTINUOUS
 10
1137.454
 20
415.4481
 30
0.0
 40
9.662929
 50
283.5587
 51
354.7079
  0
ARC
  5
2B4
  8
5
  6
CONTINUOUS
 10
1139.619
 20
414.5565
 30
0.0
 40
7.45678
 50
0.002581
 51
90.00258
  0
LINE
  5
2B5
  8
5
  6
CONTINUOUS
 10
1139.618
 20
422.0133
 30
0.0
 11
1136.188
 21
422.0132
 31
0.0
  0
LINE
  5
2B6
  8
5
  6
CONTINUOUS
 10
1136.188
 20
422.0132
 30
0.0
 11
1136.189
 21
404.2294
 31
0.0
  0
LINE
  5
2B7
  8
5
  6
CONTINUOUS
 10
1136.189
 20
402.7294
 30
0.0
 11
1136.19
 21
384.1106
 31
0.0
  0
LINE
  5
2B8
  8
5
  6
CONTINUOUS
 10
1136.19
 20
384.1106
 30
0.0
 11
1139.62
 21
384.1108
 31
0.0
  0
ARC
  5
2B9
  8
5
  6
CONTINUOUS
 10
1139.619
 20
394.7025
 30
0.0
 40
10.59169
 50
270.0025
 51
0.0026
  0
ARC
  5
2BA
  8
5
  6
CONTINUOUS
 10
1138.201
 20
394.1269
 30
0.0
 40
12.0238
 50
2.746474
 51
45.68383
  0
LINE
  5
2BB
  8
5
  6
CONTINUOUS
 10
1146.601
 20
402.7298
 30
0.0
 11
1136.189
 21
402.7294
 31
0.0
  0
LINE
  5
2BC
  8
5
  6
CONTINUOUS
 10
1124.847
 20
402.7288
 30
0.0
 11
1134.689
 21
402.7292
 31
0.0
  0
LINE
  5
2BD
  8
5
  6
CONTINUOUS
 10
1124.847
 20
402.7288
 30
0.0
 11
1124.848
 21
384.1102
 31
0.0
  0
LINE
  5
2BE
  8
5
  6
CONTINUOUS
 10
1124.848
 20
384.1102
 30
0.0
 11
1134.69
 21
384.1106
 31
0.0
  0
LINE
  5
2BF
  8
5
  6
CONTINUOUS
 10
1134.69
 20
384.1106
 30
0.0
 11
1134.689
 21
402.7292
 31
0.0
  0
LINE
  5
2C0
  8
5
  6
CONTINUOUS
 10
959.6342
 20
317.6067
 30
0.0
 11
959.0958
 21
317.6067
 31
0.0
  0
LINE
  5
2C1
  8
5
  6
CONTINUOUS
 10
1014.096
 20
263.1451
 30
0.0
 11
1014.096
 21
262.6067
 31
0.0
  0
LINE
  5
2C2
  8
5
  6
CONTINUOUS
 10
959.0958
 20
488.6067
 30
0.0
 11
959.6342
 21
488.6067
 31
0.0
  0
LINE
  5
2C3
  8
5
  6
CONTINUOUS
 10
1014.096
 20
543.6067
 30
0.0
 11
1014.096
 21
543.0682
 31
0.0
  0
LINE
  5
2C4
  8
5
  6
CONTINUOUS
 10
1240.096
 20
317.6067
 30
0.0
 11
1239.557
 21
317.6067
 31
0.0
  0
LINE
  5
2C5
  8
5
  6
CONTINUOUS
 10
1185.096
 20
263.1451
 30
0.0
 11
1185.096
 21
262.6067
 31
0.0
  0
LINE
  5
2C6
  8
5
  6
CONTINUOUS
 10
1185.096
 20
543.6067
 30
0.0
 11
1185.096
 21
543.0682
 31
0.0
  0
LINE
  5
2C7
  8
5
  6
CONTINUOUS
 10
1239.557
 20
488.6067
 30
0.0
 11
1240.096
 21
488.6067
 31
0.0
  0
LINE
  5
2C8
  8
5
  6
CONTINUOUS
 10
1014.096
 20
262.6067
 30
0.0
 11
959.0958
 21
262.6067
 31
0.0
  0
LINE
  5
2C9
  8
5
  6
CONTINUOUS
 10
1240.096
 20
262.6067
 30
0.0
 11
1185.096
 21
262.6067
 31
0.0
  0
LINE
  5
2CA
  8
5
  6
CONTINUOUS
 10
1185.096
 20
262.6067
 30
0.0
 11
1014.096
 21
262.6067
 31
0.0
  0
LINE
  5
2CB
  8
5
  6
CONTINUOUS
 10
959.0958
 20
488.6067
 30
0.0
 11
959.0958
 21
543.6067
 31
0.0
  0
LINE
  5
2CC
  8
5
  6
CONTINUOUS
 10
959.0958
 20
262.6067
 30
0.0
 11
959.0958
 21
317.6067
 31
0.0
  0
LINE
  5
2CD
  8
5
  6
CONTINUOUS
 10
959.0958
 20
317.6067
 30
0.0
 11
959.0958
 21
488.6067
 31
0.0
  0
LINE
  5
2CE
  8
5
  6
CONTINUOUS
 10
959.0958
 20
543.6067
 30
0.0
 11
1014.096
 21
543.6067
 31
0.0
  0
LINE
  5
2CF
  8
5
  6
CONTINUOUS
 10
1014.096
 20
543.6067
 30
0.0
 11
1185.096
 21
543.6067
 31
0.0
  0
LINE
  5
2D0
  8
5
  6
CONTINUOUS
 10
1185.096
 20
543.6067
 30
0.0
 11
1240.096
 21
543.6067
 31
0.0
  0
LINE
  5
2D1
  8
5
  6
CONTINUOUS
 10
1240.096
 20
317.6067
 30
0.0
 11
1240.096
 21
262.6067
 31
0.0
  0
LINE
  5
2D2
  8
5
  6
CONTINUOUS
 10
1240.096
 20
543.6067
 30
0.0
 11
1240.096
 21
488.6067
 31
0.0
  0
LINE
  5
2D3
  8
5
  6
CONTINUOUS
 10
1240.096
 20
488.6067
 30
0.0
 11
1240.096
 21
317.6067
 31
0.0
  0
LINE
  5
2D4
  8
5
  6
CONTINUOUS
 10
1257.861
 20
535.2066
 30
0.0
 11
1253.096
 21
539.0893
 31
0.0
  0
LINE
  5
2D5
  8
5
  6
CONTINUOUS
 10
1253.096
 20
267.1241
 30
0.0
 11
1257.616
 21
270.8067
 31
0.0
  0
LINE
  5
2D6
  8
5
  6
CONTINUOUS
 10
1253.096
 20
535.2067
 30
0.0
 11
1257.861
 21
535.2066
 31
0.0
  0
LINE
  5
2D7
  8
5
  6
CONTINUOUS
 10
1253.096
 20
270.8067
 30
0.0
 11
1257.616
 21
270.8067
 31
0.0
  0
LINE
  5
2D8
  8
5
  6
CONTINUOUS
 10
954.0958
 20
257.6067
 30
0.0
 11
954.0958
 21
548.6068
 31
0.0
  0
LINE
  5
2D9
  8
5
  6
CONTINUOUS
 10
954.0958
 20
548.6068
 30
0.0
 11
1245.096
 21
548.6068
 31
0.0
  0
LINE
  5
2DA
  8
5
  6
CONTINUOUS
 10
1245.096
 20
548.6068
 30
0.0
 11
1245.096
 21
257.6067
 31
0.0
  0
LINE
  5
2DB
  8
5
  6
CONTINUOUS
 10
1245.096
 20
257.6067
 30
0.0
 11
1242.612
 21
257.6067
 31
0.0
  0
LINE
  5
2DC
  8
5
  6
CONTINUOUS
 10
956.5793
 20
257.6067
 30
0.0
 11
954.0958
 21
257.6067
 31
0.0
  0
LINE
  5
2DD
  8
5
  6
CONTINUOUS
 10
960.0957
 20
262.4124
 30
0.0
 11
1239.096
 21
262.4124
 31
0.0
  0
LINE
  5
2DE
  8
5
  6
CONTINUOUS
 10
960.0957
 20
206.6067
 30
0.0
 11
960.0957
 21
262.4124
 31
0.0
  0
LINE
  5
2DF
  8
5
  6
CONTINUOUS
 10
1239.096
 20
206.6067
 30
0.0
 11
1239.096
 21
262.4124
 31
0.0
  0
LINE
  5
2E0
  8
5
  6
CONTINUOUS
 10
1242.612
 20
258.5002
 30
0.0
 11
1242.612
 21
206.6067
 31
0.0
  0
LINE
  5
2E1
  8
5
  6
CONTINUOUS
 10
956.5792
 20
258.5002
 30
0.0
 11
956.5792
 21
206.6067
 31
0.0
  0
LINE
  5
2E2
  8
5
  6
CONTINUOUS
 10
956.5792
 20
258.5002
 30
0.0
 11
960.0957
 21
262.4124
 31
0.0
  0
LINE
  5
2E3
  8
5
  6
CONTINUOUS
 10
1239.096
 20
262.4124
 30
0.0
 11
1242.612
 21
258.5002
 31
0.0
  0
LINE
  5
2E4
  8
5
  6
CONTINUOUS
 10
1011.588
 20
491.1066
 30
0.0
 11
1011.588
 21
315.1066
 31
0.0
  0
LINE
  5
2E5
  8
5
  6
CONTINUOUS
 10
1011.588
 20
315.1066
 30
0.0
 11
1187.604
 21
315.1066
 31
0.0
  0
LINE
  5
2E6
  8
5
  6
CONTINUOUS
 10
1187.604
 20
315.1066
 30
0.0
 11
1187.596
 21
491.1145
 31
0.0
  0
LINE
  5
2E7
  8
5
  6
CONTINUOUS
 10
1187.596
 20
491.1145
 30
0.0
 11
1011.588
 21
491.1066
 31
0.0
  0
LINE
  5
2E8
  8
5
  6
CONTINUOUS
 10
959.6342
 20
317.6067
 30
0.0
 11
959.6344
 21
315.1068
 31
0.0
  0
LINE
  5
2E9
  8
5
  6
CONTINUOUS
 10
959.6344
 20
315.1068
 30
0.0
 11
1011.588
 21
315.1066
 31
0.0
  0
LINE
  5
2EA
  8
5
  6
CONTINUOUS
 10
1011.588
 20
491.1066
 30
0.0
 11
959.6344
 21
491.1066
 31
0.0
  0
LINE
  5
2EB
  8
5
  6
CONTINUOUS
 10
959.6344
 20
491.1066
 30
0.0
 11
959.6342
 21
488.6067
 31
0.0
  0
LINE
  5
2EC
  8
5
  6
CONTINUOUS
 10
1014.096
 20
543.0682
 30
0.0
 11
1011.596
 21
543.068
 31
0.0
  0
LINE
  5
2ED
  8
5
  6
CONTINUOUS
 10
1011.596
 20
543.068
 30
0.0
 11
1011.588
 21
491.1066
 31
0.0
  0
LINE
  5
2EE
  8
5
  6
CONTINUOUS
 10
1187.596
 20
491.1145
 30
0.0
 11
1187.596
 21
543.0682
 31
0.0
  0
LINE
  5
2EF
  8
5
  6
CONTINUOUS
 10
1187.596
 20
543.0682
 30
0.0
 11
1185.096
 21
543.0682
 31
0.0
  0
LINE
  5
2F0
  8
5
  6
CONTINUOUS
 10
1011.596
 20
543.068
 30
0.0
 11
959.6344
 21
491.1066
 31
0.0
  0
LINE
  5
2F1
  8
5
  6
CONTINUOUS
 10
1239.557
 20
488.6067
 30
0.0
 11
1239.557
 21
491.1066
 31
0.0
  0
LINE
  5
2F2
  8
5
  6
CONTINUOUS
 10
1239.557
 20
491.1066
 30
0.0
 11
1187.596
 21
491.1145
 31
0.0
  0
LINE
  5
2F3
  8
5
  6
CONTINUOUS
 10
167.1084
 20
1411.166
 30
0.0
 11
183.5841
 21
1383.746
 31
0.0
  0
LINE
  5
2F4
  8
5
  6
CONTINUOUS
 10
167.1084
 20
1411.166
 30
0.0
 11
158.6362
 21
1425.266
 31
0.0
  0
LINE
  5
2F5
  8
5
  6
CONTINUOUS
 10
176.3139
 20
1442.944
 30
0.0
 11
189.1862
 21
1433.244
 31
0.0
  0
LINE
  5
2F6
  8
5
  6
CONTINUOUS
 10
1187.604
 20
315.1066
 30
0.0
 11
1239.557
 21
315.1068
 31
0.0
  0
LINE
  5
2F7
  8
5
  6
CONTINUOUS
 10
1239.557
 20
315.1068
 30
0.0
 11
1239.557
 21
317.6067
 31
0.0
  0
LINE
  5
2F8
  8
5
  6
CONTINUOUS
 10
1239.557
 20
491.1066
 30
0.0
 11
1187.596
 21
543.0682
 31
0.0
  0
LINE
  5
2F9
  8
5
  6
CONTINUOUS
 10
1185.096
 20
263.1451
 30
0.0
 11
1187.596
 21
263.1453
 31
0.0
  0
LINE
  5
2FA
  8
5
  6
CONTINUOUS
 10
1187.596
 20
263.1453
 30
0.0
 11
1187.604
 21
315.1066
 31
0.0
  0
LINE
  5
2FB
  8
5
  6
CONTINUOUS
 10
1011.588
 20
315.1066
 30
0.0
 11
1011.596
 21
263.1453
 31
0.0
  0
LINE
  5
2FC
  8
5
  6
CONTINUOUS
 10
1011.596
 20
263.1453
 30
0.0
 11
1014.096
 21
263.1451
 31
0.0
  0
LINE
  5
2FD
  8
5
  6
CONTINUOUS
 10
959.6344
 20
315.1068
 30
0.0
 11
1011.596
 21
263.1453
 31
0.0
  0
LINE
  5
2FE
  8
5
  6
CONTINUOUS
 10
1187.596
 20
263.1453
 30
0.0
 11
1239.557
 21
315.1068
 31
0.0
  0
LINE
  5
2FF
  8
5
  6
CONTINUOUS
 10
1245.096
 20
257.6067
 30
0.0
 11
1240.096
 21
262.6067
 31
0.0
  0
LINE
  5
300
  8
5
  6
CONTINUOUS
 10
959.0958
 20
262.6067
 30
0.0
 11
954.0958
 21
257.6067
 31
0.0
  0
LINE
  5
301
  8
5
  6
CONTINUOUS
 10
1240.096
 20
543.6067
 30
0.0
 11
1245.096
 21
548.6068
 31
0.0
  0
LINE
  5
302
  8
5
  6
CONTINUOUS
 10
954.0958
 20
548.6068
 30
0.0
 11
959.0958
 21
543.6067
 31
0.0
  0
LINE
  5
303
  8
5
  6
CONTINUOUS
 10
214.2186
 20
1414.381
 30
0.0
 11
189.1862
 21
1433.244
 31
0.0
  0
LINE
  5
304
  8
5
  6
CONTINUOUS
 10
2238.762
 20
1524.273
 30
0.0
 11
1947.762
 21
1524.273
 31
0.0
  0
LINE
  5
305
  8
5
  6
CONTINUOUS
 10
1948.262
 20
1524.273
 30
0.0
 11
1948.262
 21
1502.973
 31
0.0
  0
LINE
  5
306
  8
5
  6
CONTINUOUS
 10
2238.262
 20
1502.973
 30
0.0
 11
2238.262
 21
1524.273
 31
0.0
  0
LINE
  5
307
  8
5
  6
CONTINUOUS
 10
2289.762
 20
1647.973
 30
0.0
 11
2233.956
 21
1647.973
 31
0.0
  0
LINE
  5
308
  8
5
  6
CONTINUOUS
 10
2237.868
 20
1547.273
 30
0.0
 11
2289.762
 21
1547.273
 31
0.0
  0
LINE
  5
309
  8
5
  6
CONTINUOUS
 10
2289.762
 20
1547.273
 30
0.0
 11
2289.762
 21
1647.973
 31
0.0
  0
LINE
  5
30A
  8
5
  6
CONTINUOUS
 10
2005.262
 20
1694.973
 30
0.0
 11
2181.262
 21
1694.973
 31
0.0
  0
LINE
  5
30B
  8
5
  6
CONTINUOUS
 10
2092.143
 20
1694.973
 30
0.0
 11
2092.143
 21
1697.973
 31
0.0
  0
LINE
  5
30C
  8
5
  6
CONTINUOUS
 10
2074.359
 20
1697.973
 30
0.0
 11
2074.359
 21
1694.973
 31
0.0
  0
LINE
  5
30D
  8
5
  6
CONTINUOUS
 10
2093.643
 20
1694.973
 30
0.0
 11
2093.643
 21
1697.973
 31
0.0
  0
LINE
  5
30E
  8
5
  6
CONTINUOUS
 10
2112.262
 20
1694.973
 30
0.0
 11
2112.262
 21
1697.973
 31
0.0
  0
LINE
  5
30F
  8
5
  6
CONTINUOUS
 10
2074.359
 20
1697.973
 30
0.0
 11
2092.143
 21
1697.973
 31
0.0
  0
LINE
  5
310
  8
5
  6
CONTINUOUS
 10
2093.643
 20
1697.973
 30
0.0
 11
2112.262
 21
1697.973
 31
0.0
  0
CIRCLE
  5
311
  8
5
  6
CONTINUOUS
 10
379.6071
 20
1221.973
 30
0.0
 40
140.0
  0
LINE
  5
312
  8
5
  6
CONTINUOUS
 10
144.1071
 20
1099.677
 30
0.0
 11
257.3111
 21
986.4733
 31
0.0
  0
LINE
  5
313
  8
5
  6
CONTINUOUS
 10
257.3111
 20
986.4733
 30
0.0
 11
501.9031
 21
986.4733
 31
0.0
  0
LINE
  5
314
  8
5
  6
CONTINUOUS
 10
501.9031
 20
986.4733
 30
0.0
 11
615.1071
 21
1099.677
 31
0.0
  0
LINE
  5
315
  8
5
  6
CONTINUOUS
 10
615.1071
 20
1099.677
 30
0.0
 11
615.1071
 21
1344.269
 31
0.0
  0
LINE
  5
316
  8
5
  6
CONTINUOUS
 10
615.1071
 20
1344.269
 30
0.0
 11
501.9031
 21
1457.473
 31
0.0
  0
LINE
  5
317
  8
5
  6
CONTINUOUS
 10
501.9031
 20
1457.473
 30
0.0
 11
257.3111
 21
1457.473
 31
0.0
  0
LINE
  5
318
  8
5
  6
CONTINUOUS
 10
257.3111
 20
1457.473
 30
0.0
 11
144.1071
 21
1344.269
 31
0.0
  0
LINE
  5
319
  8
5
  6
CONTINUOUS
 10
144.1071
 20
1099.677
 30
0.0
 11
144.1071
 21
1344.269
 31
0.0
  0
LINE
  5
31A
  8
5
  6
CONTINUOUS
 10
258.5538
 20
1454.473
 30
0.0
 11
147.1071
 21
1343.027
 31
0.0
  0
LINE
  5
31B
  8
5
  6
CONTINUOUS
 10
500.6605
 20
1454.473
 30
0.0
 11
258.5538
 21
1454.473
 31
0.0
  0
LINE
  5
31C
  8
5
  6
CONTINUOUS
 10
612.1071
 20
1343.027
 30
0.0
 11
500.6605
 21
1454.473
 31
0.0
  0
LINE
  5
31D
  8
5
  6
CONTINUOUS
 10
612.1071
 20
1100.92
 30
0.0
 11
612.1071
 21
1343.027
 31
0.0
  0
LINE
  5
31E
  8
5
  6
CONTINUOUS
 10
500.6605
 20
989.4733
 30
0.0
 11
612.1071
 21
1100.92
 31
0.0
  0
LINE
  5
31F
  8
5
  6
CONTINUOUS
 10
258.5538
 20
989.4733
 30
0.0
 11
500.6605
 21
989.4733
 31
0.0
  0
LINE
  5
320
  8
5
  6
CONTINUOUS
 10
2074.359
 20
1697.973
 30
0.0
 11
2074.359
 21
1697.973
 31
0.0
  0
LINE
  5
321
  8
5
  6
CONTINUOUS
 10
147.1071
 20
1100.92
 30
0.0
 11
258.5538
 21
989.4733
 31
0.0
  0
LINE
  5
322
  8
5
  6
CONTINUOUS
 10
147.1071
 20
1100.92
 30
0.0
 11
147.1071
 21
1343.027
 31
0.0
  0
LINE
  5
323
  8
5
  6
CONTINUOUS
 10
2093.643
 20
1697.973
 30
0.0
 11
2093.643
 21
1697.973
 31
0.0
  0
LINE
  5
324
  8
5
  6
CONTINUOUS
 10
1953.301
 20
1664.973
 30
0.0
 11
2005.262
 21
1694.973
 31
0.0
  0
LINE
  5
325
  8
5
  6
CONTINUOUS
 10
592.1058
 20
1411.166
 30
0.0
 11
570.028
 21
1433.244
 31
0.0
  0
LINE
  5
326
  8
5
  6
CONTINUOUS
 10
264.7071
 20
1457.473
 30
0.0
 11
264.707
 21
1461.874
 31
0.0
  0
LINE
  5
327
  8
5
  6
CONTINUOUS
 10
2181.262
 20
1694.973
 30
0.0
 11
2233.223
 21
1664.973
 31
0.0
  0
LINE
  5
328
  8
5
  6
CONTINUOUS
 10
2178.762
 20
1664.973
 30
0.0
 11
2178.762
 21
1664.662
 31
0.0
  0
LINE
  5
329
  8
5
  6
CONTINUOUS
 10
494.2071
 20
1461.973
 30
0.0
 11
494.2071
 21
1457.473
 31
0.0
  0
LINE
  5
32A
  8
5
  6
CONTINUOUS
 10
300.1071
 20
1457.473
 30
0.0
 11
300.1072
 21
1461.973
 31
0.0
  0
LINE
  5
32B
  8
5
  6
CONTINUOUS
 10
2233.762
 20
1664.973
 30
0.0
 11
2178.762
 21
1664.973
 31
0.0
  0
LINE
  5
32C
  8
5
  6
CONTINUOUS
 10
2007.762
 20
1664.662
 30
0.0
 11
2007.762
 21
1664.973
 31
0.0
  0
LINE
  5
32D
  8
5
  6
CONTINUOUS
 10
283.107
 20
1461.973
 30
0.0
 11
283.1071
 21
1457.473
 31
0.0
  0
LINE
  5
32E
  8
5
  6
CONTINUOUS
 10
330.1071
 20
1457.473
 30
0.0
 11
330.107
 21
1461.973
 31
0.0
  0
LINE
  5
32F
  8
5
  6
CONTINUOUS
 10
2007.762
 20
1664.973
 30
0.0
 11
1952.762
 21
1664.973
 31
0.0
  0
LINE
  5
330
  8
5
  6
CONTINUOUS
 10
2233.762
 20
1652.973
 30
0.0
 11
2238.762
 21
1524.273
 31
0.0
  0
LINE
  5
331
  8
5
  6
CONTINUOUS
 10
315.1071
 20
1461.973
 30
0.0
 11
315.1071
 21
1457.473
 31
0.0
  0
LINE
  5
332
  8
5
  6
CONTINUOUS
 10
362.2071
 20
1457.473
 30
0.0
 11
362.207
 21
1461.973
 31
0.0
  0
LINE
  5
333
  8
5
  6
CONTINUOUS
 10
1947.762
 20
1524.273
 30
0.0
 11
1952.762
 21
1652.973
 31
0.0
  0
LINE
  5
334
  8
5
  6
CONTINUOUS
 10
2233.762
 20
1664.973
 30
0.0
 11
2233.762
 21
1652.973
 31
0.0
  0
LINE
  5
335
  8
5
  6
CONTINUOUS
 10
345.0071
 20
1461.973
 30
0.0
 11
345.0071
 21
1457.473
 31
0.0
  0
LINE
  5
336
  8
5
  6
CONTINUOUS
 10
396.8071
 20
1457.473
 30
0.0
 11
396.8071
 21
1461.973
 31
0.0
  0
LINE
  5
337
  8
5
  6
CONTINUOUS
 10
1952.762
 20
1664.973
 30
0.0
 11
1952.762
 21
1652.973
 31
0.0
  0
LINE
  5
338
  8
5
  6
CONTINUOUS
 10
379.507
 20
1461.973
 30
0.0
 11
379.5071
 21
1457.473
 31
0.0
  0
LINE
  5
339
  8
5
  6
CONTINUOUS
 10
2238.262
 20
1502.973
 30
0.0
 11
2210.262
 21
1474.973
 31
0.0
  0
LINE
  5
33A
  8
5
  6
CONTINUOUS
 10
1948.262
 20
1502.973
 30
0.0
 11
1976.262
 21
1474.973
 31
0.0
  0
LINE
  5
33B
  8
5
  6
CONTINUOUS
 10
1973.262
 20
1474.973
 30
0.0
 11
1976.262
 21
1474.973
 31
0.0
  0
LINE
  5
33C
  8
5
  6
CONTINUOUS
 10
1984.27
 20
1474.973
 30
0.0
 11
1985.825
 21
1474.973
 31
0.0
  0
LINE
  5
33D
  8
5
  6
CONTINUOUS
 10
428.9071
 20
1457.473
 30
0.0
 11
428.9071
 21
1461.973
 31
0.0
  0
LINE
  5
33E
  8
5
  6
CONTINUOUS
 10
2200.698
 20
1474.973
 30
0.0
 11
2202.253
 21
1474.973
 31
0.0
  0
LINE
  5
33F
  8
5
  6
CONTINUOUS
 10
2210.262
 20
1474.973
 30
0.0
 11
2213.262
 21
1474.973
 31
0.0
  0
LINE
  5
340
  8
5
  6
CONTINUOUS
 10
2210.262
 20
1474.973
 30
0.0
 11
2202.253
 21
1474.973
 31
0.0
  0
LINE
  5
341
  8
5
  6
CONTINUOUS
 10
1984.27
 20
1474.973
 30
0.0
 11
1976.262
 21
1474.973
 31
0.0
  0
LINE
  5
342
  8
5
  6
CONTINUOUS
 10
1948.262
 20
1502.973
 30
0.0
 11
2238.262
 21
1502.973
 31
0.0
  0
LINE
  5
343
  8
5
  6
CONTINUOUS
 10
2181.262
 20
1664.973
 30
0.0
 11
2181.262
 21
1694.973
 31
0.0
  0
LINE
  5
344
  8
5
  6
CONTINUOUS
 10
2005.262
 20
1694.973
 30
0.0
 11
2005.262
 21
1664.973
 31
0.0
  0
LINE
  5
345
  8
5
  6
CONTINUOUS
 10
2178.762
 20
1664.662
 30
0.0
 11
2007.762
 21
1664.662
 31
0.0
  0
LINE
  5
346
  8
5
  6
CONTINUOUS
 10
2233.762
 20
1652.973
 30
0.0
 11
1952.762
 21
1652.973
 31
0.0
  0
ARC
  5
347
  8
5
  6
CONTINUOUS
 10
2093.262
 20
1221.973
 30
0.0
 40
76.16056
 50
6.407922
 51
19.56153
  0
LINE
  5
348
  8
5
  6
CONTINUOUS
 10
2168.947
 20
1230.473
 30
0.0
 11
2291.13
 21
1230.473
 31
0.0
  0
ARC
  5
349
  8
5
  6
CONTINUOUS
 10
2093.262
 20
1221.973
 30
0.0
 40
198.0506
 50
2.459799
 51
7.397655
  0
LINE
  5
34A
  8
5
  6
CONTINUOUS
 10
2289.664
 20
1247.473
 30
0.0
 11
2165.027
 21
1247.473
 31
0.0
  0
ARC
  5
34B
  8
5
  6
CONTINUOUS
 10
2093.262
 20
1221.973
 30
0.0
 40
76.16056
 50
186.4079
 51
199.5615
  0
LINE
  5
34C
  8
5
  6
CONTINUOUS
 10
2017.577
 20
1213.473
 30
0.0
 11
1895.394
 21
1213.473
 31
0.0
  0
ARC
  5
34D
  8
5
  6
CONTINUOUS
 10
2093.262
 20
1221.973
 30
0.0
 40
198.0506
 50
182.4598
 51
187.3977
  0
LINE
  5
34E
  8
5
  6
CONTINUOUS
 10
1896.86
 20
1196.473
 30
0.0
 11
2021.497
 21
1196.473
 31
0.0
  0
ARC
  5
34F
  8
5
  6
CONTINUOUS
 10
2093.262
 20
1221.973
 30
0.0
 40
76.16056
 50
340.4385
 51
353.5921
  0
LINE
  5
350
  8
5
  6
CONTINUOUS
 10
414.0071
 20
1461.973
 30
0.0
 11
414.0071
 21
1457.473
 31
0.0
  0
LINE
  5
351
  8
5
  6
CONTINUOUS
 10
2165.027
 20
1196.473
 30
0.0
 11
2289.664
 21
1196.473
 31
0.0
  0
ARC
  5
352
  8
5
  6
CONTINUOUS
 10
2093.262
 20
1221.973
 30
0.0
 40
198.0505
 50
352.6023
 51
357.5402
  0
LINE
  5
353
  8
5
  6
CONTINUOUS
 10
2291.13
 20
1213.473
 30
0.0
 11
2168.947
 21
1213.473
 31
0.0
  0
LINE
  5
354
  8
5
  6
CONTINUOUS
 10
458.9071
 20
1457.473
 30
0.0
 11
458.9071
 21
1461.973
 31
0.0
  0
ARC
  5
355
  8
5
  6
CONTINUOUS
 10
2093.262
 20
1221.973
 30
0.0
 40
76.16056
 50
213.9198
 51
231.3746
  0
LINE
  5
356
  8
5
  6
CONTINUOUS
 10
2030.062
 20
1179.473
 30
0.0
 11
1899.825
 21
1179.473
 31
0.0
  0
ARC
  5
357
  8
5
  6
CONTINUOUS
 10
2093.262
 20
1221.973
 30
0.0
 40
198.0506
 50
192.3916
 51
197.4833
  0
LINE
  5
358
  8
5
  6
CONTINUOUS
 10
443.9071
 20
1461.973
 30
0.0
 11
443.9071
 21
1457.473
 31
0.0
  0
LINE
  5
359
  8
5
  6
CONTINUOUS
 10
475.9071
 20
1461.973
 30
0.0
 11
475.9071
 21
1457.473
 31
0.0
  0
LINE
  5
35A
  8
5
  6
CONTINUOUS
 10
1904.36
 20
1162.473
 30
0.0
 11
2045.721
 21
1162.473
 31
0.0
  0
ARC
  5
35B
  8
5
  6
CONTINUOUS
 10
2093.262
 20
1221.973
 30
0.0
 40
76.16056
 50
308.6254
 51
326.0802
  0
LINE
  5
35C
  8
5
  6
CONTINUOUS
 10
615.1071
 20
1336.673
 30
0.0
 11
619.6071
 21
1336.673
 31
0.0
  0
LINE
  5
35D
  8
5
  6
CONTINUOUS
 10
619.6072
 20
1107.273
 30
0.0
 11
615.1071
 21
1107.273
 31
0.0
  0
LINE
  5
35E
  8
5
  6
CONTINUOUS
 10
2140.803
 20
1162.473
 30
0.0
 11
2282.163
 21
1162.473
 31
0.0
  0
ARC
  5
35F
  8
5
  6
CONTINUOUS
 10
2093.262
 20
1221.973
 30
0.0
 40
198.0506
 50
342.5167
 51
347.6084
  0
LINE
  5
360
  8
5
  6
CONTINUOUS
 10
615.1071
 20
1204.673
 30
0.0
 11
619.6072
 21
1204.673
 31
0.0
  0
LINE
  5
361
  8
5
  6
CONTINUOUS
 10
619.6071
 20
1221.973
 30
0.0
 11
615.1071
 21
1221.973
 31
0.0
  0
LINE
  5
362
  8
5
  6
CONTINUOUS
 10
2286.699
 20
1179.473
 30
0.0
 11
2156.461
 21
1179.473
 31
0.0
  0
ARC
  5
363
  8
5
  6
CONTINUOUS
 10
2093.262
 20
1221.973
 30
0.0
 40
76.16056
 50
51.37464
 51
128.6254
  0
LINE
  5
364
  8
5
  6
CONTINUOUS
 10
615.1071
 20
1239.273
 30
0.0
 11
619.6071
 21
1239.273
 31
0.0
  0
LINE
  5
365
  8
5
  6
CONTINUOUS
 10
619.6071
 20
1256.473
 30
0.0
 11
615.1071
 21
1256.473
 31
0.0
  0
ARC
  5
366
  8
5
  6
CONTINUOUS
 10
2093.262
 20
1221.973
 30
0.0
 40
198.0506
 50
17.48333
 51
22.7223
  0
LINE
  5
367
  8
5
  6
CONTINUOUS
 10
2275.941
 20
1298.473
 30
0.0
 11
1910.583
 21
1298.473
 31
0.0
  0
LINE
  5
368
  8
5
  6
CONTINUOUS
 10
615.1071
 20
1271.473
 30
0.0
 11
619.6071
 21
1271.473
 31
0.0
  0
LINE
  5
369
  8
5
  6
CONTINUOUS
 10
619.6071
 20
1286.373
 30
0.0
 11
615.1071
 21
1286.373
 31
0.0
  0
ARC
  5
36A
  8
5
  6
CONTINUOUS
 10
2093.262
 20
1221.973
 30
0.0
 40
198.0505
 50
157.2777
 51
162.5167
  0
ARC
  5
36B
  8
5
  6
CONTINUOUS
 10
2093.262
 20
1221.973
 30
0.0
 40
76.16056
 50
146.0802
 51
160.4385
  0
LINE
  5
36C
  8
5
  6
CONTINUOUS
 10
615.1071
 20
1301.373
 30
0.0
 11
619.6071
 21
1301.373
 31
0.0
  0
LINE
  5
36D
  8
5
  6
CONTINUOUS
 10
619.6071
 20
1318.373
 30
0.0
 11
615.1071
 21
1318.373
 31
0.0
  0
ARC
  5
36E
  8
5
  6
CONTINUOUS
 10
2093.262
 20
1221.973
 30
0.0
 40
198.0506
 50
167.6084
 51
172.6024
  0
ARC
  5
36F
  8
5
  6
CONTINUOUS
 10
2093.262
 20
1221.973
 30
0.0
 40
76.16056
 50
19.56153
 51
33.91978
  0
LINE
  5
370
  8
5
  6
CONTINUOUS
 10
615.1071
 20
1172.573
 30
0.0
 11
619.6072
 21
1172.573
 31
0.0
  0
ARC
  5
371
  8
5
  6
CONTINUOUS
 10
2093.262
 20
1221.973
 30
0.0
 40
198.0506
 50
7.397655
 51
12.39159
  0
ARC
  5
372
  8
5
  6
CONTINUOUS
 10
2093.262
 20
1221.973
 30
0.0
 40
76.16056
 50
173.5921
 51
186.4079
  0
ARC
  5
373
  8
5
  6
CONTINUOUS
 10
2093.262
 20
1221.973
 30
0.0
 40
198.0506
 50
177.5402
 51
182.4598
  0
LINE
  5
374
  8
5
  6
CONTINUOUS
 10
619.6072
 20
1187.473
 30
0.0
 11
615.1071
 21
1187.473
 31
0.0
  0
ARC
  5
375
  8
5
  6
CONTINUOUS
 10
2093.262
 20
1221.973
 30
0.0
 40
76.16056
 50
353.5921
 51
6.4079
  0
ARC
  5
376
  8
5
  6
CONTINUOUS
 10
2093.262
 20
1221.973
 30
0.0
 40
198.0506
 50
357.5402
 51
2.4598
  0
ARC
  5
377
  8
5
  6
CONTINUOUS
 10
2093.262
 20
1221.973
 30
0.0
 40
76.16056
 50
199.5615
 51
213.9198
  0
ARC
  5
378
  8
5
  6
CONTINUOUS
 10
2093.262
 20
1221.973
 30
0.0
 40
198.0506
 50
187.3977
 51
192.3916
  0
ARC
  5
379
  8
5
  6
CONTINUOUS
 10
2093.262
 20
1221.973
 30
0.0
 40
76.16056
 50
326.0802
 51
340.4385
  0
ARC
  5
37A
  8
5
  6
CONTINUOUS
 10
2093.262
 20
1221.973
 30
0.0
 40
198.0506
 50
347.6084
 51
352.6023
  0
LINE
  5
37B
  8
5
  6
CONTINUOUS
 10
615.1071
 20
1142.573
 30
0.0
 11
619.6072
 21
1142.573
 31
0.0
  0
ARC
  5
37C
  8
5
  6
CONTINUOUS
 10
2093.262
 20
1221.973
 30
0.0
 40
198.0506
 50
151.8292
 51
157.2777
  0
ARC
  5
37D
  8
5
  6
CONTINUOUS
 10
2093.262
 20
1221.973
 30
0.0
 40
198.0506
 50
22.7223
 51
28.17081
  0
LINE
  5
37E
  8
5
  6
CONTINUOUS
 10
619.6072
 20
1157.573
 30
0.0
 11
615.1071
 21
1157.573
 31
0.0
  0
LINE
  5
37F
  8
5
  6
CONTINUOUS
 10
619.6072
 20
1125.573
 30
0.0
 11
615.1071
 21
1125.573
 31
0.0
  0
LINE
  5
380
  8
5
  6
CONTINUOUS
 10
2267.852
 20
1315.473
 30
0.0
 11
2205.762
 21
1315.473
 31
0.0
  0
LINE
  5
381
  8
5
  6
CONTINUOUS
 10
2205.762
 20
1315.473
 30
0.0
 11
2188.762
 21
1315.473
 31
0.0
  0
LINE
  5
382
  8
5
  6
CONTINUOUS
 10
139.607
 20
1336.673
 30
0.0
 11
144.1071
 21
1336.673
 31
0.0
  0
LINE
  5
383
  8
5
  6
CONTINUOUS
 10
144.1071
 20
1107.273
 30
0.0
 11
139.607
 21
1107.273
 31
0.0
  0
LINE
  5
384
  8
5
  6
CONTINUOUS
 10
2188.762
 20
1315.473
 30
0.0
 11
2171.762
 21
1315.473
 31
0.0
  0
LINE
  5
385
  8
5
  6
CONTINUOUS
 10
2171.762
 20
1315.473
 30
0.0
 11
2154.762
 21
1315.473
 31
0.0
  0
LINE
  5
386
  8
5
  6
CONTINUOUS
 10
144.1071
 20
1221.973
 30
0.0
 11
139.607
 21
1221.973
 31
0.0
  0
LINE
  5
387
  8
5
  6
CONTINUOUS
 10
139.607
 20
1204.673
 30
0.0
 11
144.1071
 21
1204.673
 31
0.0
  0
LINE
  5
388
  8
5
  6
CONTINUOUS
 10
2154.762
 20
1315.473
 30
0.0
 11
2137.762
 21
1315.473
 31
0.0
  0
LINE
  5
389
  8
5
  6
CONTINUOUS
 10
2137.762
 20
1315.473
 30
0.0
 11
2120.762
 21
1315.473
 31
0.0
  0
LINE
  5
38A
  8
5
  6
CONTINUOUS
 10
144.1071
 20
1256.473
 30
0.0
 11
139.607
 21
1256.473
 31
0.0
  0
LINE
  5
38B
  8
5
  6
CONTINUOUS
 10
139.607
 20
1239.273
 30
0.0
 11
144.1071
 21
1239.273
 31
0.0
  0
LINE
  5
38C
  8
5
  6
CONTINUOUS
 10
2120.762
 20
1315.473
 30
0.0
 11
2103.762
 21
1315.473
 31
0.0
  0
LINE
  5
38D
  8
5
  6
CONTINUOUS
 10
2103.762
 20
1315.473
 30
0.0
 11
2082.762
 21
1315.473
 31
0.0
  0
LINE
  5
38E
  8
5
  6
CONTINUOUS
 10
144.1071
 20
1286.373
 30
0.0
 11
139.607
 21
1286.373
 31
0.0
  0
LINE
  5
38F
  8
5
  6
CONTINUOUS
 10
139.607
 20
1271.473
 30
0.0
 11
144.1071
 21
1271.473
 31
0.0
  0
LINE
  5
390
  8
5
  6
CONTINUOUS
 10
2082.762
 20
1315.473
 30
0.0
 11
2065.762
 21
1315.473
 31
0.0
  0
LINE
  5
391
  8
5
  6
CONTINUOUS
 10
2065.762
 20
1315.473
 30
0.0
 11
2048.762
 21
1315.473
 31
0.0
  0
LINE
  5
392
  8
5
  6
CONTINUOUS
 10
144.1071
 20
1318.373
 30
0.0
 11
139.607
 21
1318.373
 31
0.0
  0
LINE
  5
393
  8
5
  6
CONTINUOUS
 10
139.607
 20
1301.373
 30
0.0
 11
144.1071
 21
1301.373
 31
0.0
  0
LINE
  5
394
  8
5
  6
CONTINUOUS
 10
2048.762
 20
1315.473
 30
0.0
 11
2031.762
 21
1315.473
 31
0.0
  0
LINE
  5
395
  8
5
  6
CONTINUOUS
 10
144.1071
 20
1187.473
 30
0.0
 11
139.607
 21
1187.473
 31
0.0
  0
LINE
  5
396
  8
5
  6
CONTINUOUS
 10
139.607
 20
1172.573
 30
0.0
 11
144.1071
 21
1172.573
 31
0.0
  0
LINE
  5
397
  8
5
  6
CONTINUOUS
 10
144.1071
 20
1157.573
 30
0.0
 11
139.607
 21
1157.573
 31
0.0
  0
LINE
  5
398
  8
5
  6
CONTINUOUS
 10
139.607
 20
1142.573
 30
0.0
 11
144.1071
 21
1142.573
 31
0.0
  0
LINE
  5
399
  8
5
  6
CONTINUOUS
 10
144.1071
 20
1125.573
 30
0.0
 11
139.607
 21
1125.573
 31
0.0
  0
LINE
  5
39A
  8
5
  6
CONTINUOUS
 10
189.1862
 20
1433.244
 30
0.0
 11
167.1084
 21
1411.166
 31
0.0
  0
CIRCLE
  5
39B
  8
5
  6
CONTINUOUS
 10
379.6071
 20
1221.973
 30
0.0
 40
223.5
  0
LINE
  5
39C
  8
5
  6
CONTINUOUS
 10
2031.762
 20
1315.473
 30
0.0
 11
2014.762
 21
1315.473
 31
0.0
  0
LINE
  5
39D
  8
5
  6
CONTINUOUS
 10
2014.762
 20
1315.473
 30
0.0
 11
1997.762
 21
1315.473
 31
0.0
  0
LINE
  5
39E
  8
5
  6
CONTINUOUS
 10
1997.762
 20
1315.473
 30
0.0
 11
1980.762
 21
1315.473
 31
0.0
  0
LINE
  5
39F
  8
5
  6
CONTINUOUS
 10
1980.762
 20
1315.473
 30
0.0
 11
1918.672
 21
1315.473
 31
0.0
  0
ARC
  5
3A0
  8
5
  6
CONTINUOUS
 10
2093.262
 20
1221.973
 30
0.0
 40
198.0506
 50
55.38656
 51
61.17081
  0
LINE
  5
3A1
  8
5
  6
CONTINUOUS
 10
2188.762
 20
1395.478
 30
0.0
 11
2188.762
 21
1315.473
 31
0.0
  0
LINE
  5
3A2
  8
5
  6
CONTINUOUS
 10
2205.762
 20
1315.473
 30
0.0
 11
2205.762
 21
1384.97
 31
0.0
  0
LINE
  5
3A3
  8
5
  6
CONTINUOUS
 10
558.7058
 20
1424.712
 30
0.0
 11
558.7058
 21
1424.712
 31
0.0
  0
ARC
  5
3A4
  8
5
  6
CONTINUOUS
 10
2093.262
 20
1221.973
 30
0.0
 40
198.0506
 50
66.64896
 51
71.90902
  0
LINE
  5
3A5
  8
5
  6
CONTINUOUS
 10
2154.762
 20
1410.233
 30
0.0
 11
2154.762
 21
1315.473
 31
0.0
  0
LINE
  5
3A6
  8
5
  6
CONTINUOUS
 10
2171.762
 20
1315.473
 30
0.0
 11
2171.762
 21
1403.802
 31
0.0
  0
ARC
  5
3A7
  8
5
  6
CONTINUOUS
 10
2093.262
 20
1221.973
 30
0.0
 40
198.0506
 50
77.01534
 51
82.01849
  0
LINE
  5
3A8
  8
5
  6
CONTINUOUS
 10
2120.762
 20
1418.105
 30
0.0
 11
2120.762
 21
1315.473
 31
0.0
  0
LINE
  5
3A9
  8
5
  6
CONTINUOUS
 10
2137.762
 20
1315.473
 30
0.0
 11
2137.762
 21
1414.96
 31
0.0
  0
ARC
  5
3AA
  8
5
  6
CONTINUOUS
 10
2093.262
 20
1221.973
 30
0.0
 40
198.0506
 50
86.96094
 51
93.03906
  0
LINE
  5
3AB
  8
5
  6
CONTINUOUS
 10
273.6156
 20
1474.973
 30
0.0
 11
273.1616
 21
1461.973
 31
0.0
  0
LINE
  5
3AC
  8
5
  6
CONTINUOUS
 10
486.0525
 20
1461.973
 30
0.0
 11
485.5986
 21
1474.973
 31
0.0
  0
LINE
  5
3AD
  8
5
  6
CONTINUOUS
 10
2082.762
 20
1419.745
 30
0.0
 11
2082.762
 21
1315.473
 31
0.0
  0
LINE
  5
3AE
  8
5
  6
CONTINUOUS
 10
2103.762
 20
1315.473
 30
0.0
 11
2103.762
 21
1419.745
 31
0.0
  0
ARC
  5
3AF
  8
5
  6
CONTINUOUS
 10
2093.262
 20
1221.973
 30
0.0
 40
198.0506
 50
97.98151
 51
102.9847
  0
LINE
  5
3B0
  8
5
  6
CONTINUOUS
 10
2048.762
 20
1414.96
 30
0.0
 11
2048.762
 21
1315.473
 31
0.0
  0
LINE
  5
3B1
  8
5
  6
CONTINUOUS
 10
2065.762
 20
1315.473
 30
0.0
 11
2065.762
 21
1418.105
 31
0.0
  0
ARC
  5
3B2
  8
5
  6
CONTINUOUS
 10
2093.262
 20
1221.973
 30
0.0
 40
198.0506
 50
108.091
 51
113.351
  0
LINE
  5
3B3
  8
5
  6
CONTINUOUS
 10
2014.762
 20
1403.802
 30
0.0
 11
2014.762
 21
1315.473
 31
0.0
  0
LINE
  5
3B4
  8
5
  6
CONTINUOUS
 10
2031.762
 20
1315.473
 30
0.0
 11
2031.762
 21
1410.233
 31
0.0
  0
ARC
  5
3B5
  8
5
  6
CONTINUOUS
 10
2093.262
 20
1221.973
 30
0.0
 40
198.0506
 50
118.8292
 51
124.6134
  0
LINE
  5
3B6
  8
5
  6
CONTINUOUS
 10
1980.762
 20
1384.97
 30
0.0
 11
1980.762
 21
1315.473
 31
0.0
  0
LINE
  5
3B7
  8
5
  6
CONTINUOUS
 10
1997.762
 20
1315.473
 30
0.0
 11
1997.762
 21
1395.478
 31
0.0
  0
ARC
  5
3B8
  8
5
  6
CONTINUOUS
 10
2093.262
 20
1221.973
 30
0.0
 40
198.0506
 50
61.17081
 51
66.64896
  0
ARC
  5
3B9
  8
5
  6
CONTINUOUS
 10
2093.262
 20
1221.973
 30
0.0
 40
198.0506
 50
28.17081
 51
55.38656
  0
ARC
  5
3BA
  8
5
  6
CONTINUOUS
 10
2093.262
 20
1221.973
 30
0.0
 40
198.0506
 50
71.90902
 51
77.01534
  0
ARC
  5
3BB
  8
5
  6
CONTINUOUS
 10
2093.262
 20
1221.973
 30
0.0
 40
198.0506
 50
82.01849
 51
86.96094
  0
ARC
  5
3BC
  8
5
  6
CONTINUOUS
 10
2093.262
 20
1221.973
 30
0.0
 40
198.0506
 50
93.03906
 51
97.98151
  0
ARC
  5
3BD
  8
5
  6
CONTINUOUS
 10
2093.262
 20
1221.973
 30
0.0
 40
198.0506
 50
102.9847
 51
108.091
  0
ARC
  5
3BE
  8
5
  6
CONTINUOUS
 10
2093.262
 20
1221.973
 30
0.0
 40
198.0506
 50
113.351
 51
118.8292
  0
ARC
  5
3BF
  8
5
  6
CONTINUOUS
 10
2093.262
 20
1221.973
 30
0.0
 40
198.0506
 50
124.6134
 51
151.8292
  0
LINE
  5
3C0
  8
5
  6
CONTINUOUS
 10
2067.262
 20
1145.473
 30
0.0
 11
1910.583
 21
1145.473
 31
0.0
  0
ARC
  5
3C1
  8
5
  6
CONTINUOUS
 10
2093.262
 20
1221.973
 30
0.0
 40
198.0506
 50
202.7223
 51
208.1708
  0
ARC
  5
3C2
  8
5
  6
CONTINUOUS
 10
2093.262
 20
1221.973
 30
0.0
 40
198.0506
 50
331.8292
 51
337.2777
  0
LINE
  5
3C3
  8
5
  6
CONTINUOUS
 10
2275.941
 20
1145.473
 30
0.0
 11
2119.262
 21
1145.473
 31
0.0
  0
ARC
  5
3C4
  8
5
  6
CONTINUOUS
 10
2093.262
 20
1221.973
 30
0.0
 40
76.16056
 50
231.3746
 51
250.0388
  0
ARC
  5
3C5
  8
5
  6
CONTINUOUS
 10
2093.262
 20
1221.973
 30
0.0
 40
198.0506
 50
197.4833
 51
202.7223
  0
ARC
  5
3C6
  8
5
  6
CONTINUOUS
 10
2093.262
 20
1221.973
 30
0.0
 40
198.0506
 50
337.2777
 51
342.5167
  0
ARC
  5
3C7
  8
5
  6
CONTINUOUS
 10
2093.262
 20
1221.973
 30
0.0
 40
76.16056
 50
289.9612
 51
308.6254
  0
ARC
  5
3C8
  8
5
  6
CONTINUOUS
 10
2093.262
 20
1221.973
 30
0.0
 40
198.0506
 50
254.478
 51
259.527
  0
LINE
  5
3C9
  8
5
  6
CONTINUOUS
 10
2057.262
 20
1027.222
 30
0.0
 11
2057.262
 21
1106.473
 31
0.0
  0
LINE
  5
3CA
  8
5
  6
CONTINUOUS
 10
2040.262
 20
1106.473
 30
0.0
 11
2040.262
 21
1031.146
 31
0.0
  0
ARC
  5
3CB
  8
5
  6
CONTINUOUS
 10
2093.262
 20
1221.973
 30
0.0
 40
198.0506
 50
243.9419
 51
249.3018
  0
LINE
  5
3CC
  8
5
  6
CONTINUOUS
 10
2023.262
 20
1036.706
 30
0.0
 11
2023.262
 21
1106.473
 31
0.0
  0
LINE
  5
3CD
  8
5
  6
CONTINUOUS
 10
2006.262
 20
1106.473
 30
0.0
 11
2006.262
 21
1044.055
 31
0.0
  0
ARC
  5
3CE
  8
5
  6
CONTINUOUS
 10
2093.262
 20
1221.973
 30
0.0
 40
198.0506
 50
280.473
 51
285.522
  0
LINE
  5
3CF
  8
5
  6
CONTINUOUS
 10
963.625
 20
198.0067
 30
0.0
 11
962.5233
 21
206.6067
 31
0.0
  0
LINE
  5
3D0
  8
5
  6
CONTINUOUS
 10
1253.096
 20
552.7067
 30
0.0
 11
1404.096
 21
552.7067
 31
0.0
  0
LINE
  5
3D1
  8
5
  6
CONTINUOUS
 10
2146.262
 20
1031.146
 30
0.0
 11
2146.262
 21
1106.473
 31
0.0
  0
LINE
  5
3D2
  8
5
  6
CONTINUOUS
 10
2129.262
 20
1106.473
 30
0.0
 11
2129.262
 21
1027.222
 31
0.0
  0
ARC
  5
3D3
  8
5
  6
CONTINUOUS
 10
2093.262
 20
1221.973
 30
0.0
 40
198.0506
 50
290.6982
 51
296.0581
  0
LINE
  5
3D4
  8
5
  6
CONTINUOUS
 10
2180.262
 20
1044.055
 30
0.0
 11
2180.262
 21
1106.473
 31
0.0
  0
LINE
  5
3D5
  8
5
  6
CONTINUOUS
 10
2163.262
 20
1106.473
 30
0.0
 11
2163.262
 21
1036.706
 31
0.0
  0
ARC
  5
3D6
  8
5
  6
CONTINUOUS
 10
2093.262
 20
1221.973
 30
0.0
 40
198.0506
 50
249.3018
 51
254.478
  0
ARC
  5
3D7
  8
5
  6
CONTINUOUS
 10
2093.262
 20
1221.973
 30
0.0
 40
198.0506
 50
215.6748
 51
243.9419
  0
ARC
  5
3D8
  8
5
  6
CONTINUOUS
 10
2093.262
 20
1221.973
 30
0.0
 40
198.0506
 50
285.522
 51
290.6982
  0
ARC
  5
3D9
  8
5
  6
CONTINUOUS
 10
2093.262
 20
1221.973
 30
0.0
 40
198.0506
 50
296.0581
 51
324.3252
  0
ARC
  5
3DA
  8
5
  6
CONTINUOUS
 10
2093.262
 20
1221.973
 30
0.0
 40
198.0506
 50
259.527
 51
264.4949
  0
ARC
  5
3DB
  8
5
  6
CONTINUOUS
 10
2093.262
 20
1221.973
 30
0.0
 40
198.0506
 50
275.5051
 51
280.473
  0
CIRCLE
  5
3DC
  8
5
  6
CONTINUOUS
 10
2093.262
 20
1221.973
 30
0.0
 40
210.0
  0
ARC
  5
3DD
  8
5
  6
CONTINUOUS
 10
2093.262
 20
1221.973
 30
0.0
 40
185.7597
 50
325.0178
 51
329.7789
  0
ARC
  5
3DE
  8
5
  6
CONTINUOUS
 10
2093.262
 20
1221.973
 30
0.0
 40
185.7597
 50
321.5544
 51
323.8805
  0
ARC
  5
3DF
  8
5
  6
CONTINUOUS
 10
2093.262
 20
1221.973
 30
0.0
 40
185.7597
 50
210.2211
 51
218.4456
  0
ARC
  5
3E0
  8
5
  6
CONTINUOUS
 10
2093.262
 20
1221.973
 30
0.0
 40
76.0
 50
290.0052
 51
249.9948
  0
ARC
  5
3E1
  8
5
  6
CONTINUOUS
 10
2093.262
 20
1221.973
 30
0.0
 40
70.71258
 50
248.427
 51
291.573
  0
CIRCLE
  5
3E2
  8
5
  6
CONTINUOUS
 10
2093.262
 20
1221.973
 30
0.0
 40
65.0
  0
LINE
  5
3E4
  8
5
  6
CONTINUOUS
 10
1404.096
 20
253.5067
 30
0.0
 11
1253.096
 21
253.5067
 31
0.0
  0
LINE
  5
3E6
  8
5
  6
CONTINUOUS
 10
1410.077
 20
506.0197
 30
0.0
 11
1408.579
 21
517.7067
 31
0.0
  0
LINE
  5
3E7
  8
5
  6
CONTINUOUS
 10
1404.109
 20
552.6067
 30
0.0
 11
1406.315
 21
535.382
 31
0.0
  0
LINE
  5
3E8
  8
5
  6
CONTINUOUS
 10
1406.338
 20
535.2067
 30
0.0
 11
1406.315
 21
535.382
 31
0.0
  0
LINE
  5
3E9
  8
5
  6
CONTINUOUS
 10
1408.579
 20
517.7067
 30
0.0
 11
1406.338
 21
535.2067
 31
0.0
  0
LINE
  5
3EA
  8
5
  6
CONTINUOUS
 10
1404.096
 20
552.7067
 30
0.0
 11
1404.109
 21
552.6067
 31
0.0
  0
LINE
  5
3EB
  8
5
  6
CONTINUOUS
 10
1406.325
 20
625.7067
 30
0.0
 11
1408.567
 21
608.2067
 31
0.0
  0
LINE
  5
3EC
  8
5
  6
CONTINUOUS
 10
1404.096
 20
643.1067
 30
0.0
 11
1406.312
 21
625.8072
 31
0.0
  0
LINE
  5
3ED
  8
5
  6
CONTINUOUS
 10
1406.312
 20
625.8072
 30
0.0
 11
1406.318
 21
625.7572
 31
0.0
  0
LINE
  5
3EE
  8
5
  6
CONTINUOUS
 10
1081.107
 20
548.6067
 30
0.0
 11
1077.212
 21
593.5276
 31
0.0
  0
LINE
  5
3EF
  8
5
  6
CONTINUOUS
 10
1406.318
 20
625.7572
 30
0.0
 11
1406.325
 21
625.7067
 31
0.0
  0
LINE
  5
3F0
  8
5
  6
CONTINUOUS
 10
1408.567
 20
608.2067
 30
0.0
 11
1410.077
 21
596.4197
 31
0.0
  0
LINE
  5
3F1
  8
5
  6
CONTINUOUS
 10
1406.312
 20
180.4061
 30
0.0
 11
1404.096
 21
163.1067
 31
0.0
  0
LINE
  5
3F2
  8
5
  6
CONTINUOUS
 10
1406.325
 20
180.5067
 30
0.0
 11
1408.567
 21
198.0067
 31
0.0
  0
LINE
  5
3F3
  8
5
  6
CONTINUOUS
 10
980.0848
 20
548.6067
 30
0.0
 11
983.9798
 21
593.5276
 31
0.0
  0
LINE
  5
3F4
  8
5
  6
CONTINUOUS
 10
1406.318
 20
180.4561
 30
0.0
 11
1406.325
 21
180.5067
 31
0.0
  0
LINE
  5
3F5
  8
5
  6
CONTINUOUS
 10
1406.318
 20
180.4561
 30
0.0
 11
1406.312
 21
180.4061
 31
0.0
  0
LINE
  5
3F6
  8
5
  6
CONTINUOUS
 10
1012.596
 20
548.6068
 30
0.0
 11
1012.596
 21
575.7535
 31
0.0
  0
LINE
  5
3F7
  8
5
  6
CONTINUOUS
 10
1408.567
 20
198.0067
 30
0.0
 11
1410.077
 21
209.7937
 31
0.0
  0
LINE
  5
3F8
  8
5
  6
CONTINUOUS
 10
965.8797
 20
625.8072
 30
0.0
 11
968.0958
 21
643.1067
 31
0.0
  0
LINE
  5
3F9
  8
5
  6
CONTINUOUS
 10
965.8668
 20
625.7067
 30
0.0
 11
963.625
 21
608.2067
 31
0.0
  0
LINE
  5
3FA
  8
5
  6
CONTINUOUS
 10
1048.596
 20
575.7535
 30
0.0
 11
1048.596
 21
548.6068
 31
0.0
  0
LINE
  5
3FB
  8
5
  6
CONTINUOUS
 10
965.8733
 20
625.7572
 30
0.0
 11
965.8668
 21
625.7067
 31
0.0
  0
LINE
  5
3FC
  8
5
  6
CONTINUOUS
 10
965.8733
 20
625.7572
 30
0.0
 11
965.8797
 21
625.8072
 31
0.0
  0
LINE
  5
3FD
  8
5
  6
CONTINUOUS
 10
963.625
 20
608.2067
 30
0.0
 11
962.115
 21
596.4197
 31
0.0
  0
LINE
  5
3FE
  8
5
  6
CONTINUOUS
 10
965.8668
 20
180.5067
 30
0.0
 11
963.625
 21
198.0067
 31
0.0
  0
LINE
  5
3FF
  8
5
  6
CONTINUOUS
 10
968.0958
 20
163.1067
 30
0.0
 11
965.8797
 21
180.4061
 31
0.0
  0
LINE
  5
400
  8
5
  6
CONTINUOUS
 10
965.8797
 20
180.4061
 30
0.0
 11
965.8733
 21
180.4561
 31
0.0
  0
LINE
  5
401
  8
5
  6
CONTINUOUS
 10
965.8733
 20
180.4561
 30
0.0
 11
965.8668
 21
180.5067
 31
0.0
  0
LINE
  5
402
  8
5
  6
CONTINUOUS
 10
968.0958
 20
643.1067
 30
0.0
 11
1404.096
 21
643.1067
 31
0.0
  0
LINE
  5
403
  8
5
  6
CONTINUOUS
 10
1404.096
 20
163.1067
 30
0.0
 11
968.0958
 21
163.1067
 31
0.0
  0
LINE
  5
404
  8
5
  6
CONTINUOUS
 10
1408.541
 20
288.2067
 30
0.0
 11
1406.315
 21
270.8313
 31
0.0
  0
LINE
  5
405
  8
5
  6
CONTINUOUS
 10
1406.315
 20
270.8313
 30
0.0
 11
1406.312
 21
270.8067
 31
0.0
  0
LINE
  5
406
  8
5
  6
CONTINUOUS
 10
1410.077
 20
300.1937
 30
0.0
 11
1408.541
 21
288.2067
 31
0.0
  0
LINE
  5
407
  8
5
  6
CONTINUOUS
 10
1406.312
 20
270.8067
 30
0.0
 11
1404.096
 21
253.5067
 31
0.0
  0
LINE
  5
408
  8
5
  6
CONTINUOUS
 10
1540.596
 20
635.6067
 30
0.0
 11
1540.596
 21
524.1601
 31
0.0
  0
LINE
  5
409
  8
5
  6
CONTINUOUS
 10
1540.596
 20
524.1601
 30
0.0
 11
1540.596
 21
282.0533
 31
0.0
  0
LINE
  5
40A
  8
5
  6
CONTINUOUS
 10
1540.596
 20
282.0533
 30
0.0
 11
1540.596
 21
170.6067
 31
0.0
  0
LINE
  5
40B
  8
5
  6
CONTINUOUS
 10
1613.596
 20
543.1067
 30
0.0
 11
1613.596
 21
263.1067
 31
0.0
  0
LINE
  5
40C
  8
5
  6
CONTINUOUS
 10
1472.096
 20
638.6067
 30
0.0
 11
1411.596
 21
638.6067
 31
0.0
  0
LINE
  5
40D
  8
5
  6
CONTINUOUS
 10
1472.096
 20
167.6067
 30
0.0
 11
1411.596
 21
167.6067
 31
0.0
  0
LINE
  5
40E
  8
5
  6
CONTINUOUS
 10
1472.096
 20
635.6067
 30
0.0
 11
1540.596
 21
635.6067
 31
0.0
  0
LINE
  5
40F
  8
5
  6
CONTINUOUS
 10
1540.596
 20
170.6067
 30
0.0
 11
1472.096
 21
170.6067
 31
0.0
  0
LINE
  5
410
  8
5
  6
CONTINUOUS
 10
1472.096
 20
638.6067
 30
0.0
 11
1472.096
 21
525.4027
 31
0.0
  0
LINE
  5
411
  8
5
  6
CONTINUOUS
 10
1472.096
 20
525.4027
 30
0.0
 11
1472.096
 21
280.8106
 31
0.0
  0
LINE
  5
412
  8
5
  6
CONTINUOUS
 10
1472.096
 20
280.8106
 30
0.0
 11
1472.096
 21
167.6067
 31
0.0
  0
LINE
  5
413
  8
5
  6
CONTINUOUS
 10
1411.596
 20
167.6067
 30
0.0
 11
1411.596
 21
280.8106
 31
0.0
  0
LINE
  5
414
  8
5
  6
CONTINUOUS
 10
1411.596
 20
280.8106
 30
0.0
 11
1411.596
 21
525.4027
 31
0.0
  0
LINE
  5
415
  8
5
  6
CONTINUOUS
 10
1411.596
 20
525.4027
 30
0.0
 11
1411.596
 21
638.6067
 31
0.0
  0
LINE
  5
416
  8
5
  6
CONTINUOUS
 10
1077.212
 20
593.5276
 30
0.0
 11
1060.096
 21
606.3998
 31
0.0
  0
LINE
  5
417
  8
5
  6
CONTINUOUS
 10
1060.096
 20
606.3998
 30
0.0
 11
1001.096
 21
606.3998
 31
0.0
  0
LINE
  5
418
  8
5
  6
CONTINUOUS
 10
1001.096
 20
606.3998
 30
0.0
 11
983.9798
 21
593.5276
 31
0.0
  0
LINE
  5
419
  8
5
  6
CONTINUOUS
 10
1012.596
 20
575.7535
 30
0.0
 11
1020.596
 21
582.2054
 31
0.0
  0
LINE
  5
41A
  8
5
  6
CONTINUOUS
 10
1020.596
 20
582.2054
 30
0.0
 11
1040.596
 21
582.2054
 31
0.0
  0
LINE
  5
41B
  8
5
  6
CONTINUOUS
 10
1040.596
 20
582.2054
 30
0.0
 11
1048.596
 21
575.7535
 31
0.0
  0
LINE
  5
41C
  8
5
  6
CONTINUOUS
 10
1257.861
 20
535.2066
 30
0.0
 11
1406.293
 21
535.2066
 31
0.0
  0
LINE
  5
41D
  8
5
  6
CONTINUOUS
 10
983.9798
 20
615.6052
 30
0.0
 11
980.8457
 21
591.8154
 31
0.0
  0
LINE
  5
41E
  8
5
  6
CONTINUOUS
 10
1404.109
 20
552.6067
 30
0.0
 11
1253.096
 21
552.6066
 31
0.0
  0
LINE
  5
41F
  8
5
  6
CONTINUOUS
 10
983.9798
 20
615.6052
 30
0.0
 11
1001.096
 21
624.0775
 31
0.0
  0
LINE
  5
420
  8
5
  6
CONTINUOUS
 10
1001.096
 20
624.0775
 30
0.0
 11
1060.096
 21
624.0775
 31
0.0
  0
LINE
  5
421
  8
5
  6
CONTINUOUS
 10
1060.096
 20
624.0775
 30
0.0
 11
1077.212
 21
615.6052
 31
0.0
  0
LINE
  5
422
  8
5
  6
CONTINUOUS
 10
1279.096
 20
517.9068
 30
0.0
 11
1257.861
 21
535.2066
 31
0.0
  0
LINE
  5
423
  8
5
  6
CONTINUOUS
 10
1077.212
 20
615.6052
 30
0.0
 11
1080.346
 21
591.8154
 31
0.0
  0
LINE
  5
424
  8
5
  6
CONTINUOUS
 10
983.9798
 20
593.5276
 30
0.0
 11
983.9798
 21
615.6052
 31
0.0
  0
LINE
  5
425
  8
5
  6
CONTINUOUS
 10
979.4231
 20
563.0467
 30
0.0
 11
980.8457
 21
591.8154
 31
0.0
  0
LINE
  5
426
  8
5
  6
CONTINUOUS
 10
1257.616
 20
270.8067
 30
0.0
 11
1278.973
 21
288.2067
 31
0.0
  0
LINE
  5
427
  8
5
  6
CONTINUOUS
 10
1257.616
 20
270.8067
 30
0.0
 11
1406.312
 21
270.8067
 31
0.0
  0
LINE
  5
428
  8
5
  6
CONTINUOUS
 10
1080.346
 20
591.8154
 30
0.0
 11
1081.768
 21
563.0467
 31
0.0
  0
LINE
  5
429
  8
5
  6
CONTINUOUS
 10
1077.212
 20
615.6052
 30
0.0
 11
1077.212
 21
593.5276
 31
0.0
  0
LINE
  5
42A
  8
5
  6
CONTINUOUS
 10
1060.096
 20
606.3998
 30
0.0
 11
1060.096
 21
624.0775
 31
0.0
  0
LINE
  5
42B
  8
5
  6
CONTINUOUS
 10
1001.096
 20
624.0775
 30
0.0
 11
1001.096
 21
606.3998
 31
0.0
  0
LINE
  5
42C
  8
5
  6
CONTINUOUS
 10
1406.315
 20
535.382
 30
0.0
 11
1406.293
 21
535.2066
 31
0.0
  0
LINE
  5
42D
  8
5
  6
CONTINUOUS
 10
1404.096
 20
517.9068
 30
0.0
 11
1279.096
 21
517.9068
 31
0.0
  0
LINE
  5
42E
  8
5
  6
CONTINUOUS
 10
1406.293
 20
535.2066
 30
0.0
 11
1404.096
 21
517.9068
 31
0.0
  0
LINE
  5
42F
  8
5
  6
CONTINUOUS
 10
1404.109
 20
288.2067
 30
0.0
 11
1278.973
 21
288.2067
 31
0.0
  0
LINE
  5
430
  8
5
  6
CONTINUOUS
 10
1404.109
 20
288.2067
 30
0.0
 11
1406.315
 21
270.8313
 31
0.0
  0
LINE
  5
431
  8
5
  6
CONTINUOUS
 10
1404.096
 20
288.3067
 30
0.0
 11
1404.109
 21
288.2067
 31
0.0
  0
LINE
  5
432
  8
5
  6
CONTINUOUS
 10
1279.096
 20
288.3067
 30
0.0
 11
1404.096
 21
288.3067
 31
0.0
  0
LINE
  5
433
  8
5
  6
CONTINUOUS
 10
1278.973
 20
288.2067
 30
0.0
 11
1279.096
 21
288.3067
 31
0.0
  0
LINE
  5
434
  8
5
  6
CONTINUOUS
 10
1406.293
 20
535.2066
 30
0.0
 11
1406.338
 21
535.2067
 31
0.0
  0
LINE
  5
435
  8
5
  6
CONTINUOUS
 10
1408.541
 20
288.2067
 30
0.0
 11
1404.109
 21
288.2067
 31
0.0
  0
LINE
  5
436
  8
5
  6
CONTINUOUS
 10
1404.096
 20
517.7066
 30
0.0
 11
1408.579
 21
517.7067
 31
0.0
  0
LINE
  5
437
  8
5
  6
CONTINUOUS
 10
1404.096
 20
517.7066
 30
0.0
 11
1404.096
 21
517.9068
 31
0.0
  0
LINE
  5
438
  8
5
  6
CONTINUOUS
 10
1408.7
 20
323.6066
 30
0.0
 11
1404.096
 21
323.6066
 31
0.0
  0
LINE
  5
439
  8
5
  6
CONTINUOUS
 10
1404.096
 20
306.6067
 30
0.0
 11
1404.096
 21
323.6066
 31
0.0
  0
LINE
  5
43A
  8
5
  6
CONTINUOUS
 10
1404.096
 20
306.6067
 30
0.0
 11
1409.656
 21
306.6067
 31
0.0
  0
LINE
  5
43B
  8
5
  6
CONTINUOUS
 10
1407.512
 20
353.6066
 30
0.0
 11
1404.096
 21
353.6066
 31
0.0
  0
LINE
  5
43C
  8
5
  6
CONTINUOUS
 10
1404.096
 20
338.6067
 30
0.0
 11
1404.096
 21
353.6066
 31
0.0
  0
LINE
  5
43D
  8
5
  6
CONTINUOUS
 10
1404.096
 20
338.6067
 30
0.0
 11
1408.03
 21
338.6067
 31
0.0
  0
LINE
  5
43E
  8
5
  6
CONTINUOUS
 10
1406.875
 20
385.7066
 30
0.0
 11
1404.096
 21
385.7066
 31
0.0
  0
LINE
  5
43F
  8
5
  6
CONTINUOUS
 10
1404.096
 20
368.5067
 30
0.0
 11
1404.096
 21
385.7066
 31
0.0
  0
LINE
  5
440
  8
5
  6
CONTINUOUS
 10
1404.096
 20
368.5067
 30
0.0
 11
1407.138
 21
368.5067
 31
0.0
  0
LINE
  5
441
  8
5
  6
CONTINUOUS
 10
1406.873
 20
420.3067
 30
0.0
 11
1404.096
 21
420.3067
 31
0.0
  0
LINE
  5
442
  8
5
  6
CONTINUOUS
 10
1404.096
 20
403.0066
 30
0.0
 11
1404.096
 21
420.3067
 31
0.0
  0
LINE
  5
443
  8
5
  6
CONTINUOUS
 10
1404.096
 20
403.0066
 30
0.0
 11
1406.786
 21
403.0066
 31
0.0
  0
LINE
  5
444
  8
5
  6
CONTINUOUS
 10
1407.506
 20
452.4067
 30
0.0
 11
1404.096
 21
452.4067
 31
0.0
  0
LINE
  5
445
  8
5
  6
CONTINUOUS
 10
1404.096
 20
437.5066
 30
0.0
 11
1404.096
 21
452.4067
 31
0.0
  0
LINE
  5
446
  8
5
  6
CONTINUOUS
 10
1404.096
 20
437.5066
 30
0.0
 11
1407.134
 21
437.5066
 31
0.0
  0
LINE
  5
447
  8
5
  6
CONTINUOUS
 10
1408.69
 20
482.4067
 30
0.0
 11
1404.096
 21
482.4067
 31
0.0
  0
LINE
  5
448
  8
5
  6
CONTINUOUS
 10
1404.096
 20
467.4066
 30
0.0
 11
1404.096
 21
482.4067
 31
0.0
  0
LINE
  5
449
  8
5
  6
CONTINUOUS
 10
1404.096
 20
467.4066
 30
0.0
 11
1408.022
 21
467.4066
 31
0.0
  0
LINE
  5
44A
  8
5
  6
CONTINUOUS
 10
1404.096
 20
499.4066
 30
0.0
 11
1404.096
 21
517.7066
 31
0.0
  0
LINE
  5
44B
  8
5
  6
CONTINUOUS
 10
1404.096
 20
499.4066
 30
0.0
 11
1409.644
 21
499.4066
 31
0.0
  0
LINE
  5
44C
  8
5
  6
CONTINUOUS
 10
1404.096
 20
288.3067
 30
0.0
 11
1404.096
 21
306.6067
 31
0.0
  0
LINE
  5
44D
  8
5
  6
CONTINUOUS
 10
1404.096
 20
323.6066
 30
0.0
 11
1404.096
 21
338.6067
 31
0.0
  0
LINE
  5
44E
  8
5
  6
CONTINUOUS
 10
1253.096
 20
306.6067
 30
0.0
 11
1279.096
 21
306.6067
 31
0.0
  0
LINE
  5
44F
  8
5
  6
CONTINUOUS
 10
1404.096
 20
353.6066
 30
0.0
 11
1404.096
 21
368.5067
 31
0.0
  0
LINE
  5
450
  8
5
  6
CONTINUOUS
 10
1279.096
 20
323.6066
 30
0.0
 11
1253.096
 21
323.6066
 31
0.0
  0
LINE
  5
451
  8
5
  6
CONTINUOUS
 10
1404.096
 20
385.7066
 30
0.0
 11
1404.096
 21
403.0066
 31
0.0
  0
LINE
  5
452
  8
5
  6
CONTINUOUS
 10
1404.096
 20
420.3067
 30
0.0
 11
1404.096
 21
437.5066
 31
0.0
  0
LINE
  5
453
  8
5
  6
CONTINUOUS
 10
1253.096
 20
338.6067
 30
0.0
 11
1279.096
 21
338.6067
 31
0.0
  0
LINE
  5
454
  8
5
  6
CONTINUOUS
 10
1404.096
 20
452.4067
 30
0.0
 11
1404.096
 21
467.4066
 31
0.0
  0
LINE
  5
455
  8
5
  6
CONTINUOUS
 10
1279.096
 20
353.6066
 30
0.0
 11
1253.096
 21
353.6066
 31
0.0
  0
LINE
  5
456
  8
5
  6
CONTINUOUS
 10
1404.096
 20
482.4067
 30
0.0
 11
1404.096
 21
499.4066
 31
0.0
  0
LINE
  5
457
  8
5
  6
CONTINUOUS
 10
1279.096
 20
323.6066
 30
0.0
 11
1279.096
 21
306.6067
 31
0.0
  0
LINE
  5
458
  8
5
  6
CONTINUOUS
 10
1253.096
 20
368.5067
 30
0.0
 11
1279.096
 21
368.5067
 31
0.0
  0
LINE
  5
459
  8
5
  6
CONTINUOUS
 10
1279.096
 20
353.6066
 30
0.0
 11
1279.096
 21
338.6067
 31
0.0
  0
LINE
  5
45A
  8
5
  6
CONTINUOUS
 10
1279.096
 20
385.7066
 30
0.0
 11
1253.096
 21
385.7066
 31
0.0
  0
LINE
  5
45B
  8
5
  6
CONTINUOUS
 10
1279.096
 20
385.7066
 30
0.0
 11
1279.096
 21
368.5067
 31
0.0
  0
LINE
  5
45C
  8
5
  6
CONTINUOUS
 10
1279.096
 20
452.4067
 30
0.0
 11
1253.096
 21
452.4067
 31
0.0
  0
LINE
  5
45D
  8
5
  6
CONTINUOUS
 10
1279.096
 20
452.4067
 30
0.0
 11
1279.096
 21
437.5066
 31
0.0
  0
LINE
  5
45E
  8
5
  6
CONTINUOUS
 10
1279.096
 20
482.4067
 30
0.0
 11
1279.096
 21
467.4066
 31
0.0
  0
LINE
  5
45F
  8
5
  6
CONTINUOUS
 10
1253.096
 20
437.5066
 30
0.0
 11
1279.096
 21
437.5066
 31
0.0
  0
LINE
  5
460
  8
5
  6
CONTINUOUS
 10
1279.096
 20
517.7066
 30
0.0
 11
1279.096
 21
499.4066
 31
0.0
  0
LINE
  5
461
  8
5
  6
CONTINUOUS
 10
1279.096
 20
482.4067
 30
0.0
 11
1253.096
 21
482.4067
 31
0.0
  0
LINE
  5
462
  8
5
  6
CONTINUOUS
 10
1279.096
 20
306.6067
 30
0.0
 11
1279.096
 21
288.3067
 31
0.0
  0
LINE
  5
463
  8
5
  6
CONTINUOUS
 10
1279.096
 20
338.6067
 30
0.0
 11
1279.096
 21
323.6066
 31
0.0
  0
LINE
  5
464
  8
5
  6
CONTINUOUS
 10
1253.096
 20
467.4066
 30
0.0
 11
1279.096
 21
467.4066
 31
0.0
  0
LINE
  5
465
  8
5
  6
CONTINUOUS
 10
1279.096
 20
368.5067
 30
0.0
 11
1279.096
 21
353.6066
 31
0.0
  0
LINE
  5
466
  8
5
  6
CONTINUOUS
 10
1279.096
 20
517.7066
 30
0.0
 11
1253.096
 21
517.7066
 31
0.0
  0
LINE
  5
467
  8
5
  6
CONTINUOUS
 10
1279.096
 20
403.0066
 30
0.0
 11
1279.096
 21
385.7066
 31
0.0
  0
LINE
  5
468
  8
5
  6
CONTINUOUS
 10
1279.096
 20
437.5066
 30
0.0
 11
1279.096
 21
420.3067
 31
0.0
  0
LINE
  5
469
  8
5
  6
CONTINUOUS
 10
1253.096
 20
499.4066
 30
0.0
 11
1279.096
 21
499.4066
 31
0.0
  0
LINE
  5
46A
  8
5
  6
CONTINUOUS
 10
1279.096
 20
467.4066
 30
0.0
 11
1279.096
 21
452.4067
 31
0.0
  0
LINE
  5
46B
  8
5
  6
CONTINUOUS
 10
1279.096
 20
499.4066
 30
0.0
 11
1279.096
 21
482.4067
 31
0.0
  0
LINE
  5
46C
  8
5
  6
CONTINUOUS
 10
1279.096
 20
517.9068
 30
0.0
 11
1279.096
 21
517.7066
 31
0.0
  0
LINE
  5
46D
  8
5
  6
CONTINUOUS
 10
1278.973
 20
288.2067
 30
0.0
 11
1253.096
 21
288.2067
 31
0.0
  0
LINE
  5
46E
  8
5
  6
CONTINUOUS
 10
1279.096
 20
420.3067
 30
0.0
 11
1279.096
 21
403.0066
 31
0.0
  0
LINE
  5
46F
  8
5
  6
CONTINUOUS
 10
1404.096
 20
517.7066
 30
0.0
 11
1279.096
 21
517.7066
 31
0.0
  0
LINE
  5
470
  8
5
  6
CONTINUOUS
 10
1279.096
 20
499.4066
 30
0.0
 11
1404.096
 21
499.4066
 31
0.0
  0
LINE
  5
471
  8
5
  6
CONTINUOUS
 10
1279.096
 20
467.4066
 30
0.0
 11
1404.096
 21
467.4066
 31
0.0
  0
LINE
  5
472
  8
5
  6
CONTINUOUS
 10
1404.096
 20
482.4067
 30
0.0
 11
1279.096
 21
482.4067
 31
0.0
  0
LINE
  5
473
  8
5
  6
CONTINUOUS
 10
1279.096
 20
437.5066
 30
0.0
 11
1404.096
 21
437.5066
 31
0.0
  0
LINE
  5
474
  8
5
  6
CONTINUOUS
 10
1404.096
 20
452.4067
 30
0.0
 11
1279.096
 21
452.4067
 31
0.0
  0
LINE
  5
475
  8
5
  6
CONTINUOUS
 10
1279.096
 20
403.0066
 30
0.0
 11
1253.096
 21
403.0066
 31
0.0
  0
LINE
  5
476
  8
5
  6
CONTINUOUS
 10
1279.096
 20
403.0066
 30
0.0
 11
1404.096
 21
403.0066
 31
0.0
  0
LINE
  5
477
  8
5
  6
CONTINUOUS
 10
1404.096
 20
420.3067
 30
0.0
 11
1279.096
 21
420.3067
 31
0.0
  0
LINE
  5
478
  8
5
  6
CONTINUOUS
 10
1253.096
 20
420.3067
 30
0.0
 11
1279.096
 21
420.3067
 31
0.0
  0
LINE
  5
479
  8
5
  6
CONTINUOUS
 10
1404.096
 20
385.7066
 30
0.0
 11
1279.096
 21
385.7066
 31
0.0
  0
LINE
  5
47A
  8
5
  6
CONTINUOUS
 10
1279.096
 20
368.5067
 30
0.0
 11
1404.096
 21
368.5067
 31
0.0
  0
LINE
  5
47B
  8
5
  6
CONTINUOUS
 10
1404.096
 20
353.6066
 30
0.0
 11
1279.096
 21
353.6066
 31
0.0
  0
LINE
  5
47C
  8
5
  6
CONTINUOUS
 10
1279.096
 20
338.6067
 30
0.0
 11
1404.096
 21
338.6067
 31
0.0
  0
LINE
  5
47D
  8
5
  6
CONTINUOUS
 10
1404.096
 20
323.6066
 30
0.0
 11
1279.096
 21
323.6066
 31
0.0
  0
LINE
  5
47E
  8
5
  6
CONTINUOUS
 10
1279.096
 20
306.6067
 30
0.0
 11
1404.096
 21
306.6067
 31
0.0
  0
LINE
  5
47F
  8
5
  6
CONTINUOUS
 10
965.8797
 20
625.8072
 30
0.0
 11
1406.312
 21
625.8072
 31
0.0
  0
LINE
  5
480
  8
5
  6
CONTINUOUS
 10
968.0958
 20
608.6066
 30
0.0
 11
965.8733
 21
625.7572
 31
0.0
  0
LINE
  5
481
  8
5
  6
CONTINUOUS
 10
1404.096
 20
608.6066
 30
0.0
 11
1078.134
 21
608.6067
 31
0.0
  0
LINE
  5
482
  8
5
  6
CONTINUOUS
 10
983.0577
 20
608.6067
 30
0.0
 11
968.0958
 21
608.6066
 31
0.0
  0
LINE
  5
483
  8
5
  6
CONTINUOUS
 10
1406.318
 20
625.7572
 30
0.0
 11
1404.096
 21
608.6066
 31
0.0
  0
LINE
  5
484
  8
5
  6
CONTINUOUS
 10
1406.312
 20
180.4061
 30
0.0
 11
965.8797
 21
180.4061
 31
0.0
  0
LINE
  5
485
  8
5
  6
CONTINUOUS
 10
1404.096
 20
197.6067
 30
0.0
 11
1406.318
 21
180.4561
 31
0.0
  0
LINE
  5
486
  8
5
  6
CONTINUOUS
 10
968.0958
 20
197.6067
 30
0.0
 11
1289.058
 21
197.6067
 31
0.0
  0
LINE
  5
487
  8
5
  6
CONTINUOUS
 10
1384.134
 20
197.6067
 30
0.0
 11
1404.096
 21
197.6067
 31
0.0
  0
LINE
  5
488
  8
5
  6
CONTINUOUS
 10
965.8733
 20
180.4561
 30
0.0
 11
968.0958
 21
197.6067
 31
0.0
  0
LINE
  5
489
  8
5
  6
CONTINUOUS
 10
1286.846
 20
214.3979
 30
0.0
 11
1285.423
 21
243.1665
 31
0.0
  0
LINE
  5
48A
  8
5
  6
CONTINUOUS
 10
1404.096
 20
197.6067
 30
0.0
 11
1404.096
 21
243.1665
 31
0.0
  0
LINE
  5
48B
  8
5
  6
CONTINUOUS
 10
1404.096
 20
243.1665
 30
0.0
 11
1387.768
 21
243.1665
 31
0.0
  0
LINE
  5
48C
  8
5
  6
CONTINUOUS
 10
1387.768
 20
243.1665
 30
0.0
 11
1386.346
 21
214.3979
 31
0.0
  0
LINE
  5
48D
  8
5
  6
CONTINUOUS
 10
1354.596
 20
243.1665
 30
0.0
 11
1318.596
 21
243.1665
 31
0.0
  0
LINE
  5
48E
  8
5
  6
CONTINUOUS
 10
1081.768
 20
563.0467
 30
0.0
 11
1404.096
 21
563.0467
 31
0.0
  0
LINE
  5
48F
  8
5
  6
CONTINUOUS
 10
1404.096
 20
563.0467
 30
0.0
 11
1404.096
 21
608.6066
 31
0.0
  0
LINE
  5
490
  8
5
  6
CONTINUOUS
 10
968.0958
 20
608.6066
 30
0.0
 11
968.0958
 21
563.0467
 31
0.0
  0
LINE
  5
491
  8
5
  6
CONTINUOUS
 10
968.0958
 20
563.0467
 30
0.0
 11
979.4231
 21
563.0467
 31
0.0
  0
LINE
  5
492
  8
5
  6
CONTINUOUS
 10
1012.596
 20
563.0467
 30
0.0
 11
1048.596
 21
563.0467
 31
0.0
  0
LINE
  5
493
  8
5
  6
CONTINUOUS
 10
1406.325
 20
228.5095
 30
0.0
 11
1406.325
 21
180.5067
 31
0.0
  0
LINE
  5
494
  8
5
  6
CONTINUOUS
 10
1408.567
 20
198.0068
 30
0.0
 11
1408.567
 21
216.5459
 31
0.0
  0
LINE
  5
495
  8
5
  6
CONTINUOUS
 10
1408.567
 20
589.6674
 30
0.0
 11
1408.567
 21
608.2067
 31
0.0
  0
LINE
  5
496
  8
5
  6
CONTINUOUS
 10
1406.325
 20
625.7067
 30
0.0
 11
1406.325
 21
577.7038
 31
0.0
  0
LINE
  5
497
  8
5
  6
CONTINUOUS
 10
965.8668
 20
577.7038
 30
0.0
 11
965.8668
 21
625.7067
 31
0.0
  0
LINE
  5
498
  8
5
  6
CONTINUOUS
 10
963.625
 20
608.2067
 30
0.0
 11
963.625
 21
589.6674
 31
0.0
  0
LINE
  5
499
  8
5
  6
CONTINUOUS
 10
1307.096
 20
182.1358
 30
0.0
 11
1289.98
 21
190.608
 31
0.0
  0
LINE
  5
49A
  8
5
  6
CONTINUOUS
 10
1307.096
 20
199.8135
 30
0.0
 11
1307.096
 21
182.1358
 31
0.0
  0
LINE
  5
49B
  8
5
  6
CONTINUOUS
 10
1289.98
 20
212.6858
 30
0.0
 11
1307.096
 21
199.8135
 31
0.0
  0
LINE
  5
49C
  8
5
  6
CONTINUOUS
 10
1285.423
 20
243.1665
 30
0.0
 11
1242.612
 21
243.1666
 31
0.0
  0
LINE
  5
49D
  8
5
  6
CONTINUOUS
 10
1289.98
 20
190.608
 30
0.0
 11
1289.98
 21
212.6858
 31
0.0
  0
LINE
  5
49E
  8
5
  6
CONTINUOUS
 10
1366.096
 20
199.8135
 30
0.0
 11
1383.212
 21
212.6858
 31
0.0
  0
LINE
  5
49F
  8
5
  6
CONTINUOUS
 10
968.0958
 20
206.6067
 30
0.0
 11
968.0958
 21
197.6067
 31
0.0
  0
LINE
  5
4A0
  8
5
  6
CONTINUOUS
 10
1366.096
 20
182.1358
 30
0.0
 11
1366.096
 21
199.8135
 31
0.0
  0
LINE
  5
4A1
  8
5
  6
CONTINUOUS
 10
1383.212
 20
190.608
 30
0.0
 11
1366.096
 21
182.1358
 31
0.0
  0
LINE
  5
4A2
  8
5
  6
CONTINUOUS
 10
1383.212
 20
212.6858
 30
0.0
 11
1383.212
 21
190.608
 31
0.0
  0
LINE
  5
4A3
  8
5
  6
CONTINUOUS
 10
1326.596
 20
224.008
 30
0.0
 11
1318.596
 21
230.46
 31
0.0
  0
LINE
  5
4A4
  8
5
  6
CONTINUOUS
 10
1354.596
 20
230.46
 30
0.0
 11
1346.596
 21
224.008
 31
0.0
  0
LINE
  5
4A5
  8
5
  6
CONTINUOUS
 10
1346.596
 20
224.008
 30
0.0
 11
1326.596
 21
224.008
 31
0.0
  0
LINE
  5
4A6
  8
5
  6
CONTINUOUS
 10
1366.096
 20
182.1358
 30
0.0
 11
1307.096
 21
182.1358
 31
0.0
  0
LINE
  5
4A7
  8
5
  6
CONTINUOUS
 10
1307.096
 20
199.8135
 30
0.0
 11
1366.096
 21
199.8135
 31
0.0
  0
LINE
  5
4A8
  8
5
  6
CONTINUOUS
 10
1289.98
 20
190.608
 30
0.0
 11
1286.846
 21
214.3979
 31
0.0
  0
LINE
  5
4A9
  8
5
  6
CONTINUOUS
 10
1286.44
 20
253.5067
 30
0.0
 11
1289.98
 21
212.6858
 31
0.0
  0
LINE
  5
4AA
  8
5
  6
CONTINUOUS
 10
1386.751
 20
253.5067
 30
0.0
 11
1383.212
 21
212.6858
 31
0.0
  0
LINE
  5
4AB
  8
5
  6
CONTINUOUS
 10
1383.212
 20
190.608
 30
0.0
 11
1386.346
 21
214.3979
 31
0.0
  0
LINE
  5
4AC
  8
5
  6
CONTINUOUS
 10
1354.596
 20
253.5067
 30
0.0
 11
1354.596
 21
230.46
 31
0.0
  0
LINE
  5
4AD
  8
5
  6
CONTINUOUS
 10
1318.596
 20
230.46
 30
0.0
 11
1318.596
 21
253.5067
 31
0.0
  0
LINE
  5
4AE
  8
5
  6
CONTINUOUS
 10
1604.596
 20
543.1067
 30
0.0
 11
1540.596
 21
626.6066
 31
0.0
  0
LINE
  5
4AF
  8
5
  6
CONTINUOUS
 10
963.625
 20
206.6067
 30
0.0
 11
963.625
 21
198.0068
 31
0.0
  0
LINE
  5
4B0
  8
5
  6
CONTINUOUS
 10
965.8668
 20
180.5067
 30
0.0
 11
965.8668
 21
206.6067
 31
0.0
  0
LINE
  5
4B1
  8
5
  6
CONTINUOUS
 10
1604.596
 20
543.1067
 30
0.0
 11
1604.596
 21
263.1067
 31
0.0
  0
LINE
  5
4B2
  8
5
  6
CONTINUOUS
 10
1540.596
 20
179.6066
 30
0.0
 11
1604.596
 21
263.1067
 31
0.0
  0
LINE
  5
4B3
  8
5
  6
CONTINUOUS
 10
1613.596
 20
543.1067
 30
0.0
 11
1604.596
 21
543.1067
 31
0.0
  0
LINE
  5
4B4
  8
5
  6
CONTINUOUS
 10
1604.596
 20
263.1067
 30
0.0
 11
1613.596
 21
263.1067
 31
0.0
  0
LINE
  5
4B5
  8
5
  6
CONTINUOUS
 10
1472.096
 20
525.4027
 30
0.0
 11
1411.596
 21
525.4027
 31
0.0
  0
LINE
  5
4B6
  8
5
  6
CONTINUOUS
 10
1472.096
 20
280.8106
 30
0.0
 11
1411.596
 21
280.8106
 31
0.0
  0
LINE
  5
4B7
  8
5
  6
CONTINUOUS
 10
1472.096
 20
282.0534
 30
0.0
 11
1540.596
 21
282.0533
 31
0.0
  0
LINE
  5
4B8
  8
5
  6
CONTINUOUS
 10
1472.096
 20
524.1601
 30
0.0
 11
1540.596
 21
524.1601
 31
0.0
  0
LINE
  5
4B9
  8
5
  6
CONTINUOUS
 10
873.5958
 20
435.6067
 30
0.0
 11
738.5958
 21
435.6067
 31
0.0
  0
LINE
  5
4BA
  8
5
  6
CONTINUOUS
 10
1880.763
 20
1411.166
 30
0.0
 11
1885.906
 21
1402.607
 31
0.0
  0
LINE
  5
4BB
  8
5
  6
CONTINUOUS
 10
1406.786
 20
184.1067
 30
0.0
 11
1411.596
 21
184.1067
 31
0.0
  0
LINE
  5
4C0
  8
5
  6
CONTINUOUS
 10
2305.761
 20
1411.166
 30
0.0
 11
2300.618
 21
1402.607
 31
0.0
  0
LINE
  5
4C1
  8
5
  6
CONTINUOUS
 10
1889.969
 20
1442.944
 30
0.0
 11
1902.841
 21
1433.244
 31
0.0
  0
LINE
  5
4C2
  8
5
  6
CONTINUOUS
 10
1880.763
 20
1411.166
 30
0.0
 11
1872.291
 21
1425.267
 31
0.0
  0
LINE
  5
4C3
  8
5
  6
CONTINUOUS
 10
1872.291
 20
1425.267
 30
0.0
 11
1889.969
 21
1442.944
 31
0.0
  0
LINE
  5
4C4
  8
5
  6
CONTINUOUS
 10
2296.555
 20
1442.944
 30
0.0
 11
2314.233
 21
1425.267
 31
0.0
  0
LINE
  5
4C5
  8
5
  6
CONTINUOUS
 10
2314.233
 20
1425.267
 30
0.0
 11
2305.761
 21
1411.166
 31
0.0
  0
LINE
  5
4C6
  8
5
  6
CONTINUOUS
 10
2283.683
 20
1433.244
 30
0.0
 11
2296.555
 21
1442.944
 31
0.0
  0
LINE
  5
4C7
  8
5
  6
CONTINUOUS
 10
1902.841
 20
1433.244
 30
0.0
 11
1880.763
 21
1411.166
 31
0.0
  0
LINE
  5
4C8
  8
5
  6
CONTINUOUS
 10
2305.761
 20
1411.166
 30
0.0
 11
2283.683
 21
1433.244
 31
0.0
  0
LINE
  5
4C9
  8
5
  6
CONTINUOUS
 10
2213.262
 20
1474.973
 30
0.0
 11
2213.46
 21
1469.314
 31
0.0
  0
LINE
  5
4E1
  8
7
  6
DASHED
 10
896.5958
 20
1462.193
 30
0.0
 11
878.5958
 21
1462.193
 31
0.0
  0
LINE
  5
4E2
  8
7
  6
DASHED
 10
896.5958
 20
1443.682
 30
0.0
 11
878.5958
 21
1443.693
 31
0.0
  0
LINE
  5
4E3
  8
7
  6
DASHED
 10
896.5958
 20
1000.254
 30
0.0
 11
878.5958
 21
1000.254
 31
0.0
  0
LINE
  5
4E4
  8
7
  6
DASHED
 10
896.5958
 20
981.7534
 30
0.0
 11
878.5958
 21
981.7534
 31
0.0
  0
LINE
  5
4E5
  8
7
  6
DASHED
 10
896.5958
 20
643.3264
 30
0.0
 11
878.5958
 21
643.3264
 31
0.0
  0
LINE
  5
4E6
  8
7
  6
DASHED
 10
896.5958
 20
624.8266
 30
0.0
 11
878.5958
 21
624.8266
 31
0.0
  0
LINE
  5
4E7
  8
7
  6
DASHED
 10
896.5958
 20
489.5276
 30
0.0
 11
878.5958
 21
489.5276
 31
0.0
  0
LINE
  5
4E8
  8
7
  6
DASHED
 10
896.5958
 20
508.0275
 30
0.0
 11
878.5958
 21
508.0275
 31
0.0
  0
LINE
  5
4E9
  8
7
  6
DASHED
 10
896.5958
 20
316.6859
 30
0.0
 11
878.5958
 21
316.6859
 31
0.0
  0
LINE
  5
4EA
  8
7
  6
DASHED
 10
896.5958
 20
298.1857
 30
0.0
 11
878.5958
 21
298.1857
 31
0.0
  0
LINE
  5
4EB
  8
7
  6
DASHED
 10
896.5958
 20
181.3867
 30
0.0
 11
878.5958
 21
181.3867
 31
0.0
  0
LINE
  5
4EC
  8
7
  6
DASHED
 10
896.5958
 20
162.8868
 30
0.0
 11
878.5958
 21
162.8868
 31
0.0
  0
LINE
  5
4ED
  8
7
  6
DASHED
 10
896.5958
 20
1117.052
 30
0.0
 11
878.5958
 21
1117.052
 31
0.0
  0
LINE
  5
4EE
  8
7
  6
DASHED
 10
896.5958
 20
1135.552
 30
0.0
 11
878.5958
 21
1135.552
 31
0.0
  0
LINE
  5
4EF
  8
7
  6
DASHED
 10
896.5958
 20
1326.894
 30
0.0
 11
878.5958
 21
1326.894
 31
0.0
  0
LINE
  5
4F0
  8
7
  6
DASHED
 10
896.5958
 20
1308.394
 30
0.0
 11
878.5958
 21
1308.394
 31
0.0
  0
LINE
  5
4F1
  8
6
  6
CENTER
 10
904.0958
 20
1126.302
 30
0.0
 11
866.0958
 21
1126.302
 31
0.0
  0
LINE
  5
4F2
  8
6
  6
CENTER
 10
904.0958
 20
991.0035
 30
0.0
 11
866.0958
 21
991.0035
 31
0.0
  0
LINE
  5
4F3
  8
6
  6
CENTER
 10
904.0958
 20
1317.644
 30
0.0
 11
866.0958
 21
1317.644
 31
0.0
  0
LINE
  5
4F4
  8
6
  6
CENTER
 10
904.0958
 20
1452.927
 30
0.0
 11
866.0958
 21
1452.951
 31
0.0
  0
LINE
  5
4F5
  8
6
  6
CENTER
 10
904.0958
 20
172.1368
 30
0.0
 11
866.0958
 21
172.1368
 31
0.0
  0
LINE
  5
4F6
  8
6
  6
CENTER
 10
904.0958
 20
307.4357
 30
0.0
 11
866.0958
 21
307.4357
 31
0.0
  0
LINE
  5
4F7
  8
6
  6
CENTER
 10
904.0958
 20
498.7776
 30
0.0
 11
866.0958
 21
498.7776
 31
0.0
  0
LINE
  5
4F8
  8
6
  6
CENTER
 10
904.0958
 20
634.0766
 30
0.0
 11
866.0958
 21
634.0766
 31
0.0
  0
ARC
  5
4F9
  8
6
  6
CENTER
 10
2093.262
 20
1221.973
 30
0.0
 40
250.0
 50
18.08247
 51
26.72072
  0
LINE
  5
4FA
  8
6
  6
CENTER
 10
2308.526
 20
1311.139
 30
0.0
 11
2337.397
 21
1323.097
 31
0.0
  0
ARC
  5
4FB
  8
6
  6
CENTER
 10
2093.262
 20
1221.973
 30
0.0
 40
250.0
 50
332.1428
 51
342.1568
  0
LINE
  5
4FC
  8
6
  6
CENTER
 10
2308.526
 20
1132.808
 30
0.0
 11
2337.397
 21
1120.849
 31
0.0
  0
ARC
  5
4FD
  8
6
  6
CENTER
 10
2093.262
 20
1221.973
 30
0.0
 40
250.0
 50
287.8131
 51
296.6789
  0
LINE
  5
4FE
  8
6
  6
CENTER
 10
2182.427
 20
1006.709
 30
0.0
 11
2194.386
 21
977.8381
 31
0.0
  0
ARC
  5
4FF
  8
6
  6
CENTER
 10
2093.262
 20
1221.973
 30
0.0
 40
250.0
 50
241.9338
 51
252.2748
  0
LINE
  5
500
  8
6
  6
CENTER
 10
2004.097
 20
1006.709
 30
0.0
 11
1992.138
 21
977.8381
 31
0.0
  0
ARC
  5
501
  8
6
  6
CENTER
 10
2093.262
 20
1221.973
 30
0.0
 40
250.0
 50
197.0444
 51
207.5812
  0
LINE
  5
502
  8
6
  6
CENTER
 10
1877.998
 20
1132.808
 30
0.0
 11
1849.127
 21
1120.849
 31
0.0
  0
ARC
  5
503
  8
6
  6
CENTER
 10
2093.262
 20
1221.973
 30
0.0
 40
250.0
 50
153.0924
 51
162.2464
  0
LINE
  5
504
  8
6
  6
CENTER
 10
1877.998
 20
1311.139
 30
0.0
 11
1849.127
 21
1323.097
 31
0.0
  0
ARC
  5
505
  8
6
  6
CENTER
 10
2093.262
 20
1221.973
 30
0.0
 40
250.0
 50
107.7805
 51
117.2171
  0
LINE
  5
506
  8
6
  6
CENTER
 10
2004.097
 20
1437.237
 30
0.0
 11
1992.138
 21
1466.108
 31
0.0
  0
ARC
  5
507
  8
6
  6
CENTER
 10
2093.262
 20
1221.973
 30
0.0
 40
250.0
 50
62.77481
 51
71.76192
  0
LINE
  5
508
  8
6
  6
CENTER
 10
2182.427
 20
1437.237
 30
0.0
 11
2194.386
 21
1466.108
 31
0.0
  0
LINE
  5
509
  8
5
  6
CONTINUOUS
 10
1910.51
 20
1427.465
 30
0.0
 11
1902.841
 21
1433.244
 31
0.0
  0
LINE
  5
50E
  8
5
  6
CONTINUOUS
 10
2276.014
 20
1427.465
 30
0.0
 11
2283.683
 21
1433.244
 31
0.0
  0
LINE
  5
50F
  8
5
  6
CONTINUOUS
 10
1973.064
 20
1469.314
 30
0.0
 11
1973.262
 21
1474.973
 31
0.0
  0
ARC
  5
512
  8
5
  6
CENTER
 10
2093.262
 20
1221.973
 30
0.0
 40
250.0
 50
22.35838
 51
22.68099
  0
LINE
  5
513
  8
6
  6
CENTER
 10
713.5958
 20
1221.973
 30
0.0
 11
1638.596
 21
1221.973
 31
0.0
  0
LINE
  5
51B
  8
0
  6
CONTINUOUS
 10
748.596
 20
1254.473
 30
0.0
 11
757.5957
 21
1253.202
 31
0.0
  0
LINE
  5
51C
  8
0
  6
CONTINUOUS
 10
868.5957
 20
1254.473
 30
0.0
 11
859.5958
 21
1253.202
 31
0.0
  0
LINE
  5
51F
  8
6
  6
CENTER
 10
1011.588
 20
403.106507
 30
0.0
 11
713.5958
 21
403.1067
 31
0.0
  0
ARC
  5
520
  8
5
  6
CONTINUOUS
 10
1098.449373
 20
1608.418141
 30
0.0
 40
7.45678
 50
0.002581
 51
90.00258
  0
ARC
  5
521
  8
5
  6
CONTINUOUS
 10
1096.284373
 20
1609.309741
 30
0.0
 40
9.662929
 50
283.5587
 51
354.7079
  0
ARC
  5
522
  8
5
  6
CONTINUOUS
 10
1097.031373
 20
1587.988441
 30
0.0
 40
12.0238
 50
57.16557
 51
82.7483
  0
LINE
  5
523
  8
5
  6
CONTINUOUS
 10
1095.019373
 20
1598.090841
 30
0.0
 11
1103.551373
 21
1598.091341
 31
0.0
  0
ARC
  5
524
  8
5
  6
CONTINUOUS
 10
1098.449373
 20
1588.564141
 30
0.0
 40
10.59176
 50
270.0024
 51
0.0026
  0
LINE
  5
525
  8
5
  6
CONTINUOUS
 10
1105.431373
 20
1596.591341
 30
0.0
 11
1095.019373
 21
1596.590941
 31
0.0
  0
LINE
  5
526
  8
5
  6
CONTINUOUS
 10
1095.019373
 20
1596.590941
 30
0.0
 11
1095.020373
 21
1577.972141
 31
0.0
  0
LINE
  5
527
  8
5
  6
CONTINUOUS
 10
1093.520373
 20
1577.972141
 30
0.0
 11
1093.519373
 21
1596.590841
 31
0.0
  0
LINE
  5
528
  8
5
  6
CONTINUOUS
 10
1083.677373
 20
1596.590441
 30
0.0
 11
1083.678373
 21
1577.971641
 31
0.0
  0
LINE
  5
529
  8
5
  6
CONTINUOUS
 10
1076.330373
 20
1577.971341
 30
0.0
 11
1069.683373
 21
1596.589841
 31
0.0
  0
LINE
  5
52A
  8
5
  6
CONTINUOUS
 10
1066.801373
 20
1585.654741
 30
0.0
 11
1069.544373
 21
1577.971041
 31
0.0
  0
LINE
  5
52B
  8
5
  6
CONTINUOUS
 10
1046.352373
 20
1577.969941
 30
0.0
 11
1048.988373
 21
1585.653941
 31
0.0
  0
LINE
  5
52C
  8
5
  6
CONTINUOUS
 10
1046.409373
 20
1596.588741
 30
0.0
 11
1040.022373
 21
1577.969741
 31
0.0
  0
LINE
  5
52D
  8
5
  6
CONTINUOUS
 10
1040.022373
 20
1577.969741
 30
0.0
 11
1046.352373
 21
1577.969941
 31
0.0
  0
LINE
  5
52E
  8
5
  6
CONTINUOUS
 10
1069.544373
 20
1577.971041
 30
0.0
 11
1076.330373
 21
1577.971341
 31
0.0
  0
LINE
  5
52F
  8
5
  6
CONTINUOUS
 10
1095.020373
 20
1577.972141
 30
0.0
 11
1098.450373
 21
1577.972341
 31
0.0
  0
LINE
  5
530
  8
5
  6
CONTINUOUS
 10
1083.678373
 20
1577.971641
 30
0.0
 11
1093.520373
 21
1577.972141
 31
0.0
  0
LINE
  5
531
  8
5
  6
CONTINUOUS
 10
1048.988373
 20
1585.653941
 30
0.0
 11
1057.163373
 21
1585.654241
 31
0.0
  0
LINE
  5
532
  8
5
  6
CONTINUOUS
 10
1057.162373
 20
1596.589141
 30
0.0
 11
1046.409373
 21
1596.588741
 31
0.0
  0
LINE
  5
533
  8
5
  6
CONTINUOUS
 10
1046.923373
 20
1598.088641
 30
0.0
 11
1057.162373
 21
1598.089341
 31
0.0
  0
LINE
  5
534
  8
5
  6
CONTINUOUS
 10
1053.023373
 20
1615.872941
 30
0.0
 11
1046.923373
 21
1598.088641
 31
0.0
  0
LINE
  5
535
  8
5
  6
CONTINUOUS
 10
1095.018373
 20
1615.874741
 30
0.0
 11
1095.019373
 21
1598.090841
 31
0.0
  0
LINE
  5
536
  8
5
  6
CONTINUOUS
 10
1093.519373
 20
1598.090841
 30
0.0
 11
1093.518373
 21
1615.874641
 31
0.0
  0
LINE
  5
537
  8
5
  6
CONTINUOUS
 10
1083.676373
 20
1615.874241
 30
0.0
 11
1083.677373
 21
1598.090441
 31
0.0
  0
LINE
  5
538
  8
5
  6
CONTINUOUS
 10
1058.661373
 20
1615.873141
 30
0.0
 11
1058.662373
 21
1598.089341
 31
0.0
  0
LINE
  5
539
  8
5
  6
CONTINUOUS
 10
1069.148373
 20
1598.089741
 30
0.0
 11
1062.799373
 21
1615.873241
 31
0.0
  0
LINE
  5
53A
  8
5
  6
CONTINUOUS
 10
1057.162373
 20
1598.089341
 30
0.0
 11
1057.161373
 21
1615.872941
 31
0.0
  0
LINE
  5
53B
  8
5
  6
CONTINUOUS
 10
1058.663373
 20
1585.654241
 30
0.0
 11
1066.801373
 21
1585.654741
 31
0.0
  0
LINE
  5
53C
  8
5
  6
CONTINUOUS
 10
1058.662373
 20
1596.589341
 30
0.0
 11
1058.663373
 21
1585.654241
 31
0.0
  0
LINE
  5
53D
  8
5
  6
CONTINUOUS
 10
1069.683373
 20
1596.589841
 30
0.0
 11
1058.662373
 21
1596.589341
 31
0.0
  0
LINE
  5
53E
  8
5
  6
CONTINUOUS
 10
1058.662373
 20
1598.089341
 30
0.0
 11
1069.148373
 21
1598.089741
 31
0.0
  0
LINE
  5
53F
  8
5
  6
CONTINUOUS
 10
1057.163373
 20
1585.654241
 30
0.0
 11
1057.162373
 21
1596.589141
 31
0.0
  0
LINE
  5
540
  8
5
  6
CONTINUOUS
 10
1093.519373
 20
1596.590841
 30
0.0
 11
1083.677373
 21
1596.590441
 31
0.0
  0
LINE
  5
541
  8
5
  6
CONTINUOUS
 10
1083.677373
 20
1598.090441
 30
0.0
 11
1093.519373
 21
1598.090841
 31
0.0
  0
LINE
  5
542
  8
5
  6
CONTINUOUS
 10
1062.799373
 20
1615.873241
 30
0.0
 11
1058.661373
 21
1615.873141
 31
0.0
  0
LINE
  5
543
  8
5
  6
CONTINUOUS
 10
1057.161373
 20
1615.872941
 30
0.0
 11
1053.023373
 21
1615.872941
 31
0.0
  0
LINE
  5
544
  8
5
  6
CONTINUOUS
 10
1098.448373
 20
1615.874841
 30
0.0
 11
1095.018373
 21
1615.874741
 31
0.0
  0
LINE
  5
545
  8
5
  6
CONTINUOUS
 10
1093.518373
 20
1615.874641
 30
0.0
 11
1083.676373
 21
1615.874241
 31
0.0
  0
LINE
  5
546
  8
5
  6
CONTINUOUS
 10
1126.124373
 20
1577.973641
 30
0.0
 11
1126.123373
 21
1596.592241
 31
0.0
  0
LINE
  5
547
  8
5
  6
CONTINUOUS
 10
1116.281373
 20
1596.591841
 30
0.0
 11
1116.282373
 21
1577.973241
 31
0.0
  0
ARC
  5
548
  8
5
  6
CONTINUOUS
 10
1131.053373
 20
1588.565541
 30
0.0
 40
10.59169
 50
270.0025
 51
0.0026
  0
LINE
  5
549
  8
5
  6
CONTINUOUS
 10
1127.623373
 20
1596.592441
 30
0.0
 11
1127.624373
 21
1577.973641
 31
0.0
  0
LINE
  5
54A
  8
5
  6
CONTINUOUS
 10
1116.282373
 20
1577.973241
 30
0.0
 11
1126.124373
 21
1577.973641
 31
0.0
  0
LINE
  5
54B
  8
5
  6
CONTINUOUS
 10
1127.624373
 20
1577.973641
 30
0.0
 11
1131.054373
 21
1577.973841
 31
0.0
  0
LINE
  5
54C
  8
5
  6
CONTINUOUS
 10
1127.622373
 20
1615.876241
 30
0.0
 11
1127.623373
 21
1598.092441
 31
0.0
  0
ARC
  5
54D
  8
5
  6
CONTINUOUS
 10
1131.053373
 20
1608.419541
 30
0.0
 40
7.45678
 50
0.002581
 51
90.00258
  0
LINE
  5
54E
  8
5
  6
CONTINUOUS
 10
1116.280373
 20
1615.875741
 30
0.0
 11
1116.281373
 21
1598.092041
 31
0.0
  0
LINE
  5
54F
  8
5
  6
CONTINUOUS
 10
1126.123373
 20
1598.092441
 30
0.0
 11
1126.122373
 21
1615.876041
 31
0.0
  0
LINE
  5
550
  8
5
  6
CONTINUOUS
 10
1116.281373
 20
1596.591841
 30
0.0
 11
1126.123373
 21
1596.592241
 31
0.0
  0
LINE
  5
551
  8
5
  6
CONTINUOUS
 10
1116.281373
 20
1598.092041
 30
0.0
 11
1126.123373
 21
1598.092441
 31
0.0
  0
ARC
  5
552
  8
5
  6
CONTINUOUS
 10
1097.031373
 20
1587.988441
 30
0.0
 40
12.0238
 50
2.746474
 51
45.68326
  0
LINE
  5
553
  8
5
  6
CONTINUOUS
 10
1138.035373
 20
1596.592841
 30
0.0
 11
1127.623373
 21
1596.592441
 31
0.0
  0
ARC
  5
554
  8
5
  6
CONTINUOUS
 10
1129.635373
 20
1587.989941
 30
0.0
 40
12.0238
 50
2.746474
 51
45.68383
  0
ARC
  5
555
  8
5
  6
CONTINUOUS
 10
1128.888373
 20
1609.311141
 30
0.0
 40
9.662929
 50
283.5587
 51
354.7079
  0
ARC
  5
556
  8
5
  6
CONTINUOUS
 10
1129.635373
 20
1587.989941
 30
0.0
 40
12.02387
 50
57.16567
 51
82.7483
  0
LINE
  5
557
  8
5
  6
CONTINUOUS
 10
1127.623373
 20
1598.092441
 30
0.0
 11
1136.155373
 21
1598.092841
 31
0.0
  0
LINE
  5
558
  8
5
  6
CONTINUOUS
 10
1126.122373
 20
1615.876041
 30
0.0
 11
1116.280373
 21
1615.875741
 31
0.0
  0
LINE
  5
559
  8
5
  6
CONTINUOUS
 10
1131.052373
 20
1615.876341
 30
0.0
 11
1127.622373
 21
1615.876241
 31
0.0
  0
ARC
  5
55A
  8
5
  6
CONTINUOUS
 10
455.104331
 20
1267.57512
 30
0.0
 40
7.45678
 50
0.002581
 51
90.00258
  0
ARC
  5
55B
  8
5
  6
CONTINUOUS
 10
452.939331
 20
1268.46672
 30
0.0
 40
9.662929
 50
283.5587
 51
354.7079
  0
ARC
  5
55C
  8
5
  6
CONTINUOUS
 10
453.686331
 20
1247.14542
 30
0.0
 40
12.0238
 50
57.16557
 51
82.7483
  0
LINE
  5
55D
  8
5
  6
CONTINUOUS
 10
451.674331
 20
1257.24782
 30
0.0
 11
460.206331
 21
1257.24832
 31
0.0
  0
ARC
  5
55E
  8
5
  6
CONTINUOUS
 10
455.104331
 20
1247.72112
 30
0.0
 40
10.59176
 50
270.0024
 51
0.0026
  0
LINE
  5
55F
  8
5
  6
CONTINUOUS
 10
462.086331
 20
1255.74832
 30
0.0
 11
451.674331
 21
1255.74792
 31
0.0
  0
LINE
  5
560
  8
5
  6
CONTINUOUS
 10
451.674331
 20
1255.74792
 30
0.0
 11
451.675331
 21
1237.12912
 31
0.0
  0
LINE
  5
561
  8
5
  6
CONTINUOUS
 10
450.175331
 20
1237.12912
 30
0.0
 11
450.174331
 21
1255.74782
 31
0.0
  0
LINE
  5
562
  8
5
  6
CONTINUOUS
 10
440.332331
 20
1255.74742
 30
0.0
 11
440.333331
 21
1237.12862
 31
0.0
  0
LINE
  5
563
  8
5
  6
CONTINUOUS
 10
432.985331
 20
1237.12832
 30
0.0
 11
426.338331
 21
1255.74682
 31
0.0
  0
LINE
  5
564
  8
5
  6
CONTINUOUS
 10
423.456331
 20
1244.81172
 30
0.0
 11
426.199331
 21
1237.12802
 31
0.0
  0
LINE
  5
565
  8
5
  6
CONTINUOUS
 10
403.007331
 20
1237.12692
 30
0.0
 11
405.643331
 21
1244.81092
 31
0.0
  0
LINE
  5
566
  8
5
  6
CONTINUOUS
 10
403.064331
 20
1255.74572
 30
0.0
 11
396.677331
 21
1237.12672
 31
0.0
  0
LINE
  5
567
  8
5
  6
CONTINUOUS
 10
396.677331
 20
1237.12672
 30
0.0
 11
403.007331
 21
1237.12692
 31
0.0
  0
LINE
  5
568
  8
5
  6
CONTINUOUS
 10
426.199331
 20
1237.12802
 30
0.0
 11
432.985331
 21
1237.12832
 31
0.0
  0
LINE
  5
569
  8
5
  6
CONTINUOUS
 10
451.675331
 20
1237.12912
 30
0.0
 11
455.105331
 21
1237.12932
 31
0.0
  0
LINE
  5
56A
  8
5
  6
CONTINUOUS
 10
440.333331
 20
1237.12862
 30
0.0
 11
450.175331
 21
1237.12912
 31
0.0
  0
LINE
  5
56B
  8
5
  6
CONTINUOUS
 10
405.643331
 20
1244.81092
 30
0.0
 11
413.818331
 21
1244.81122
 31
0.0
  0
LINE
  5
56C
  8
5
  6
CONTINUOUS
 10
413.817331
 20
1255.74612
 30
0.0
 11
403.064331
 21
1255.74572
 31
0.0
  0
LINE
  5
56D
  8
5
  6
CONTINUOUS
 10
403.578331
 20
1257.24562
 30
0.0
 11
413.817331
 21
1257.24632
 31
0.0
  0
LINE
  5
56E
  8
5
  6
CONTINUOUS
 10
409.678331
 20
1275.02992
 30
0.0
 11
403.578331
 21
1257.24562
 31
0.0
  0
LINE
  5
56F
  8
5
  6
CONTINUOUS
 10
451.673331
 20
1275.03172
 30
0.0
 11
451.674331
 21
1257.24782
 31
0.0
  0
LINE
  5
570
  8
5
  6
CONTINUOUS
 10
450.174331
 20
1257.24782
 30
0.0
 11
450.173331
 21
1275.03162
 31
0.0
  0
LINE
  5
571
  8
5
  6
CONTINUOUS
 10
440.331331
 20
1275.03122
 30
0.0
 11
440.332331
 21
1257.24742
 31
0.0
  0
LINE
  5
572
  8
5
  6
CONTINUOUS
 10
415.316331
 20
1275.03012
 30
0.0
 11
415.317331
 21
1257.24632
 31
0.0
  0
LINE
  5
573
  8
5
  6
CONTINUOUS
 10
425.803331
 20
1257.24672
 30
0.0
 11
419.454331
 21
1275.03022
 31
0.0
  0
LINE
  5
574
  8
5
  6
CONTINUOUS
 10
413.817331
 20
1257.24632
 30
0.0
 11
413.816331
 21
1275.02992
 31
0.0
  0
LINE
  5
575
  8
5
  6
CONTINUOUS
 10
415.318331
 20
1244.81122
 30
0.0
 11
423.456331
 21
1244.81172
 31
0.0
  0
LINE
  5
576
  8
5
  6
CONTINUOUS
 10
415.317331
 20
1255.74632
 30
0.0
 11
415.318331
 21
1244.81122
 31
0.0
  0
LINE
  5
577
  8
5
  6
CONTINUOUS
 10
426.338331
 20
1255.74682
 30
0.0
 11
415.317331
 21
1255.74632
 31
0.0
  0
LINE
  5
578
  8
5
  6
CONTINUOUS
 10
415.317331
 20
1257.24632
 30
0.0
 11
425.803331
 21
1257.24672
 31
0.0
  0
LINE
  5
579
  8
5
  6
CONTINUOUS
 10
413.818331
 20
1244.81122
 30
0.0
 11
413.817331
 21
1255.74612
 31
0.0
  0
LINE
  5
57A
  8
5
  6
CONTINUOUS
 10
450.174331
 20
1255.74782
 30
0.0
 11
440.332331
 21
1255.74742
 31
0.0
  0
LINE
  5
57B
  8
5
  6
CONTINUOUS
 10
440.332331
 20
1257.24742
 30
0.0
 11
450.174331
 21
1257.24782
 31
0.0
  0
LINE
  5
57C
  8
5
  6
CONTINUOUS
 10
419.454331
 20
1275.03022
 30
0.0
 11
415.316331
 21
1275.03012
 31
0.0
  0
LINE
  5
57D
  8
5
  6
CONTINUOUS
 10
413.816331
 20
1275.02992
 30
0.0
 11
409.678331
 21
1275.02992
 31
0.0
  0
LINE
  5
57E
  8
5
  6
CONTINUOUS
 10
455.103331
 20
1275.03182
 30
0.0
 11
451.673331
 21
1275.03172
 31
0.0
  0
LINE
  5
57F
  8
5
  6
CONTINUOUS
 10
450.173331
 20
1275.03162
 30
0.0
 11
440.331331
 21
1275.03122
 31
0.0
  0
LINE
  5
580
  8
5
  6
CONTINUOUS
 10
482.779331
 20
1237.13062
 30
0.0
 11
482.778331
 21
1255.74922
 31
0.0
  0
LINE
  5
581
  8
5
  6
CONTINUOUS
 10
472.936331
 20
1255.74882
 30
0.0
 11
472.937331
 21
1237.13022
 31
0.0
  0
ARC
  5
582
  8
5
  6
CONTINUOUS
 10
487.708331
 20
1247.72252
 30
0.0
 40
10.59169
 50
270.0025
 51
0.0026
  0
LINE
  5
583
  8
5
  6
CONTINUOUS
 10
484.278331
 20
1255.74942
 30
0.0
 11
484.279331
 21
1237.13062
 31
0.0
  0
LINE
  5
584
  8
5
  6
CONTINUOUS
 10
472.937331
 20
1237.13022
 30
0.0
 11
482.779331
 21
1237.13062
 31
0.0
  0
LINE
  5
585
  8
5
  6
CONTINUOUS
 10
484.279331
 20
1237.13062
 30
0.0
 11
487.709331
 21
1237.13082
 31
0.0
  0
LINE
  5
586
  8
5
  6
CONTINUOUS
 10
484.277331
 20
1275.03322
 30
0.0
 11
484.278331
 21
1257.24942
 31
0.0
  0
ARC
  5
587
  8
5
  6
CONTINUOUS
 10
487.708331
 20
1267.57652
 30
0.0
 40
7.45678
 50
0.002581
 51
90.00258
  0
LINE
  5
588
  8
5
  6
CONTINUOUS
 10
472.935331
 20
1275.03272
 30
0.0
 11
472.936331
 21
1257.24902
 31
0.0
  0
LINE
  5
589
  8
5
  6
CONTINUOUS
 10
482.778331
 20
1257.24942
 30
0.0
 11
482.777331
 21
1275.03302
 31
0.0
  0
LINE
  5
58A
  8
5
  6
CONTINUOUS
 10
472.936331
 20
1255.74882
 30
0.0
 11
482.778331
 21
1255.74922
 31
0.0
  0
LINE
  5
58B
  8
5
  6
CONTINUOUS
 10
472.936331
 20
1257.24902
 30
0.0
 11
482.778331
 21
1257.24942
 31
0.0
  0
ARC
  5
58C
  8
5
  6
CONTINUOUS
 10
453.686331
 20
1247.14542
 30
0.0
 40
12.0238
 50
2.746474
 51
45.68326
  0
LINE
  5
58D
  8
5
  6
CONTINUOUS
 10
494.690331
 20
1255.74982
 30
0.0
 11
484.278331
 21
1255.74942
 31
0.0
  0
ARC
  5
58E
  8
5
  6
CONTINUOUS
 10
486.290331
 20
1247.14692
 30
0.0
 40
12.0238
 50
2.746474
 51
45.68383
  0
ARC
  5
58F
  8
5
  6
CONTINUOUS
 10
485.543331
 20
1268.46812
 30
0.0
 40
9.662929
 50
283.5587
 51
354.7079
  0
ARC
  5
590
  8
5
  6
CONTINUOUS
 10
486.290331
 20
1247.14692
 30
0.0
 40
12.02387
 50
57.16567
 51
82.7483
  0
LINE
  5
591
  8
5
  6
CONTINUOUS
 10
484.278331
 20
1257.24942
 30
0.0
 11
492.810331
 21
1257.24982
 31
0.0
  0
LINE
  5
592
  8
5
  6
CONTINUOUS
 10
482.777331
 20
1275.03302
 30
0.0
 11
472.935331
 21
1275.03272
 31
0.0
  0
LINE
  5
593
  8
5
  6
CONTINUOUS
 10
487.707331
 20
1275.03332
 30
0.0
 11
484.277331
 21
1275.03322
 31
0.0
  0
ARC
  5
594
  8
5
  6
CONTINUOUS
 10
2101.261363
 20
1594.985908
 30
0.0
 40
7.45678
 50
0.002581
 51
90.00258
  0
ARC
  5
595
  8
5
  6
CONTINUOUS
 10
2099.096363
 20
1595.877508
 30
0.0
 40
9.662929
 50
283.5587
 51
354.7079
  0
ARC
  5
596
  8
5
  6
CONTINUOUS
 10
2099.843363
 20
1574.556208
 30
0.0
 40
12.0238
 50
57.16557
 51
82.7483
  0
LINE
  5
597
  8
5
  6
CONTINUOUS
 10
2097.831363
 20
1584.658608
 30
0.0
 11
2106.363363
 21
1584.659108
 31
0.0
  0
ARC
  5
598
  8
5
  6
CONTINUOUS
 10
2101.261363
 20
1575.131908
 30
0.0
 40
10.59176
 50
270.0024
 51
0.0026
  0
LINE
  5
599
  8
5
  6
CONTINUOUS
 10
2108.243363
 20
1583.159108
 30
0.0
 11
2097.831363
 21
1583.158708
 31
0.0
  0
LINE
  5
59A
  8
5
  6
CONTINUOUS
 10
2097.831363
 20
1583.158708
 30
0.0
 11
2097.832363
 21
1564.539908
 31
0.0
  0
LINE
  5
59B
  8
5
  6
CONTINUOUS
 10
2096.332363
 20
1564.539908
 30
0.0
 11
2096.331363
 21
1583.158608
 31
0.0
  0
LINE
  5
59C
  8
5
  6
CONTINUOUS
 10
2086.489363
 20
1583.158208
 30
0.0
 11
2086.490363
 21
1564.539408
 31
0.0
  0
LINE
  5
59D
  8
5
  6
CONTINUOUS
 10
2079.142363
 20
1564.539108
 30
0.0
 11
2072.495363
 21
1583.157608
 31
0.0
  0
LINE
  5
59E
  8
5
  6
CONTINUOUS
 10
2069.613363
 20
1572.222508
 30
0.0
 11
2072.356363
 21
1564.538808
 31
0.0
  0
LINE
  5
59F
  8
5
  6
CONTINUOUS
 10
2049.164363
 20
1564.537708
 30
0.0
 11
2051.800363
 21
1572.221708
 31
0.0
  0
LINE
  5
5A0
  8
5
  6
CONTINUOUS
 10
2049.221363
 20
1583.156508
 30
0.0
 11
2042.834363
 21
1564.537508
 31
0.0
  0
LINE
  5
5A1
  8
5
  6
CONTINUOUS
 10
2042.834363
 20
1564.537508
 30
0.0
 11
2049.164363
 21
1564.537708
 31
0.0
  0
LINE
  5
5A2
  8
5
  6
CONTINUOUS
 10
2072.356363
 20
1564.538808
 30
0.0
 11
2079.142363
 21
1564.539108
 31
0.0
  0
LINE
  5
5A3
  8
5
  6
CONTINUOUS
 10
2097.832363
 20
1564.539908
 30
0.0
 11
2101.262363
 21
1564.540108
 31
0.0
  0
LINE
  5
5A4
  8
5
  6
CONTINUOUS
 10
2086.490363
 20
1564.539408
 30
0.0
 11
2096.332363
 21
1564.539908
 31
0.0
  0
LINE
  5
5A5
  8
5
  6
CONTINUOUS
 10
2051.800363
 20
1572.221708
 30
0.0
 11
2059.975363
 21
1572.222008
 31
0.0
  0
LINE
  5
5A6
  8
5
  6
CONTINUOUS
 10
2059.974363
 20
1583.156908
 30
0.0
 11
2049.221363
 21
1583.156508
 31
0.0
  0
LINE
  5
5A7
  8
5
  6
CONTINUOUS
 10
2049.735363
 20
1584.656408
 30
0.0
 11
2059.974363
 21
1584.657108
 31
0.0
  0
LINE
  5
5A8
  8
5
  6
CONTINUOUS
 10
2055.835363
 20
1602.440708
 30
0.0
 11
2049.735363
 21
1584.656408
 31
0.0
  0
LINE
  5
5A9
  8
5
  6
CONTINUOUS
 10
2097.830363
 20
1602.442508
 30
0.0
 11
2097.831363
 21
1584.658608
 31
0.0
  0
LINE
  5
5AA
  8
5
  6
CONTINUOUS
 10
2096.331363
 20
1584.658608
 30
0.0
 11
2096.330363
 21
1602.442408
 31
0.0
  0
LINE
  5
5AB
  8
5
  6
CONTINUOUS
 10
2086.488363
 20
1602.442008
 30
0.0
 11
2086.489363
 21
1584.658208
 31
0.0
  0
LINE
  5
5AC
  8
5
  6
CONTINUOUS
 10
2061.473363
 20
1602.440908
 30
0.0
 11
2061.474363
 21
1584.657108
 31
0.0
  0
LINE
  5
5AD
  8
5
  6
CONTINUOUS
 10
2071.960363
 20
1584.657508
 30
0.0
 11
2065.611363
 21
1602.441008
 31
0.0
  0
LINE
  5
5AE
  8
5
  6
CONTINUOUS
 10
2059.974363
 20
1584.657108
 30
0.0
 11
2059.973363
 21
1602.440708
 31
0.0
  0
LINE
  5
5AF
  8
5
  6
CONTINUOUS
 10
2061.475363
 20
1572.222008
 30
0.0
 11
2069.613363
 21
1572.222508
 31
0.0
  0
LINE
  5
5B0
  8
5
  6
CONTINUOUS
 10
2061.474363
 20
1583.157108
 30
0.0
 11
2061.475363
 21
1572.222008
 31
0.0
  0
LINE
  5
5B1
  8
5
  6
CONTINUOUS
 10
2072.495363
 20
1583.157608
 30
0.0
 11
2061.474363
 21
1583.157108
 31
0.0
  0
LINE
  5
5B2
  8
5
  6
CONTINUOUS
 10
2061.474363
 20
1584.657108
 30
0.0
 11
2071.960363
 21
1584.657508
 31
0.0
  0
LINE
  5
5B3
  8
5
  6
CONTINUOUS
 10
2059.975363
 20
1572.222008
 30
0.0
 11
2059.974363
 21
1583.156908
 31
0.0
  0
LINE
  5
5B4
  8
5
  6
CONTINUOUS
 10
2096.331363
 20
1583.158608
 30
0.0
 11
2086.489363
 21
1583.158208
 31
0.0
  0
LINE
  5
5B5
  8
5
  6
CONTINUOUS
 10
2086.489363
 20
1584.658208
 30
0.0
 11
2096.331363
 21
1584.658608
 31
0.0
  0
LINE
  5
5B6
  8
5
  6
CONTINUOUS
 10
2065.611363
 20
1602.441008
 30
0.0
 11
2061.473363
 21
1602.440908
 31
0.0
  0
LINE
  5
5B7
  8
5
  6
CONTINUOUS
 10
2059.973363
 20
1602.440708
 30
0.0
 11
2055.835363
 21
1602.440708
 31
0.0
  0
LINE
  5
5B8
  8
5
  6
CONTINUOUS
 10
2101.260363
 20
1602.442608
 30
0.0
 11
2097.830363
 21
1602.442508
 31
0.0
  0
LINE
  5
5B9
  8
5
  6
CONTINUOUS
 10
2096.330363
 20
1602.442408
 30
0.0
 11
2086.488363
 21
1602.442008
 31
0.0
  0
LINE
  5
5BA
  8
5
  6
CONTINUOUS
 10
2128.936363
 20
1564.541408
 30
0.0
 11
2128.935363
 21
1583.160008
 31
0.0
  0
LINE
  5
5BB
  8
5
  6
CONTINUOUS
 10
2119.093363
 20
1583.159608
 30
0.0
 11
2119.094363
 21
1564.541008
 31
0.0
  0
ARC
  5
5BC
  8
5
  6
CONTINUOUS
 10
2133.865363
 20
1575.133308
 30
0.0
 40
10.59169
 50
270.0025
 51
0.0026
  0
LINE
  5
5BD
  8
5
  6
CONTINUOUS
 10
2130.435363
 20
1583.160208
 30
0.0
 11
2130.436363
 21
1564.541408
 31
0.0
  0
LINE
  5
5BE
  8
5
  6
CONTINUOUS
 10
2119.094363
 20
1564.541008
 30
0.0
 11
2128.936363
 21
1564.541408
 31
0.0
  0
LINE
  5
5BF
  8
5
  6
CONTINUOUS
 10
2130.436363
 20
1564.541408
 30
0.0
 11
2133.866363
 21
1564.541608
 31
0.0
  0
LINE
  5
5C0
  8
5
  6
CONTINUOUS
 10
2130.434363
 20
1602.444008
 30
0.0
 11
2130.435363
 21
1584.660208
 31
0.0
  0
ARC
  5
5C1
  8
5
  6
CONTINUOUS
 10
2133.865363
 20
1594.987308
 30
0.0
 40
7.45678
 50
0.002581
 51
90.00258
  0
LINE
  5
5C2
  8
5
  6
CONTINUOUS
 10
2119.092363
 20
1602.443508
 30
0.0
 11
2119.093363
 21
1584.659808
 31
0.0
  0
LINE
  5
5C3
  8
5
  6
CONTINUOUS
 10
2128.935363
 20
1584.660208
 30
0.0
 11
2128.934363
 21
1602.443808
 31
0.0
  0
LINE
  5
5C4
  8
5
  6
CONTINUOUS
 10
2119.093363
 20
1583.159608
 30
0.0
 11
2128.935363
 21
1583.160008
 31
0.0
  0
LINE
  5
5C5
  8
5
  6
CONTINUOUS
 10
2119.093363
 20
1584.659808
 30
0.0
 11
2128.935363
 21
1584.660208
 31
0.0
  0
ARC
  5
5C6
  8
5
  6
CONTINUOUS
 10
2099.843363
 20
1574.556208
 30
0.0
 40
12.0238
 50
2.746474
 51
45.68326
  0
LINE
  5
5C7
  8
5
  6
CONTINUOUS
 10
2140.847363
 20
1583.160608
 30
0.0
 11
2130.435363
 21
1583.160208
 31
0.0
  0
ARC
  5
5C8
  8
5
  6
CONTINUOUS
 10
2132.447363
 20
1574.557708
 30
0.0
 40
12.0238
 50
2.746474
 51
45.68383
  0
ARC
  5
5C9
  8
5
  6
CONTINUOUS
 10
2131.700363
 20
1595.878908
 30
0.0
 40
9.662929
 50
283.5587
 51
354.7079
  0
ARC
  5
5CA
  8
5
  6
CONTINUOUS
 10
2132.447363
 20
1574.557708
 30
0.0
 40
12.02387
 50
57.16567
 51
82.7483
  0
LINE
  5
5CB
  8
5
  6
CONTINUOUS
 10
2130.435363
 20
1584.660208
 30
0.0
 11
2138.967363
 21
1584.660608
 31
0.0
  0
LINE
  5
5CC
  8
5
  6
CONTINUOUS
 10
2128.934363
 20
1602.443808
 30
0.0
 11
2119.092363
 21
1602.443508
 31
0.0
  0
LINE
  5
5CD
  8
5
  6
CONTINUOUS
 10
2133.864363
 20
1602.444108
 30
0.0
 11
2130.434363
 21
1602.444008
 31
0.0
  0
INSERT
  5
5F1
  8
0
  6
CONTINUOUS
  2
A$C27E33DB7
 10
298.505095
 20
1140.883425
 30
0.0
  0
ENDSEC
  0
EOF
