  0
SECTION
  2
HEADER
  9
$ACADVER
  1
AC1009
  9
$DWGCODEPAGE
  3
iso8859-1
  9
$INSBASE
 10
0.0
 20
0.0
 30
0.0
  9
$EXTMIN
 10
1.0E20
 20
1.0E20
  9
$EXTMAX
 10
-1.0E20
 20
-1.0E20
  9
$LIMMIN
 10
0.0
 20
0.0
  9
$LIMMAX
 10
12.0
 20
9.0
  9
$ORTHOMODE
 70
     0
  9
$REGENMODE
 70
     1
  9
$FILLMODE
 70
     1
  9
$QTEXTMODE
 70
     0
  9
$MIRRTEXT
 70
     1
  9
$DRAGMODE
 70
     2
  9
$LTSCALE
 40
15.0
  9
$OSMODE
 70
     0
  9
$ATTMODE
 70
     1
  9
$TEXTSIZE
 40
0.2
  9
$TRACEWID
 40
0.05
  9
$TEXTSTYLE
  7
STANDARD
  9
$CLAYER
  8
0
  9
$CELTYPE
  6
DASHED
  9
$CECOLOR
 62
   256
  9
$DIMSCALE
 40
1.0
  9
$DIMASZ
 40
0.18
  9
$DIMEXO
 40
0.0625
  9
$DIMDLI
 40
0.38
  9
$DIMRND
 40
0.0
  9
$DIMDLE
 40
0.0
  9
$DIMEXE
 40
0.18
  9
$DIMTP
 40
0.0
  9
$DIMTM
 40
0.0
  9
$DIMTXT
 40
0.18
  9
$DIMCEN
 40
0.09
  9
$DIMTSZ
 40
0.0
  9
$DIMTOL
 70
     0
  9
$DIMLIM
 70
     0
  9
$DIMTIH
 70
     1
  9
$DIMTOH
 70
     1
  9
$DIMSE1
 70
     0
  9
$DIMSE2
 70
     0
  9
$DIMTAD
 70
     0
  9
$DIMZIN
 70
     0
  9
$DIMBLK
  1

  9
$DIMASO
 70
     1
  9
$DIMSHO
 70
     1
  9
$DIMPOST
  1

  9
$DIMAPOST
  1

  9
$DIMALT
 70
     0
  9
$DIMALTD
 70
     2
  9
$DIMALTF
 40
25.4
  9
$DIMLFAC
 40
1.0
  9
$DIMTOFL
 70
     0
  9
$DIMTVP
 40
0.0
  9
$DIMTIX
 70
     0
  9
$DIMSOXD
 70
     0
  9
$DIMSAH
 70
     0
  9
$DIMBLK1
  1

  9
$DIMBLK2
  1

  9
$DIMSTYLE
  2
STANDARD
  9
$DIMCLRD
 70
     0
  9
$DIMCLRE
 70
     0
  9
$DIMCLRT
 70
     0
  9
$DIMTFAC
 40
1.0
  9
$DIMGAP
 40
0.09
  9
$LUNITS
 70
     2
  9
$LUPREC
 70
     4
  9
$AXISMODE
 70
     0
  9
$AXISUNIT
 10
0.0
 20
0.0
  9
$SKETCHINC
 40
0.1
  9
$FILLETRAD
 40
0.0
  9
$AUNITS
 70
     0
  9
$AUPREC
 70
     0
  9
$MENU
  1
acad
  9
$ELEVATION
 40
0.0
  9
$PELEVATION
 40
0.0
  9
$THICKNESS
 40
0.0
  9
$LIMCHECK
 70
     0
  9
$BLIPMODE
 70
     1
  9
$CHAMFERA
 40
0.0
  9
$CHAMFERB
 40
0.0
  9
$SKPOLY
 70
     0
  9
$TDCREATE
 40
0.000000000
  9
$TDUPDATE
 40
0.000000000
  9
$TDINDWG
 40
0.0
  9
$TDUSRTIMER
 40
0.0
  9
$USRTIMER
 70
     1
  9
$ANGBASE
 50
0.0
  9
$ANGDIR
 70
     0
  9
$PDMODE
 70
     0
  9
$PDSIZE
 40
0.0
  9
$PLINEWID
 40
0.0
  9
$COORDS
 70
     1
  9
$SPLFRAME
 70
     0
  9
$SPLINETYPE
 70
     6
  9
$SPLINESEGS
 70
     8
  9
$ATTDIA
 70
     0
  9
$ATTREQ
 70
     1
  9
$HANDLING
 70
     1
  9
$HANDSEED
  5
   53D
  9
$SURFTAB1
 70
     6
  9
$SURFTAB2
 70
     6
  9
$SURFTYPE
 70
     6
  9
$SURFU
 70
     6
  9
$SURFV
 70
     6
  9
$UCSNAME
  2

  9
$UCSORG
 10
0.0
 20
0.0
 30
0.0
  9
$UCSXDIR
 10
1.0
 20
0.0
 30
0.0
  9
$UCSYDIR
 10
0.0
 20
1.0
 30
0.0
  9
$PUCSNAME
  2

  9
$PUCSORG
 10
0.0
 20
0.0
 30
0.0
  9
$PUCSXDIR
 10
1.0
 20
0.0
 30
0.0
  9
$PUCSYDIR
 10
0.0
 20
1.0
 30
0.0
  9
$USERI1
 70
     0
  9
$USERI2
 70
     0
  9
$USERI3
 70
     0
  9
$USERI4
 70
     0
  9
$USERI5
 70
     0
  9
$USERR1
 40
0.0
  9
$USERR2
 40
0.0
  9
$USERR3
 40
0.0
  9
$USERR4
 40
0.0
  9
$USERR5
 40
0.0
  9
$WORLDVIEW
 70
     1
  9
$SHADEDGE
 70
     3
  9
$SHADEDIF
 70
    70
  9
$TILEMODE
 70
     1
  9
$MAXACTVP
 70
    16
  9
$PINSBASE
 10
0.0
 20
0.0
 30
0.0
  9
$PLIMCHECK
 70
     0
  9
$PEXTMIN
 10
1.0E20
 20
1.0E20
 30
1.0E20
  9
$PEXTMAX
 10
-1.0E20
 20
-1.0E20
 30
-1.0E20
  9
$PLIMMIN
 10
0.0
 20
0.0
  9
$PLIMMAX
 10
12.0
 20
9.0
  9
$UNITMODE
 70
     0
  9
$VISRETAIN
 70
     0
  0
ENDSEC
  0
SECTION
  2
TABLES
  0
TABLE
  2
VPORT
 70
     1
  0
VPORT
  2
*ACTIVE
 70
     0
 10
0.0
 20
0.0
 11
1.0
 21
1.0
 12
6.801242
 22
4.5
 13
0.0
 23
0.0
 14
1.0
 24
1.0
 15
0.0
 25
0.0
 16
0.0
 26
0.0
 36
1.0
 17
0.0
 27
0.0
 37
0.0
 40
9.0
 41
1.511387
 42
50.0
 43
0.0
 44
0.0
 50
0.0
 51
0.0
 71
     0
 72
   100
 73
     1
 74
     1
 75
     0
 76
     0
 77
     0
 78
     0
  0
ENDTAB
  0
TABLE
  2
LTYPE
 70
    41
  0
LTYPE
  2
BYBLOCK
 70
     0
  3

 72
    65
 73
     0
 40
0.0
  0
LTYPE
  2
BYLAYER
 70
     0
  3

 72
    65
 73
     0
 40
0.0
  0
LTYPE
  2
CONTINUOUS
 70
     0
  3
Solid line
 72
    65
 73
     0
 40
0.0
  0
LTYPE
  2
BORDER
 70
    64
  3
__ __ . __ __ . __ __ . __ __ . __ __ . __ __ .
 72
    65
 73
     6
 40
1.75
 49
0.5
 49
-0.25
 49
0.5
 49
-0.25
 49
0.0
 49
-0.25
  0
LTYPE
  2
BORDER2
 70
    64
  3
__.__.__.__.__.__.__.__.__.__.__.__.__.__.__.__
 72
    65
 73
     6
 40
0.875
 49
0.25
 49
-0.125
 49
0.25
 49
-0.125
 49
0.0
 49
-0.125
  0
LTYPE
  2
BORDERX2
 70
    64
  3
____  ____  .  ____  ____  .  ____  ____  .  __
 72
    65
 73
     6
 40
3.5
 49
1.0
 49
-0.5
 49
1.0
 49
-0.5
 49
0.0
 49
-0.5
  0
LTYPE
  2
CENTER
 70
    64
  3
____ _ ____ _ ____ _ ____ _ ____ _ ____ _ ____
 72
    65
 73
     4
 40
2.0
 49
1.25
 49
-0.25
 49
0.25
 49
-0.25
  0
LTYPE
  2
CENTER2
 70
    64
  3
___ _ ___ _ ___ _ ___ _ ___ _ ___ _ ___ _ ___ _
 72
    65
 73
     4
 40
1.125
 49
0.75
 49
-0.125
 49
0.125
 49
-0.125
  0
LTYPE
  2
CENTERX2
 70
    64
  3
________  __  ________  __  ________  __  _____
 72
    65
 73
     4
 40
4.0
 49
2.5
 49
-0.5
 49
0.5
 49
-0.5
  0
LTYPE
  2
DASHDOT
 70
    64
  3
__ . __ . __ . __ . __ . __ . __ . __ . __ . __
 72
    65
 73
     4
 40
1.0
 49
0.5
 49
-0.25
 49
0.0
 49
-0.25
  0
LTYPE
  2
DASHDOT2
 70
    64
  3
_._._._._._._._._._._._._._._._._._._._._._._._
 72
    65
 73
     4
 40
0.5
 49
0.25
 49
-0.125
 49
0.0
 49
-0.125
  0
LTYPE
  2
DASHDOTX2
 70
    64
  3
____  .  ____  .  ____  .  ____  .  ____  .  __
 72
    65
 73
     4
 40
2.0
 49
1.0
 49
-0.5
 49
0.0
 49
-0.5
  0
LTYPE
  2
DASHED
 70
    64
  3
__ __ __ __ __ __ __ __ __ __ __ __ __ __ __ __
 72
    65
 73
     2
 40
0.75
 49
0.5
 49
-0.25
  0
LTYPE
  2
DASHED2
 70
    64
  3
_ _ _ _ _ _ _ _ _ _ _ _ _ _ _ _ _ _ _ _ _ _ _ _
 72
    65
 73
     2
 40
0.375
 49
0.25
 49
-0.125
  0
LTYPE
  2
DASHEDX2
 70
    64
  3
____  ____  ____  ____  ____  ____  ____  ____
 72
    65
 73
     2
 40
1.5
 49
1.0
 49
-0.5
  0
LTYPE
  2
DIVIDE
 70
    64
  3
____ . . ____ . . ____ . . ____ . . ____ . . __
 72
    65
 73
     6
 40
1.25
 49
0.5
 49
-0.25
 49
0.0
 49
-0.25
 49
0.0
 49
-0.25
  0
LTYPE
  2
DIVIDE2
 70
    64
  3
__..__..__..__..__..__..__..__..__..__..__..__.
 72
    65
 73
     6
 40
0.625
 49
0.25
 49
-0.125
 49
0.0
 49
-0.125
 49
0.0
 49
-0.125
  0
LTYPE
  2
DIVIDEX2
 70
    64
  3
________  .  .  ________  .  .  ________  .  .
 72
    65
 73
     6
 40
2.5
 49
1.0
 49
-0.5
 49
0.0
 49
-0.5
 49
0.0
 49
-0.5
  0
LTYPE
  2
DOT
 70
    64
  3
. . . . . . . . . . . . . . . . . . . . . . . .
 72
    65
 73
     2
 40
0.25
 49
0.0
 49
-0.25
  0
LTYPE
  2
DOT2
 70
    64
  3
...............................................
 72
    65
 73
     2
 40
0.125
 49
0.0
 49
-0.125
  0
LTYPE
  2
DOTX2
 70
    64
  3
.  .  .  .  .  .  .  .  .  .  .  .  .  .  .  .
 72
    65
 73
     2
 40
0.5
 49
0.0
 49
-0.5
  0
LTYPE
  2
HIDDEN
 70
    64
  3
__ __ __ __ __ __ __ __ __ __ __ __ __ __ __ __
 72
    65
 73
     2
 40
0.375
 49
0.25
 49
-0.125
  0
LTYPE
  2
HIDDEN2
 70
    64
  3
_ _ _ _ _ _ _ _ _ _ _ _ _ _ _ _ _ _ _ _ _ _ _ _
 72
    65
 73
     2
 40
0.1875
 49
0.125
 49
-0.0625
  0
LTYPE
  2
HIDDENX2
 70
    64
  3
____ ____ ____ ____ ____ ____ ____ ____ ____ __
 72
    65
 73
     2
 40
0.75
 49
0.5
 49
-0.25
  0
LTYPE
  2
PHANTOM
 70
    64
  3
______  __  __  ______  __  __  ______  __  __
 72
    65
 73
     6
 40
2.5
 49
1.25
 49
-0.25
 49
0.25
 49
-0.25
 49
0.25
 49
-0.25
  0
LTYPE
  2
PHANTOM2
 70
    64
  3
___ _ _ ___ _ _ ___ _ _ ___ _ _ ___ _ _ ___ _ _
 72
    65
 73
     6
 40
1.25
 49
0.625
 49
-0.125
 49
0.125
 49
-0.125
 49
0.125
 49
-0.125
  0
LTYPE
  2
PHANTOMX2
 70
    64
  3
____________    ____    ____    ____________
 72
    65
 73
     6
 40
5.0
 49
2.5
 49
-0.5
 49
0.5
 49
-0.5
 49
0.5
 49
-0.5
  0
LTYPE
  2
ACAD_ISO02W100
 70
    64
  3
__ __ __ __ __ __ __ __ __ __ __ __ __ __ __ __
 72
    65
 73
     2
 40
15.0
 49
12.0
 49
-3.0
  0
LTYPE
  2
ACAD_ISO03W100
 70
    64
  3
__    __    __    __    __    __    __    __
 72
    65
 73
     2
 40
30.0
 49
12.0
 49
-18.0
  0
LTYPE
  2
ACAD_ISO04W100
 70
    64
  3
____ . ____ . ____ . ____ . ____ . ____ . ____
 72
    65
 73
     4
 40
30.5
 49
24.0
 49
-3.0
 49
0.5
 49
-3.0
  0
LTYPE
  2
ACAD_ISO05W100
 70
    64
  3
____ .. ____ .. ____ .. ____ .. ____ .. ____ ..
 72
    65
 73
     6
 40
34.0
 49
24.0
 49
-3.0
 49
0.5
 49
-3.0
 49
0.5
 49
-3.0
  0
LTYPE
  2
ACAD_ISO06W100
 70
    64
  3
____ ... ____ ... ____ ... ____ ... ____ ... __
 72
    65
 73
     8
 40
37.5
 49
24.0
 49
-3.0
 49
0.5
 49
-3.0
 49
0.5
 49
-3.0
 49
0.5
 49
-3.0
  0
LTYPE
  2
ACAD_ISO07W100
 70
    64
  3
. . . . . . . . . . . . . . . . . . . . . . . .
 72
    65
 73
     2
 40
3.5
 49
0.5
 49
-3.0
  0
LTYPE
  2
ACAD_ISO08W100
 70
    64
  3
____ __ ____ __ ____ __ ____ ____ __ __ ____ __
 72
    65
 73
     4
 40
36.0
 49
24.0
 49
-3.0
 49
6.0
 49
-3.0
  0
LTYPE
  2
ACAD_ISO09W100
 70
    64
  3
____ __ __ ____ __ __ ____ __ __ ____ __ __ ___
 72
    65
 73
     6
 40
45.0
 49
24.0
 49
-3.0
 49
6.0
 49
-3.0
 49
6.0
 49
-3.0
  0
LTYPE
  2
ACAD_ISO10W100
 70
    64
  3
__ . __ . __ . __ . __ . __ . __ . __ . __ . __
 72
    65
 73
     4
 40
18.5
 49
12.0
 49
-3.0
 49
0.5
 49
-3.0
  0
LTYPE
  2
ACAD_ISO11W100
 70
    64
  3
__ __ . __ __ . __ __ . __ __ . __ __ . __ __ .
 72
    65
 73
     6
 40
33.5
 49
12.0
 49
-3.0
 49
12.0
 49
-3.0
 49
0.5
 49
-3.0
  0
LTYPE
  2
ACAD_ISO12W100
 70
    64
  3
__ . . __ . . __ . . __ . . __ . . __ . . __ .
 72
    65
 73
     6
 40
22.0
 49
12.0
 49
-3.0
 49
0.5
 49
-3.0
 49
0.5
 49
-3.0
  0
LTYPE
  2
ACAD_ISO13W100
 70
    64
  3
__ __ . . __ __ . . __ __ . . __ __ . . __ __ .
 72
    65
 73
     8
 40
37.0
 49
12.0
 49
-3.0
 49
12.0
 49
-3.0
 49
0.5
 49
-3.0
 49
0.5
 49
-3.0
  0
LTYPE
  2
ACAD_ISO14W100
 70
    64
  3
__ . . . __ . . . __ . . . __ . . . __ . . . __
 72
    65
 73
     8
 40
25.5
 49
12.0
 49
-3.0
 49
0.5
 49
-3.0
 49
0.5
 49
-3.0
 49
0.5
 49
-3.0
  0
LTYPE
  2
ACAD_ISO15W100
 70
    64
  3
__ __ . . . __ __ . . . __ __ . . . __ __ . . .
 72
    65
 73
    10
 40
40.5
 49
12.0
 49
-3.0
 49
12.0
 49
-3.0
 49
0.5
 49
-3.0
 49
0.5
 49
-3.0
 49
0.5
 49
-3.0
  0
ENDTAB
  0
TABLE
  2
STYLE
 70
     4
  0
STYLE
  2
STANDARD
 70
    64
 40
0.0
 41
1.0
 50
0.0
 71
     0
 42
0.2
  3
txt
  4

  0
STYLE
  2
TOLERANCE
 70
    64
 40
0.0
 41
1.0
 50
0.0
 71
     0
 42
0.2
  3
../igesfont/iges1003.shx
  4

  0
STYLE
  2
ROMANS
 70
    64
 40
0.0
 41
1.0
 50
0.0
 71
     0
 42
0.2
  3
romans.shx
  4

  0
STYLE
  2
ROMANC
 70
    64
 40
0.0
 41
1.0
 50
0.0
 71
     0
 42
0.2
  3
romanc.shx
  4

  0
ENDTAB
  0
TABLE
  2
DIMSTYLE
 70
     2
  0
DIMSTYLE
  2
UNNAMED
 70
     0
  3

  4

  5

  6

  7

 40
1.0
 41
0.18
 42
0.0625
 43
0.38
 44
0.18
 45
0.0
 46
0.0
 47
0.0
 48
0.0
140
0.18
141
0.09
142
0.0
143
25.4
144
1.0
145
0.0
146
1.0
147
0.09
 71
     0
 72
     0
 73
     1
 74
     1
 75
     0
 76
     0
 77
     0
 78
     0
170
     0
171
     2
172
     0
173
     0
174
     0
175
     0
176
     0
177
     0
178
     0
  0
DIMSTYLE
  2
STANDARD
 70
     0
  3

  4

  5

  6

  7

 40
1.0
 41
0.18
 42
0.0625
 43
0.38
 44
0.18
 45
0.0
 46
0.0
 47
0.0
 48
0.0
140
0.18
141
0.09
142
0.0
143
25.4
144
1.0
145
0.0
146
1.0
147
0.09
 71
     0
 72
     0
 73
     1
 74
     1
 75
     0
 76
     0
 77
     0
 78
     0
170
     0
171
     2
172
     0
173
     0
174
     0
175
     0
176
     0
177
     0
178
     0
  0
ENDTAB
  0
TABLE
  2
LAYER
 70
     2
  0
LAYER
  2
0
 70
     0
 62
     7
  6
CONTINUOUS
  0
LAYER
  2
255
 70
     0
 62
     7
  6
CONTINUOUS
  0
ENDTAB
  0
ENDSEC
  0
SECTION
  2
BLOCKS
  0
BLOCK
  5
     B
  8
0
  6
CONTINUOUS
 62
     7
  2
MOSTRA
 70
    64
 10
0.0
 20
0.0
 30
0.0
  3
MOSTRA
  0
LINE
  5
     C
  8
0
  6
CONTINUOUS
 62
     3
 10
75.9999847412109
 20
-24.000020980835
 30
0.0
 11
75.9999847412109
 21
169.499979019165
 31
0.0
  0
LINE
  5
     D
  8
0
  6
CONTINUOUS
 62
     3
 10
-71.5000076293913
 20
170.749954223637
 30
0.0
 11
71.4999923706087
 21
170.749984741215
 31
0.0
  0
LINE
  5
     E
  8
0
  6
CONTINUOUS
 62
     3
 10
71.4999923722532
 20
170.749969484304
 30
0.0
 11
74.7499847428587
 21
170.749984743093
 31
0.0
  0
LINE
  5
     F
  8
0
  6
CONTINUOUS
 62
     3
 10
-74.7500152650933
 20
170.749938972373
 30
0.0
 11
-71.5000076356988
 21
170.74996948995
 31
0.0
  0
LINE
  5
    10
  8
0
  6
CONTINUOUS
 62
     3
 10
-76.0000152587891
 20
-24.0000553131103
 30
0.0
 11
-76.0000152587891
 21
169.49994468689
 31
0.0
  0
LINE
  5
    11
  8
0
  6
CONTINUOUS
 62
     3
 10
-74.7500152587851
 20
-25.250055313111
 30
0.0
 11
74.7499847412149
 21
-25.2500209808356
 31
0.0
  0
LINE
  5
    12
  8
0
  6
CONTINUOUS
 62
     3
 10
-70.50000762559
 20
2.24997818470003
 30
0.0
 11
70.49999237441
 21
2.24997818470002
 31
0.0
  0
LINE
  5
    13
  8
0
  6
CONTINUOUS
 62
     3
 10
-70.5000074412761
 20
2.24997806549074
 30
0.0
 11
-70.5000074412761
 21
93.0689001568776
 31
0.0
  0
LINE
  5
    14
  8
0
  6
CONTINUOUS
 62
     3
 10
-70.5000152587891
 20
108.431043142038
 30
0.0
 11
-70.5000152587891
 21
143.249984741211
 31
0.0
  0
LINE
  5
    15
  8
0
  6
CONTINUOUS
 62
     3
 10
-70.500015258789
 20
143.249984741211
 30
0.0
 11
70.4999694824219
 21
143.249984741211
 31
0.0
  0
LINE
  5
    16
  8
0
  6
CONTINUOUS
 62
     3
 10
70.499992735838
 20
2.24997854232794
 30
0.0
 11
70.499992735838
 21
143.249978542328
 31
0.0
  0
LINE
  5
    17
  8
0
  6
CONTINUOUS
 62
     3
 10
-71.5000076293945
 20
150.749984741211
 30
0.0
 11
-71.5000076293945
 21
170.749969482422
 31
0.0
  0
LINE
  5
    18
  8
0
  6
CONTINUOUS
 62
     3
 10
71.4999923706055
 20
150.749984741211
 30
0.0
 11
71.4999923706055
 21
170.749969482422
 31
0.0
  0
LINE
  5
    19
  8
0
  6
CONTINUOUS
 62
     3
 10
-71.5000076293945
 20
150.749984741211
 30
0.0
 11
71.4999923706055
 21
150.749984741211
 31
0.0
  0
LINE
  5
    1A
  8
0
  6
CONTINUOUS
 62
     3
 10
-70.5000152587891
 20
-4.25005340576171
 30
0.0
 11
70.4999847412109
 21
-4.25005340576172
 31
0.0
  0
LINE
  5
    1B
  8
0
  6
CONTINUOUS
 62
     3
 10
-70.5000152587891
 20
-5.25005340576171
 30
0.0
 11
70.4999847412109
 21
-5.25005340576172
 31
0.0
  0
LINE
  5
    1C
  8
0
  6
CONTINUOUS
 62
     3
 10
-70.5000305175649
 20
149.74993896486
 30
0.0
 11
70.4999694824351
 21
149.750000000014
 31
0.0
  0
LINE
  5
    1D
  8
0
  6
CONTINUOUS
 62
     3
 10
71.4999858357699
 20
-25.2500247955323
 30
0.0
 11
71.4999858357699
 21
150.749990463257
 31
0.0
  0
LINE
  5
    1E
  8
0
  6
CONTINUOUS
 62
     3
 10
70.4999847412109
 20
-25.2500247955322
 30
0.0
 11
70.4999847412109
 21
-5.25005340576172
 31
0.0
  0
LINE
  5
    1F
  8
0
  6
CONTINUOUS
 62
     3
 10
70.4999847412595
 20
-4.25005341252316
 30
0.0
 11
70.4999923706543
 21
2.24997805388479
 31
0.0
  0
LINE
  5
    20
  8
0
  6
CONTINUOUS
 62
     3
 10
70.4999694824219
 20
143.249984741211
 30
0.0
 11
70.4999694824219
 21
149.75
 31
0.0
  0
LINE
  5
    21
  8
0
  6
CONTINUOUS
 62
     3
 10
-71.5000141642294
 20
-25.2500457763669
 30
0.0
 11
-71.5000141642294
 21
150.749984741211
 31
0.0
  0
LINE
  5
    22
  8
0
  6
CONTINUOUS
 62
     3
 10
-70.5000152587891
 20
-25.2500419616699
 30
0.0
 11
-70.5000152587891
 21
-5.25005340576171
 31
0.0
  0
LINE
  5
    23
  8
0
  6
CONTINUOUS
 62
     3
 10
-70.5000152588376
 20
-4.25005339719544
 30
0.0
 11
-70.5000076294428
 21
2.24997808131977
 31
0.0
  0
LINE
  5
    24
  8
0
  6
CONTINUOUS
 62
     3
 10
-70.5000305177719
 20
149.749938959778
 30
0.0
 11
-70.5000152589833
 21
143.249984736586
 31
0.0
  0
LINE
  5
    25
  8
0
  6
CONTINUOUS
 62
     3
 10
-71.5000076293945
 20
159.999984741211
 30
0.0
 11
-71.0
 21
159.999984741211
 31
0.0
  0
LINE
  5
    26
  8
0
  6
CONTINUOUS
 62
     3
 10
-71.5000076293945
 20
161.499984741211
 30
0.0
 11
-71.0
 21
161.499984741211
 31
0.0
  0
LINE
  5
    27
  8
0
  6
CONTINUOUS
 62
     3
 10
70.9999923706055
 20
159.999984741211
 30
0.0
 11
71.4999923706055
 21
159.999984741211
 31
0.0
  0
LINE
  5
    28
  8
0
  6
CONTINUOUS
 62
     3
 10
70.9999923706055
 20
161.499984741211
 30
0.0
 11
71.4999923706055
 21
161.499984741211
 31
0.0
  0
ARC
  5
    29
  8
0
  6
CONTINUOUS
 62
     3
 10
-74.7500446175772
 20
169.499966747805
 30
0.0
 40
1.2499712385188
 50
89.9986335430652
 51
180.000984426699
  0
ARC
  5
    2A
  8
0
  6
CONTINUOUS
 62
     3
 10
-71.0000555065448
 20
160.749933035418
 30
0.0
 40
0.750060676953542
 50
270.004052802733
 51
449.996390805965
  0
ARC
  5
    2B
  8
0
  6
CONTINUOUS
 62
     3
 10
71.0004519501049
 20
160.749941254871
 30
0.0
 40
0.750296104915764
 50
90.0
 51
270.0
  0
ARC
  5
    2C
  8
0
  6
CONTINUOUS
 62
     3
 10
74.7499844400411
 20
169.499990278414
 30
0.0
 40
1.25000142315613
 50
2.89360398659739E-4
 51
89.9998353051498
  0
ARC
  5
    2D
  8
0
  6
CONTINUOUS
 62
     3
 10
74.7499756668578
 20
-24.0000128113076
 30
0.0
 40
1.25000813012569
 50
270.000329889624
 51
359.999635393882
  0
ARC
  5
    2E
  8
0
  6
CONTINUOUS
 62
     3
 10
-74.7500061806411
 20
-24.0000471426785
 30
0.0
 40
1.25000813391971
 50
180.000364647548
 51
269.999670038333
  0
ARC
  5
    2F
  8
0
  6
CONTINUOUS
 62
     3
 10
-41.5002621522514
 20
100.749971717654
 30
0.0
 40
29.9997423066705
 50
165.164904903841
 51
194.835095365634
  0
ARC
  5
    30
  8
0
  6
DOT
 62
     3
 10
-71.9999597522443
 20
160.749933035418
 30
0.0
 40
0.750060676953542
 50
90.003609194035
 51
269.995947197267
  0
LINE
  5
    31
  8
0
  6
DOT
 62
     3
 10
-72.0000152587891
 20
161.499984741211
 30
0.0
 11
-71.5000076293945
 21
161.499984741211
 31
0.0
  0
LINE
  5
    32
  8
0
  6
DOT
 62
     3
 10
-72.0000152587891
 20
159.999984741211
 30
0.0
 11
-71.5000076293945
 21
159.999984741211
 31
0.0
  0
LINE
  5
    33
  8
0
  6
DOT
 62
     3
 10
71.4999923706055
 20
161.499984741211
 30
0.0
 11
71.9999923706055
 21
161.499984741211
 31
0.0
  0
LINE
  5
    34
  8
0
  6
DOT
 62
     3
 10
71.4999923706055
 20
159.999984741211
 30
0.0
 11
71.9999923706055
 21
159.999984741211
 31
0.0
  0
ARC
  5
    35
  8
0
  6
DOT
 62
     3
 10
71.999532791106
 20
160.749941254871
 30
0.0
 40
0.750296104915764
 50
270.0
 51
450.0
  0
POINT
  5
    36
  8
0
  6
CONTINUOUS
 62
     3
 10
-2.28881835892954E-5
 20
72.7499785423279
 30
0.0
  0
ENDBLK
  5
    37
  8
0
  6
CONTINUOUS
 62
     7
  0
BLOCK
  5
    38
  8
0
  6
CONTINUOUS
 62
     7
  2
*UDIM143
 70
    65
 10
0.0
 20
0.0
 30
0.0
  3
*UDIM143
  0
TEXT
  5
    39
  8
0
  6
CONTINUOUS
 62
     7
 10
38.5076193436755
 20
-47.1630678289145
 30
0.0
 40
3.00000001532688
  1
406
 50
89.9999999480344
 41
0.933333333333334
 72
     1
 11
37.0076193395443
 21
-43.263067807631
 31
0.0
 73
     2
  0
LINE
  5
    3A
  8
0
  6
CONTINUOUS
 62
     7
 10
23.7273758530624
 20
-114.037957735657
 30
0.0
 11
41.5076193472078
 21
-114.037957735657
 31
0.0
  0
LINE
  5
    3B
  8
0
  6
CONTINUOUS
 62
     7
 10
-73.7477177171476
 20
28.0618293955673
 30
0.0
 11
41.5076193472078
 21
28.0618293955673
 31
0.0
  0
LINE
  5
    3C
  8
0
  6
CONTINUOUS
 62
     7
 10
39.5076193472078
 20
-114.037957735657
 30
0.0
 11
39.5076193472078
 21
28.0618293955673
 31
0.0
  0
LINE
  5
    3D
  8
0
  6
CONTINUOUS
 62
     7
 10
38.9866749172561
 20
-111.083534458451
 30
0.0
 11
39.5076193472078
 21
-114.037957735657
 31
0.0
  0
LINE
  5
    3E
  8
0
  6
CONTINUOUS
 62
     7
 10
39.5076193472078
 20
-114.037957735657
 30
0.0
 11
40.0285637771594
 21
-111.083534458451
 31
0.0
  0
LINE
  5
    3F
  8
0
  6
CONTINUOUS
 62
     7
 10
40.0285637771594
 20
25.1074061183603
 30
0.0
 11
39.5076193472078
 21
28.0618293955673
 31
0.0
  0
LINE
  5
    40
  8
0
  6
CONTINUOUS
 62
     7
 10
39.5076193472078
 20
28.0618293955673
 30
0.0
 11
38.9866749172561
 21
25.1074061183603
 31
0.0
  0
ENDBLK
  5
    41
  8
0
  6
CONTINUOUS
 62
     7
  0
BLOCK
  5
    42
  8
0
  6
CONTINUOUS
 62
     7
  2
*UDIM144
 70
    65
 10
0.0
 20
0.0
 30
0.0
  3
*UDIM144
  0
TEXT
  5
    43
  8
0
  6
CONTINUOUS
 62
     7
 10
30.5148551114013
 20
-17.2818338816365
 30
0.0
 40
3.00000001532688
  1
211,25
 50
89.9999999480344
 41
0.933333333333333
 72
     1
 11
29.0148551110742
 21
-9.18183383889536
 31
0.0
 73
     2
  0
LINE
  5
    44
  8
0
  6
CONTINUOUS
 62
     7
 10
-73.7477177171476
 20
28.0618293955673
 30
0.0
 11
33.5148551187376
 21
28.0618293955673
 31
0.0
  0
LINE
  5
    45
  8
0
  6
CONTINUOUS
 62
     7
 10
31.5148551187376
 20
-45.8754908829906
 30
0.0
 11
31.5148551187376
 21
28.0618293955673
 31
0.0
  0
LINE
  5
    46
  8
0
  6
CONTINUOUS
 62
     7
 10
30.9939106887859
 20
-42.9210676057836
 30
0.0
 11
31.5148551187376
 21
-45.8754908829906
 31
0.0
  0
LINE
  5
    47
  8
0
  6
CONTINUOUS
 62
     7
 10
31.5148551187376
 20
-45.8754908829906
 30
0.0
 11
32.0357995486893
 21
-42.9210676057836
 31
0.0
  0
LINE
  5
    48
  8
0
  6
CONTINUOUS
 62
     7
 10
32.0357995486893
 20
25.1074061183603
 30
0.0
 11
31.5148551187376
 21
28.0618293955673
 31
0.0
  0
LINE
  5
    49
  8
0
  6
CONTINUOUS
 62
     7
 10
31.5148551187376
 20
28.0618293955673
 30
0.0
 11
30.9939106887859
 21
25.1074061183603
 31
0.0
  0
ENDBLK
  5
    4A
  8
0
  6
CONTINUOUS
 62
     7
  0
BLOCK
  5
    4B
  8
0
  6
CONTINUOUS
 62
     7
  2
*UDIM145
 70
    65
 10
0.0
 20
0.0
 30
0.0
  3
*UDIM145
  0
TEXT
  5
    4C
  8
0
  6
CONTINUOUS
 62
     7
 10
-30.447605004046
 20
47.5686982830335
 30
0.0
 40
3.00000001532688
  1
280
 50
359.999999948034
 41
0.933333333333334
 72
     1
 11
-26.5476049827681
 21
49.0686982871794
 31
0.0
 73
     2
  0
LINE
  5
    4D
  8
0
  6
CONTINUOUS
 62
     7
 10
22.727386534214
 20
28.5369375288574
 30
0.0
 11
22.727386534214
 21
48.568698279516
 31
0.0
  0
LINE
  5
    4E
  8
0
  6
CONTINUOUS
 62
     7
 10
-75.2726034522057
 20
28.5369375288574
 30
0.0
 11
-75.2726034522057
 21
48.568698279516
 31
0.0
  0
LINE
  5
    4F
  8
0
  6
CONTINUOUS
 62
     7
 10
22.727386534214
 20
46.568698279516
 30
0.0
 11
-75.2726034522057
 21
46.568698279516
 31
0.0
  0
LINE
  5
    50
  8
0
  6
CONTINUOUS
 62
     7
 10
19.7729632570071
 20
46.0477538495643
 30
0.0
 11
22.727386534214
 21
46.568698279516
 31
0.0
  0
LINE
  5
    51
  8
0
  6
CONTINUOUS
 62
     7
 10
22.727386534214
 20
46.568698279516
 30
0.0
 11
19.7729632570071
 21
47.0896427094676
 31
0.0
  0
LINE
  5
    52
  8
0
  6
CONTINUOUS
 62
     7
 10
-72.3181801749987
 20
47.0896427094676
 30
0.0
 11
-75.2726034522057
 21
46.568698279516
 31
0.0
  0
LINE
  5
    53
  8
0
  6
CONTINUOUS
 62
     7
 10
-75.2726034522057
 20
46.568698279516
 30
0.0
 11
-72.3181801749987
 21
46.0477538495643
 31
0.0
  0
ENDBLK
  5
    54
  8
0
  6
CONTINUOUS
 62
     7
  0
BLOCK
  5
    55
  8
0
  6
CONTINUOUS
 62
     7
  2
*UDIM146
 70
    65
 10
0.0
 20
0.0
 30
0.0
  3
*UDIM146
  0
TEXT
  5
    56
  8
0
  6
CONTINUOUS
 62
     7
 10
0.17738919642234
 20
41.490877553964
 30
0.0
 40
3.00000001532688
  1
105
 50
359.999999948034
 41
0.933333333333334
 72
     1
 11
4.0773892177002
 21
42.9908775581098
 31
0.0
 73
     2
  0
LINE
  5
    57
  8
0
  6
CONTINUOUS
 62
     7
 10
22.727386534214
 20
28.5369375288574
 30
0.0
 11
22.727386534214
 21
42.4908775504464
 31
0.0
  0
LINE
  5
    58
  8
0
  6
CONTINUOUS
 62
     7
 10
-14.0226097106934
 20
37.9819415477954
 30
0.0
 11
-14.0226097106934
 21
42.4908775504464
 31
0.0
  0
LINE
  5
    59
  8
0
  6
CONTINUOUS
 62
     7
 10
22.727386534214
 20
40.4908775504464
 30
0.0
 11
-14.0226097106934
 21
40.4908775504464
 31
0.0
  0
LINE
  5
    5A
  8
0
  6
CONTINUOUS
 62
     7
 10
19.7729632570071
 20
39.9699331204947
 30
0.0
 11
22.727386534214
 21
40.4908775504464
 31
0.0
  0
LINE
  5
    5B
  8
0
  6
CONTINUOUS
 62
     7
 10
22.727386534214
 20
40.4908775504464
 30
0.0
 11
19.7729632570071
 21
41.0118219803981
 31
0.0
  0
LINE
  5
    5C
  8
0
  6
CONTINUOUS
 62
     7
 10
-11.0681864334864
 20
41.0118219803981
 30
0.0
 11
-14.0226097106934
 21
40.4908775504464
 31
0.0
  0
LINE
  5
    5D
  8
0
  6
CONTINUOUS
 62
     7
 10
-14.0226097106934
 20
40.4908775504464
 30
0.0
 11
-11.0681864334864
 21
39.9699331204947
 31
0.0
  0
ENDBLK
  5
    5E
  8
0
  6
CONTINUOUS
 62
     7
  0
BLOCK
  5
    5F
  8
0
  6
CONTINUOUS
 62
     7
  2
*UDIM147
 70
    65
 10
0.0
 20
0.0
 30
0.0
  3
*UDIM147
  0
TEXT
  5
    60
  8
0
  6
CONTINUOUS
 62
     7
 10
-18.1976089260313
 20
35.3075484128236
 30
0.0
 40
3.00000001532688
  1
140
 50
359.999999948034
 41
0.933333333333334
 72
     1
 11
-14.2976089047535
 21
36.8075484169695
 31
0.0
 73
     2
  0
LINE
  5
    61
  8
0
  6
CONTINUOUS
 62
     7
 10
10.4773892892357
 20
-20.900506562737
 30
0.0
 11
10.4773892892357
 21
36.307548409306
 31
0.0
  0
LINE
  5
    62
  8
0
  6
CONTINUOUS
 62
     7
 10
-38.5226087106224
 20
-20.5505236440752
 30
0.0
 11
-38.5226087106224
 21
36.307548409306
 31
0.0
  0
LINE
  5
    63
  8
0
  6
CONTINUOUS
 62
     7
 10
10.4773892892357
 20
34.307548409306
 30
0.0
 11
-38.5226087106224
 21
34.307548409306
 31
0.0
  0
LINE
  5
    64
  8
0
  6
CONTINUOUS
 62
     7
 10
7.52296601202869
 20
33.7866039793544
 30
0.0
 11
10.4773892892357
 21
34.307548409306
 31
0.0
  0
LINE
  5
    65
  8
0
  6
CONTINUOUS
 62
     7
 10
10.4773892892357
 20
34.307548409306
 30
0.0
 11
7.52296601202869
 21
34.8284928392577
 31
0.0
  0
LINE
  5
    66
  8
0
  6
CONTINUOUS
 62
     7
 10
-35.5681854334154
 20
34.8284928392577
 30
0.0
 11
-38.5226087106224
 21
34.307548409306
 31
0.0
  0
LINE
  5
    67
  8
0
  6
CONTINUOUS
 62
     7
 10
-38.5226087106224
 20
34.307548409306
 30
0.0
 11
-35.5681854334154
 21
33.7866039793544
 31
0.0
  0
ENDBLK
  5
    68
  8
0
  6
CONTINUOUS
 62
     7
  0
BLOCK
  5
    69
  8
0
  6
CONTINUOUS
 62
     7
  2
*UDIM148
 70
    65
 10
0.0
 20
0.0
 30
0.0
  3
*UDIM148
  0
TEXT
  5
    6A
  8
0
  6
CONTINUOUS
 62
     7
 10
-80.7315728792735
 20
-50.0505234822871
 30
0.0
 40
3.00000001532688
  1
140
 50
89.9999999480344
 41
0.933333333333334
 72
     1
 11
-82.2315728834047
 21
-46.1505234610036
 31
0.0
 73
     2
  0
LINE
  5
    6B
  8
0
  6
CONTINUOUS
 62
     7
 10
-39.3476087285037
 20
-70.3755209082218
 30
0.0
 11
-81.7315728757412
 21
-70.3755209082218
 31
0.0
  0
LINE
  5
    6C
  8
0
  6
CONTINUOUS
 62
     7
 10
-39.3476087285037
 20
-21.3755236619566
 30
0.0
 11
-81.7315728757412
 21
-21.3755236619566
 31
0.0
  0
LINE
  5
    6D
  8
0
  6
CONTINUOUS
 62
     7
 10
-79.7315728757412
 20
-70.3755209082218
 30
0.0
 11
-79.7315728757412
 21
-21.3755236619566
 31
0.0
  0
LINE
  5
    6E
  8
0
  6
CONTINUOUS
 62
     7
 10
-80.2525173056929
 20
-67.4210976310148
 30
0.0
 11
-79.7315728757412
 21
-70.3755209082218
 31
0.0
  0
LINE
  5
    6F
  8
0
  6
CONTINUOUS
 62
     7
 10
-79.7315728757412
 20
-70.3755209082218
 30
0.0
 11
-79.2106284457896
 21
-67.4210976310148
 31
0.0
  0
LINE
  5
    70
  8
0
  6
CONTINUOUS
 62
     7
 10
-79.2106284457896
 20
-24.3299469391636
 30
0.0
 11
-79.7315728757412
 21
-21.3755236619566
 31
0.0
  0
LINE
  5
    71
  8
0
  6
CONTINUOUS
 62
     7
 10
-79.7315728757412
 20
-21.3755236619566
 30
0.0
 11
-80.2525173056929
 21
-24.3299469391636
 31
0.0
  0
ENDBLK
  5
    72
  8
0
  6
CONTINUOUS
 62
     7
  0
BLOCK
  5
    73
  8
0
  6
CONTINUOUS
 62
     7
  2
*HATCH22
 70
    65
 10
0.0
 20
0.0
 30
0.0
  3
*HATCH22
  0
LINE
  5
    74
  8
0
  6
CONTINUOUS
 62
    52
 10
-11.7279224395752
 20
1.0
 30
0.0
 11
-11.9763488769531
 21
0.75157368183136
 31
0.0
  0
LINE
  5
    75
  8
0
  6
CONTINUOUS
 62
    52
 10
-9.60660171508789
 20
1.0
 30
0.0
 11
-11.6066026687622
 21
-1.0
 31
0.0
  0
LINE
  5
    76
  8
0
  6
CONTINUOUS
 62
    52
 10
-7.48528146743774
 20
1.0
 30
0.0
 11
-9.48528289794922
 21
-1.0
 31
0.0
  0
LINE
  5
    77
  8
0
  6
CONTINUOUS
 62
    52
 10
-5.3639612197876
 20
1.0
 30
0.0
 11
-7.36396265029907
 21
-1.0
 31
0.0
  0
LINE
  5
    78
  8
0
  6
CONTINUOUS
 62
    52
 10
-3.47947335243225
 20
0.763167560100555
 30
0.0
 11
-5.24264097213745
 21
-1.0
 31
0.0
  0
LINE
  5
    79
  8
0
  6
CONTINUOUS
 62
    52
 10
-2.51160907745361
 20
-0.390288293361664
 30
0.0
 11
-3.1213207244873
 21
-1.0
 31
0.0
  0
ENDBLK
  5
    7A
  8
0
  6
CONTINUOUS
 62
     7
  0
BLOCK
  5
    7B
  8
0
  6
CONTINUOUS
 62
     7
  2
*HATCH23
 70
    65
 10
0.0
 20
0.0
 30
0.0
  3
*HATCH23
  0
LINE
  5
    7C
  8
0
  6
CONTINUOUS
 62
    52
 10
5.24264097213745
 20
1.0
 30
0.0
 11
3.24264073371887
 21
-1.0
 31
0.0
  0
LINE
  5
    7D
  8
0
  6
CONTINUOUS
 62
    52
 10
7.3639612197876
 20
1.0
 30
0.0
 11
5.3639612197876
 21
-1.0
 31
0.0
  0
LINE
  5
    7E
  8
0
  6
CONTINUOUS
 62
    52
 10
9.48528099060059
 20
1.0
 30
0.0
 11
7.4852819442749
 21
-1.0
 31
0.0
  0
ENDBLK
  5
    7F
  8
0
  6
CONTINUOUS
 62
     7
  0
BLOCK
  5
    80
  8
0
  6
CONTINUOUS
 62
     7
  2
*UDIM149
 70
    65
 10
0.0
 20
0.0
 30
0.0
  3
*UDIM149
  0
TEXT
  5
    81
  8
0
  6
CONTINUOUS
 62
     7
 10
233.039243463443
 20
13.4633311497466
 30
0.0
 40
3.00000002980232
  1
80
 50
449.241125536518
 41
0.933333333333333
 72
     1
 11
231.572486193508
 21
15.982978601271
 31
0.0
 73
     2
  0
TEXT
  5
    82
  8
0
  6
CONTINUOUS
 62
     7
 10
232.505518429181
 20
18.4708393211927
 30
0.0
 40
3.00000002980232
  1
°
 50
449.241125536518
 41
0.933333333333334
 72
     1
 11
231.02021890002
 21
19.5906095553997
 31
0.0
 73
     2
  0
LINE
  5
    83
  8
0
  6
CONTINUOUS
 62
     7
 10
215.976814096439
 20
13.0368717857958
 30
0.0
 11
230.17878126267
 21
1.12000637461996
 31
0.0
  0
LINE
  5
    84
  8
0
  6
CONTINUOUS
 62
     7
 10
215.976814096439
 20
21.678845529878
 30
0.0
 11
230.17878126267
 21
33.5957109410539
 31
0.0
  0
ARC
  5
    85
  8
0
  6
CONTINUOUS
 62
     7
 10
210.827262468132
 20
17.3578586578369
 30
0.0
 40
23.2616136940404
 50
319.999999815233
 51
399.999999769042
  0
LINE
  5
    86
  8
0
  6
CONTINUOUS
 62
     7
 10
230.146692467052
 20
5.00365775302694
 30
0.0
 11
228.646692376432
 21
2.40558159399304
 31
0.0
  0
LINE
  5
    87
  8
0
  6
CONTINUOUS
 62
     7
 10
228.646692376432
 20
2.40558159399304
 30
0.0
 11
230.944825638528
 21
4.33394450321065
 31
0.0
  0
LINE
  5
    88
  8
0
  6
CONTINUOUS
 62
     7
 10
230.944825638528
 20
30.3817728124632
 30
0.0
 11
228.646692376432
 21
32.3101357216808
 31
0.0
  0
LINE
  5
    89
  8
0
  6
CONTINUOUS
 62
     7
 10
228.646692376432
 20
32.3101357216808
 30
0.0
 11
230.146692467052
 21
29.7120595626469
 31
0.0
  0
ENDBLK
  5
    8A
  8
0
  6
CONTINUOUS
 62
     7
  0
BLOCK
  5
    8B
  8
0
  6
CONTINUOUS
 62
     7
  2
*UDIM150
 70
    65
 10
0.0
 20
0.0
 30
0.0
  3
*UDIM150
  0
TEXT
  5
    8C
  8
0
  6
CONTINUOUS
 62
     7
 10
192.765102379688
 20
23.2429256150137
 30
0.0
 40
3.00000002980232
  1
Ø4
 50
449.999999844103
 41
0.933333333333333
 72
     1
 11
191.265102371573
 21
25.7429256439209
 31
0.0
 73
     2
  0
LINE
  5
    8D
  8
0
  6
CONTINUOUS
 62
     7
 10
212.21076965332
 20
19.3578586578369
 30
0.0
 11
191.765102386475
 21
19.3578586578369
 31
0.0
  0
LINE
  5
    8E
  8
0
  6
CONTINUOUS
 62
     7
 10
212.21076965332
 20
15.3578586578369
 30
0.0
 11
191.765102386475
 21
15.3578586578369
 31
0.0
  0
LINE
  5
    8F
  8
0
  6
CONTINUOUS
 62
     7
 10
193.765102386475
 20
28.2429256687562
 30
0.0
 11
193.765102386475
 21
15.3578586578369
 31
0.0
  0
LINE
  5
    90
  8
0
  6
CONTINUOUS
 62
     7
 10
193.244157956523
 20
22.3122819350439
 30
0.0
 11
193.765102386475
 21
19.3578586578369
 31
0.0
  0
LINE
  5
    91
  8
0
  6
CONTINUOUS
 62
     7
 10
193.765102386475
 20
19.3578586578369
 30
0.0
 11
194.286046816426
 21
22.3122819350439
 31
0.0
  0
LINE
  5
    92
  8
0
  6
CONTINUOUS
 62
     7
 10
194.286046816426
 20
12.40343538063
 30
0.0
 11
193.765102386475
 21
15.3578586578369
 31
0.0
  0
LINE
  5
    93
  8
0
  6
CONTINUOUS
 62
     7
 10
193.765102386475
 20
15.3578586578369
 30
0.0
 11
193.244157956523
 21
12.40343538063
 31
0.0
  0
ENDBLK
  5
    94
  8
0
  6
CONTINUOUS
 62
     7
  0
BLOCK
  5
    95
  8
0
  6
CONTINUOUS
 62
     1
  2
*UDIM151
 70
    65
 10
0.0
 20
0.0
 30
0.0
  3
*UDIM151
  0
TEXT
  5
    96
  8
0
  6
CONTINUOUS
 62
     1
 10
-35.2303736461749
 20
-125.281573005311
 30
0.0
 40
2.00000009536742
  1
FORATURA DA ESEGUIRE SOLO PER ESECUZ.TERM.POST.
 50
359.999999896069
 41
0.937499979138376
 72
     2
 11
52.5196285806958
 21
-123.281573068676
 31
0.0
 73
     3
  0
TEXT
  5
    97
  8
0
  6
CONTINUOUS
 62
     1
 10
-33.3553735984912
 20
-128.281573007006
 30
0.0
 40
2.00000009536742
  1
REAR TERMINAL EXECUTION ONLY DRILLING TEMPLATE
 50
359.999999896069
 41
0.937499979138376
 72
     2
 11
52.5196285806958
 21
-126.28157306698
 31
0.0
 73
     3
  0
LINE
  5
    98
  8
0
  6
CONTINUOUS
 62
     1
 10
-30.501498193807
 20
-147.25901049876
 30
0.0
 11
-35.3053736398956
 21
-129.281573084677
 31
0.0
  0
LINE
  5
    99
  8
0
  6
CONTINUOUS
 62
     1
 10
-35.3053736398956
 20
-129.281573084677
 30
0.0
 11
52.5196285788869
 21
-129.281573084677
 31
0.0
  0
LINE
  5
    9A
  8
0
  6
CONTINUOUS
 62
     1
 10
-31.7674946257437
 20
-144.539221346211
 30
0.0
 11
-30.501498193807
 21
-147.25901049876
 31
0.0
  0
LINE
  5
    9B
  8
0
  6
CONTINUOUS
 62
     1
 10
-30.501498193807
 20
-147.25901049876
 30
0.0
 11
-30.7609232315625
 21
-144.270248439013
 31
0.0
  0
ENDBLK
  5
    9C
  8
0
  6
CONTINUOUS
 62
     1
  0
BLOCK
  5
    9D
  8
0
  6
CONTINUOUS
 62
     7
  2
*UDIM152
 70
    65
 10
0.0
 20
0.0
 30
0.0
  3
*UDIM152
  0
TEXT
  5
    9E
  8
0
  6
CONTINUOUS
 62
     7
 10
-61.7083814340163
 20
-190.601160546545
 30
0.0
 40
3.00000005960463
  1
40
 50
336.041640856291
 41
0.933333333333334
 72
     1
 11
-58.814670428261
 21
-190.245580804532
 31
0.0
 73
     2
  0
TEXT
  5
    9F
  8
0
  6
CONTINUOUS
 62
     7
 10
-64.2214437438991
 20
-189.484460885662
 30
0.0
 40
3.00000005960463
  1
R
 50
336.041640856291
 41
0.933333333333334
 72
     1
 11
-62.6071099120699
 21
-188.560379494821
 31
0.0
 73
     2
  0
LINE
  5
    A0
  8
0
  6
CONTINUOUS
 62
     7
 10
-64.6275163388119
 20
-190.39830170968
 30
0.0
 11
-35.6257218583318
 21
-203.285484814682
 31
0.0
  0
LINE
  5
    A1
  8
0
  6
CONTINUOUS
 62
     7
 10
-46.4219203239278
 20
-197.918045911886
 30
0.0
 11
-49.3333341747852
 21
-197.194395865913
 31
0.0
  0
LINE
  5
    A2
  8
0
  6
CONTINUOUS
 62
     7
 10
-49.3333341747852
 20
-197.194395865913
 30
0.0
 11
-46.8450028386213
 21
-198.870166483112
 31
0.0
  0
ENDBLK
  5
    A3
  8
0
  6
CONTINUOUS
 62
     7
  0
BLOCK
  5
    A4
  8
0
  6
CONTINUOUS
 62
     7
  2
*UDIM153
 70
    65
 10
0.0
 20
0.0
 30
0.0
  3
*UDIM153
  0
TEXT
  5
    A5
  8
0
  6
CONTINUOUS
 62
     7
 10
-70.0549184492806
 20
-185.214983509391
 30
0.0
 40
3.00000005960463
  1
315
 50
449.999999896069
 41
0.933333333333334
 72
     1
 11
-71.554918472033
 21
-181.314983429193
 31
0.0
 73
     2
  0
LINE
  5
    A6
  8
0
  6
CONTINUOUS
 62
     7
 10
-56.9429303062368
 20
-151.442979365587
 30
0.0
 11
-71.0549184422307
 21
-151.442979365587
 31
0.0
  0
LINE
  5
    A7
  8
0
  6
CONTINUOUS
 62
     7
 10
-56.9429303062368
 20
-200.44297644496
 30
0.0
 11
-71.0549184422307
 21
-200.44297644496
 31
0.0
  0
LINE
  5
    A8
  8
0
  6
CONTINUOUS
 62
     7
 10
-69.0549184422307
 20
-151.442979365587
 30
0.0
 11
-69.0549184422307
 21
-200.44297644496
 31
0.0
  0
LINE
  5
    A9
  8
0
  6
CONTINUOUS
 62
     7
 10
-68.533974012279
 20
-154.397402642794
 30
0.0
 11
-69.0549184422307
 21
-151.442979365587
 31
0.0
  0
LINE
  5
    AA
  8
0
  6
CONTINUOUS
 62
     7
 10
-69.0549184422307
 20
-151.442979365587
 30
0.0
 11
-69.5758628721824
 21
-154.397402642794
 31
0.0
  0
LINE
  5
    AB
  8
0
  6
CONTINUOUS
 62
     7
 10
-69.5758628721824
 20
-197.488553167753
 30
0.0
 11
-69.0549184422307
 21
-200.44297644496
 31
0.0
  0
LINE
  5
    AC
  8
0
  6
CONTINUOUS
 62
     7
 10
-69.0549184422307
 20
-200.44297644496
 30
0.0
 11
-68.533974012279
 21
-197.488553167753
 31
0.0
  0
ENDBLK
  5
    AD
  8
0
  6
CONTINUOUS
 62
     7
  0
BLOCK
  5
    AE
  8
0
  6
CONTINUOUS
 62
     7
  2
*UDIM154
 70
    65
 10
0.0
 20
0.0
 30
0.0
  3
*UDIM154
  0
TEXT
  5
    AF
  8
0
  6
CONTINUOUS
 62
     7
 10
-61.0880092013032
 20
-173.442978319257
 30
0.0
 40
3.00000005960463
  1
165,75
 50
449.999999896069
 41
0.933333333333334
 72
     1
 11
-62.5880092164634
 21
-165.342978155613
 31
0.0
 73
     2
  0
LINE
  5
    B0
  8
0
  6
CONTINUOUS
 62
     7
 10
-56.9429303062368
 20
-151.442979365587
 30
0.0
 11
-62.0880091866611
 21
-151.442979365587
 31
0.0
  0
LINE
  5
    B1
  8
0
  6
CONTINUOUS
 62
     7
 10
-42.8145598523416
 20
-175.942977905273
 30
0.0
 11
-62.0880091866611
 21
-175.942977905273
 31
0.0
  0
LINE
  5
    B2
  8
0
  6
CONTINUOUS
 62
     7
 10
-60.0880091866611
 20
-151.442979365587
 30
0.0
 11
-60.0880091866611
 21
-175.942977905273
 31
0.0
  0
LINE
  5
    B3
  8
0
  6
CONTINUOUS
 62
     7
 10
-59.5670647567094
 20
-154.397402642794
 30
0.0
 11
-60.0880091866611
 21
-151.442979365587
 31
0.0
  0
LINE
  5
    B4
  8
0
  6
CONTINUOUS
 62
     7
 10
-60.0880091866611
 20
-151.442979365587
 30
0.0
 11
-60.6089536166128
 21
-154.397402642794
 31
0.0
  0
LINE
  5
    B5
  8
0
  6
CONTINUOUS
 62
     7
 10
-60.6089536166128
 20
-172.988554628067
 30
0.0
 11
-60.0880091866611
 21
-175.942977905273
 31
0.0
  0
LINE
  5
    B6
  8
0
  6
CONTINUOUS
 62
     7
 10
-60.0880091866611
 20
-175.942977905273
 30
0.0
 11
-59.5670647567094
 21
-172.988554628067
 31
0.0
  0
ENDBLK
  5
    B7
  8
0
  6
CONTINUOUS
 62
     7
  0
BLOCK
  5
    B8
  8
0
  6
CONTINUOUS
 62
     7
  2
*UDIM155
 70
    65
 10
0.0
 20
0.0
 30
0.0
  3
*UDIM155
  0
TEXT
  5
    B9
  8
0
  6
CONTINUOUS
 62
     7
 10
24.3513991683823
 20
-154.101168657579
 30
0.0
 40
3.00000005960463
  1
50
 50
449.999999896069
 41
0.933333333333334
 72
     1
 11
22.8513991430991
 21
-151.601168605197
 31
0.0
 73
     2
  0
LINE
  5
    BA
  8
0
  6
CONTINUOUS
 62
     7
 10
-33.2676065023958
 20
-146.44297966361
 30
0.0
 11
27.3513991729014
 21
-146.44297966361
 31
0.0
  0
LINE
  5
    BB
  8
0
  6
CONTINUOUS
 62
     7
 10
-33.2676065023958
 20
-156.442979067564
 30
0.0
 11
27.3513991729014
 21
-156.442979067564
 31
0.0
  0
LINE
  5
    BC
  8
0
  6
CONTINUOUS
 62
     7
 10
25.3513991729014
 20
-146.44297966361
 30
0.0
 11
25.3513991729014
 21
-156.442979067564
 31
0.0
  0
LINE
  5
    BD
  8
0
  6
CONTINUOUS
 62
     7
 10
24.8304547429498
 20
-143.488556386404
 30
0.0
 11
25.3513991729014
 21
-146.44297966361
 31
0.0
  0
LINE
  5
    BE
  8
0
  6
CONTINUOUS
 62
     7
 10
25.3513991729014
 20
-146.44297966361
 30
0.0
 11
25.8723436028531
 21
-143.488556386404
 31
0.0
  0
LINE
  5
    BF
  8
0
  6
CONTINUOUS
 62
     7
 10
25.8723436028531
 20
-159.397402344771
 30
0.0
 11
25.3513991729014
 21
-156.442979067564
 31
0.0
  0
LINE
  5
    C0
  8
0
  6
CONTINUOUS
 62
     7
 10
25.3513991729014
 20
-156.442979067564
 30
0.0
 11
24.8304547429498
 21
-159.397402344771
 31
0.0
  0
ENDBLK
  5
    C1
  8
0
  6
CONTINUOUS
 62
     7
  0
BLOCK
  5
    C2
  8
0
  6
CONTINUOUS
 62
     7
  2
*UDIM156
 70
    65
 10
0.0
 20
0.0
 30
0.0
  3
*UDIM156
  0
TEXT
  5
    C3
  8
0
  6
CONTINUOUS
 62
     7
 10
-9.79761002086736
 20
-183.147725946866
 30
0.0
 40
3.00000005960463
  1
70
 50
359.999999896069
 41
0.933333333333334
 72
     1
 11
-7.29760996848346
 21
-181.647725921586
 31
0.0
 73
     2
  0
LINE
  5
    C4
  8
0
  6
CONTINUOUS
 62
     7
 10
-2.26105451583862E-2
 20
-184.147725951389
 30
0.0
 11
-14.0226097106934
 21
-184.147725951389
 31
0.0
  0
LINE
  5
    C5
  8
0
  6
CONTINUOUS
 62
     7
 10
-2.97703382236535
 20
-184.66867038134
 30
0.0
 11
-2.26105451583862E-2
 21
-184.147725951389
 31
0.0
  0
LINE
  5
    C6
  8
0
  6
CONTINUOUS
 62
     7
 10
-2.26105451583862E-2
 20
-184.147725951389
 30
0.0
 11
-2.97703382236535
 21
-183.626781521437
 31
0.0
  0
LINE
  5
    C7
  8
0
  6
CONTINUOUS
 62
     7
 10
-11.0681864334864
 20
-183.626781521437
 30
0.0
 11
-14.0226097106934
 21
-184.147725951389
 31
0.0
  0
LINE
  5
    C8
  8
0
  6
CONTINUOUS
 62
     7
 10
-14.0226097106934
 20
-184.147725951389
 30
0.0
 11
-11.0681864334864
 21
-184.66867038134
 31
0.0
  0
ENDBLK
  5
    C9
  8
0
  6
CONTINUOUS
 62
     7
  0
BLOCK
  5
    CA
  8
0
  6
CONTINUOUS
 62
     7
  2
*UDIM157
 70
    65
 10
0.0
 20
0.0
 30
0.0
  3
*UDIM157
  0
TEXT
  5
    CB
  8
0
  6
CONTINUOUS
 62
     7
 10
-23.7976091864023
 20
-183.147725946866
 30
0.0
 40
3.00000005960463
  1
70
 50
359.999999896069
 41
0.933333333333334
 72
     1
 11
-21.2976091340184
 21
-181.647725921586
 31
0.0
 73
     2
  0
LINE
  5
    CC
  8
0
  6
CONTINUOUS
 62
     7
 10
-14.0226097106934
 20
-184.147725951389
 30
0.0
 11
-28.0226088762283
 21
-184.147725951389
 31
0.0
  0
LINE
  5
    CD
  8
0
  6
CONTINUOUS
 62
     7
 10
-16.9770329879003
 20
-184.66867038134
 30
0.0
 11
-14.0226097106934
 21
-184.147725951389
 31
0.0
  0
LINE
  5
    CE
  8
0
  6
CONTINUOUS
 62
     7
 10
-14.0226097106934
 20
-184.147725951389
 30
0.0
 11
-16.9770329879003
 21
-183.626781521437
 31
0.0
  0
LINE
  5
    CF
  8
0
  6
CONTINUOUS
 62
     7
 10
-25.0681855990214
 20
-183.626781521437
 30
0.0
 11
-28.0226088762283
 21
-184.147725951389
 31
0.0
  0
LINE
  5
    D0
  8
0
  6
CONTINUOUS
 62
     7
 10
-28.0226088762283
 20
-184.147725951389
 30
0.0
 11
-25.0681855990214
 21
-184.66867038134
 31
0.0
  0
ENDBLK
  5
    D1
  8
0
  6
CONTINUOUS
 62
     7
  0
BLOCK
  5
    D2
  8
0
  6
CONTINUOUS
 62
     7
  2
*UDIM158
 70
    65
 10
0.0
 20
0.0
 30
0.0
  3
*UDIM158
  0
TEXT
  5
    D3
  8
0
  6
CONTINUOUS
 62
     7
 10
-37.7976083519373
 20
-183.147725946866
 30
0.0
 40
3.00000005960463
  1
70
 50
359.999999896069
 41
0.933333333333334
 72
     1
 11
-35.2976082995534
 21
-181.647725921586
 31
0.0
 73
     2
  0
LINE
  5
    D4
  8
0
  6
CONTINUOUS
 62
     7
 10
-28.0226088762283
 20
-184.147725951389
 30
0.0
 11
-42.0226080417633
 21
-184.147725951389
 31
0.0
  0
LINE
  5
    D5
  8
0
  6
CONTINUOUS
 62
     7
 10
-30.9770321534353
 20
-184.66867038134
 30
0.0
 11
-28.0226088762283
 21
-184.147725951389
 31
0.0
  0
LINE
  5
    D6
  8
0
  6
CONTINUOUS
 62
     7
 10
-28.0226088762283
 20
-184.147725951389
 30
0.0
 11
-30.9770321534353
 21
-183.626781521437
 31
0.0
  0
LINE
  5
    D7
  8
0
  6
CONTINUOUS
 62
     7
 10
-39.0681847645563
 20
-183.626781521437
 30
0.0
 11
-42.0226080417633
 21
-184.147725951389
 31
0.0
  0
LINE
  5
    D8
  8
0
  6
CONTINUOUS
 62
     7
 10
-42.0226080417633
 20
-184.147725951389
 30
0.0
 11
-39.0681847645563
 21
-184.66867038134
 31
0.0
  0
ENDBLK
  5
    D9
  8
0
  6
CONTINUOUS
 62
     7
  0
BLOCK
  5
    DA
  8
0
  6
CONTINUOUS
 62
     7
  2
*UDIM159
 70
    65
 10
0.0
 20
0.0
 30
0.0
  3
*UDIM159
  0
TEXT
  5
    DB
  8
0
  6
CONTINUOUS
 62
     7
 10
-77.8375168699468
 20
-168.868730754837
 30
0.0
 40
3.00000005960463
  1
197,25
 50
449.999999896069
 41
0.933333333333334
 72
     1
 11
-79.3375168851071
 21
-160.768730591193
 31
0.0
 73
     2
  0
LINE
  5
    DC
  8
0
  6
CONTINUOUS
 62
     7
 10
-28.3465565138171
 20
-145.142979741097
 30
0.0
 11
-78.8375168553048
 21
-145.142979741097
 31
0.0
  0
LINE
  5
    DD
  8
0
  6
CONTINUOUS
 62
     7
 10
-49.9297872158935
 20
-175.942977905273
 30
0.0
 11
-78.8375168553048
 21
-175.942977905273
 31
0.0
  0
LINE
  5
    DE
  8
0
  6
CONTINUOUS
 62
     7
 10
-76.8375168553048
 20
-145.142979741097
 30
0.0
 11
-76.8375168553048
 21
-175.942977905273
 31
0.0
  0
LINE
  5
    DF
  8
0
  6
CONTINUOUS
 62
     7
 10
-76.3165724253531
 20
-148.097403018303
 30
0.0
 11
-76.8375168553048
 21
-145.142979741097
 31
0.0
  0
LINE
  5
    E0
  8
0
  6
CONTINUOUS
 62
     7
 10
-76.8375168553048
 20
-145.142979741097
 30
0.0
 11
-77.3584612852565
 21
-148.097403018303
 31
0.0
  0
LINE
  5
    E1
  8
0
  6
CONTINUOUS
 62
     7
 10
-77.3584612852565
 20
-172.988554628067
 30
0.0
 11
-76.8375168553048
 21
-175.942977905273
 31
0.0
  0
LINE
  5
    E2
  8
0
  6
CONTINUOUS
 62
     7
 10
-76.8375168553048
 20
-175.942977905273
 30
0.0
 11
-76.3165724253531
 21
-172.988554628067
 31
0.0
  0
ENDBLK
  5
    E3
  8
0
  6
CONTINUOUS
 62
     7
  0
BLOCK
  5
    E4
  8
0
  6
CONTINUOUS
 62
     7
  2
*UDIM160
 70
    65
 10
0.0
 20
0.0
 30
0.0
  3
*UDIM160
  0
TEXT
  5
    E5
  8
0
  6
CONTINUOUS
 62
     7
 10
-12.9926808571091
 20
-165.636875702753
 30
0.0
 40
3.00000005960463
  1
35
 50
359.999999896069
 41
0.933333333333334
 72
     1
 11
-10.4926808047252
 21
-164.136875677473
 31
0.0
 73
     2
  0
LINE
  5
    E6
  8
0
  6
CONTINUOUS
 62
     7
 10
-7.02261012792587
 20
-166.636875707275
 30
0.0
 11
-14.0226097106934
 21
-166.636875707275
 31
0.0
  0
LINE
  5
    E7
  8
0
  6
CONTINUOUS
 62
     7
 10
-4.06818685071891
 20
-166.115931277323
 30
0.0
 11
-7.02261012792587
 21
-166.636875707275
 31
0.0
  0
LINE
  5
    E8
  8
0
  6
CONTINUOUS
 62
     7
 10
-7.02261012792587
 20
-166.636875707275
 30
0.0
 11
-4.06818685071891
 21
-167.157820137227
 31
0.0
  0
LINE
  5
    E9
  8
0
  6
CONTINUOUS
 62
     7
 10
-16.9770329879003
 20
-167.157820137227
 30
0.0
 11
-14.0226097106934
 21
-166.636875707275
 31
0.0
  0
LINE
  5
    EA
  8
0
  6
CONTINUOUS
 62
     7
 10
-14.0226097106934
 20
-166.636875707275
 30
0.0
 11
-16.9770329879003
 21
-166.115931277323
 31
0.0
  0
ENDBLK
  5
    EB
  8
0
  6
CONTINUOUS
 62
     7
  0
BLOCK
  5
    EC
  8
0
  6
CONTINUOUS
 62
     7
  2
*UDIM161
 70
    65
 10
0.0
 20
0.0
 30
0.0
  3
*UDIM161
  0
TEXT
  5
    ED
  8
0
  6
CONTINUOUS
 62
     7
 10
-84.985660967542
 20
-180.117977355714
 30
0.0
 40
3.00000005960463
  1
378
 50
449.999999896069
 41
0.933333333333334
 72
     1
 11
-86.4856609902945
 21
-176.217977275517
 31
0.0
 73
     2
  0
LINE
  5
    EE
  8
0
  6
CONTINUOUS
 62
     7
 10
-28.3465565138171
 20
-145.14297942718
 30
0.0
 11
-85.9856609604921
 21
-145.142961333316
 31
0.0
  0
LINE
  5
    EF
  8
0
  6
CONTINUOUS
 62
     7
 10
-30.0202898083805
 20
-206.742975755534
 30
0.0
 11
-85.9856609604921
 21
-206.742958187082
 31
0.0
  0
LINE
  5
    F0
  8
0
  6
CONTINUOUS
 62
     7
 10
-83.9856609604922
 20
-145.142961961149
 30
0.0
 11
-83.9856609604922
 21
-206.742958814915
 31
0.0
  0
LINE
  5
    F1
  8
0
  6
CONTINUOUS
 62
     7
 10
-83.4647165305405
 20
-148.097385238356
 30
0.0
 11
-83.9856609604922
 21
-145.142961961149
 31
0.0
  0
LINE
  5
    F2
  8
0
  6
CONTINUOUS
 62
     7
 10
-83.9856609604922
 20
-145.142961961149
 30
0.0
 11
-84.5066053904438
 21
-148.097385238356
 31
0.0
  0
LINE
  5
    F3
  8
0
  6
CONTINUOUS
 62
     7
 10
-84.5066053904438
 20
-203.788535537708
 30
0.0
 11
-83.9856609604922
 21
-206.742958814915
 31
0.0
  0
LINE
  5
    F4
  8
0
  6
CONTINUOUS
 62
     7
 10
-83.9856609604922
 20
-206.742958814915
 30
0.0
 11
-83.4647165305405
 21
-203.788535537708
 31
0.0
  0
ENDBLK
  5
    F5
  8
0
  6
CONTINUOUS
 62
     7
  0
BLOCK
  5
    F6
  8
0
  6
CONTINUOUS
 62
     7
  2
*UDIM162
 70
    65
 10
0.0
 20
0.0
 30
0.0
  3
*UDIM162
  0
TEXT
  5
    F7
  8
0
  6
CONTINUOUS
 62
     7
 10
18.5409486093866
 20
-191.737861226294
 30
0.0
 40
3.00000005960463
  1
5,5
 50
388.478485351186
 41
0.933333333333334
 72
     1
 11
21.253790844584
 21
-188.559734781244
 31
0.0
 73
     2
  0
TEXT
  5
    F8
  8
0
  6
CONTINUOUS
 62
     7
 10
15.7721104793726
 20
-193.239871748911
 30
0.0
 40
3.00000005960463
  1
Ø
 50
388.478485351186
 41
0.933333333333334
 72
     1
 11
16.0237632370462
 21
-191.396865773055
 31
0.0
 73
     2
  0
TEXT
  5
    F9
  8
0
  6
CONTINUOUS
 62
     7
 10
25.8805672211175
 20
-187.756341237465
 30
0.0
 40
3.00000005960463
  1
 - M5
 50
388.478485351186
 41
0.933333333333333
 72
     1
 11
31.0545989338388
 21
-183.243094323222
 31
0.0
 73
     2
  0
LINE
  5
    FA
  8
0
  6
CONTINUOUS
 62
     7
 10
38.1359455912735
 20
-182.245832346598
 30
0.0
 11
-7.50605802211563
 21
-207.005231855931
 31
0.0
  0
LINE
  5
    FB
  8
0
  6
CONTINUOUS
 62
     7
 10
-4.19063660153282
 20
-204.614058193869
 30
0.0
 11
-6.53916223373612
 21
-206.48072028297
 31
0.0
  0
LINE
  5
    FC
  8
0
  6
CONTINUOUS
 62
     7
 10
-6.53916223373612
 20
-206.48072028297
 30
0.0
 11
-3.6938340585037
 21
-205.529874567184
 31
0.0
  0
LINE
  5
    FD
  8
0
  6
CONTINUOUS
 62
     7
 10
-9.85458365431893
 20
-208.871893945031
 30
0.0
 11
-7.50605802211563
 21
-207.005231855931
 31
0.0
  0
LINE
  5
    FE
  8
0
  6
CONTINUOUS
 62
     7
 10
-7.50605802211563
 20
-207.005231855931
 30
0.0
 11
-10.351386197348
 21
-207.956077571717
 31
0.0
  0
ENDBLK
  5
    FF
  8
0
  6
CONTINUOUS
 62
     7
  0
BLOCK
  5
   100
  8
0
  6
CONTINUOUS
 62
     7
  2
*UDIM163
 70
    65
 10
0.0
 20
0.0
 30
0.0
  3
*UDIM163
  0
TEXT
  5
   101
  8
0
  6
CONTINUOUS
 62
     7
 10
-25.1976091188504
 20
-189.802730430477
 30
0.0
 40
3.00000005960463
  1
140
 50
359.999999896069
 41
0.933333333333334
 72
     1
 11
-21.297609038651
 21
-188.30273040773
 31
0.0
 73
     2
  0
LINE
  5
   102
  8
0
  6
CONTINUOUS
 62
     7
 10
-7.02261012792587
 20
-190.802730437532
 30
0.0
 11
-35.0226084589958
 21
-190.802730437532
 31
0.0
  0
LINE
  5
   103
  8
0
  6
CONTINUOUS
 62
     7
 10
-9.97703340513284
 20
-191.323674867484
 30
0.0
 11
-7.02261012792587
 21
-190.802730437532
 31
0.0
  0
LINE
  5
   104
  8
0
  6
CONTINUOUS
 62
     7
 10
-7.02261012792587
 20
-190.802730437532
 30
0.0
 11
-9.97703340513284
 21
-190.28178600758
 31
0.0
  0
LINE
  5
   105
  8
0
  6
CONTINUOUS
 62
     7
 10
-32.0681851817889
 20
-190.28178600758
 30
0.0
 11
-35.0226084589958
 21
-190.802730437532
 31
0.0
  0
LINE
  5
   106
  8
0
  6
CONTINUOUS
 62
     7
 10
-35.0226084589958
 20
-190.802730437532
 30
0.0
 11
-32.0681851817889
 21
-191.323674867484
 31
0.0
  0
ENDBLK
  5
   107
  8
0
  6
CONTINUOUS
 62
     7
  0
BLOCK
  5
   108
  8
0
  6
CONTINUOUS
 62
     7
  2
*HATCH24
 70
    65
 10
0.0
 20
0.0
 30
0.0
  3
*HATCH24
  0
LINE
  5
   109
  8
0
  6
CONTINUOUS
 62
    52
 10
179.222381591797
 20
234.376708984375
 30
0.0
 11
177.499420166016
 21
232.653732299805
 31
0.0
  0
LINE
  5
   10A
  8
0
  6
CONTINUOUS
 62
    52
 10
179.499420166016
 20
230.411087036133
 30
0.0
 11
177.499420166016
 21
228.411087036133
 31
0.0
  0
LINE
  5
   10B
  8
0
  6
CONTINUOUS
 62
    52
 10
179.499420166016
 20
226.168441772461
 30
0.0
 11
177.499420166016
 21
224.168441772461
 31
0.0
  0
LINE
  5
   10C
  8
0
  6
CONTINUOUS
 62
    52
 10
179.499420166016
 20
221.925796508789
 30
0.0
 11
177.499420166016
 21
219.925796508789
 31
0.0
  0
LINE
  5
   10D
  8
0
  6
CONTINUOUS
 62
    52
 10
179.499420166016
 20
217.683151245117
 30
0.0
 11
177.499420166016
 21
215.683151245117
 31
0.0
  0
LINE
  5
   10E
  8
0
  6
CONTINUOUS
 62
    52
 10
179.499420166016
 20
213.440505981445
 30
0.0
 11
177.499420166016
 21
211.440505981445
 31
0.0
  0
LINE
  5
   10F
  8
0
  6
CONTINUOUS
 62
    52
 10
179.499420166016
 20
209.197860717773
 30
0.0
 11
177.499420166016
 21
207.197860717773
 31
0.0
  0
LINE
  5
   110
  8
0
  6
CONTINUOUS
 62
    52
 10
179.499420166016
 20
204.955215454102
 30
0.0
 11
177.499420166016
 21
202.955215454102
 31
0.0
  0
LINE
  5
   111
  8
0
  6
CONTINUOUS
 62
    52
 10
179.499420166016
 20
200.71257019043
 30
0.0
 11
177.499420166016
 21
198.71257019043
 31
0.0
  0
LINE
  5
   112
  8
0
  6
CONTINUOUS
 62
    52
 10
179.499420166016
 20
196.469924926758
 30
0.0
 11
177.499420166016
 21
194.469924926758
 31
0.0
  0
LINE
  5
   113
  8
0
  6
CONTINUOUS
 62
    52
 10
179.499420166016
 20
192.227279663086
 30
0.0
 11
177.499420166016
 21
190.227279663086
 31
0.0
  0
LINE
  5
   114
  8
0
  6
CONTINUOUS
 62
    52
 10
179.499420166016
 20
187.984634399414
 30
0.0
 11
177.499420166016
 21
185.984634399414
 31
0.0
  0
LINE
  5
   115
  8
0
  6
CONTINUOUS
 62
    52
 10
179.499420166016
 20
183.741989135742
 30
0.0
 11
177.499420166016
 21
181.741989135742
 31
0.0
  0
LINE
  5
   116
  8
0
  6
CONTINUOUS
 62
    52
 10
179.499420166016
 20
179.49934387207
 30
0.0
 11
177.499420166016
 21
177.49934387207
 31
0.0
  0
LINE
  5
   117
  8
0
  6
CONTINUOUS
 62
    52
 10
179.499420166016
 20
175.256698608398
 30
0.0
 11
177.499420166016
 21
173.256698608398
 31
0.0
  0
LINE
  5
   118
  8
0
  6
CONTINUOUS
 62
    52
 10
179.499420166016
 20
171.014053344727
 30
0.0
 11
177.499420166016
 21
169.014053344727
 31
0.0
  0
LINE
  5
   119
  8
0
  6
CONTINUOUS
 62
    52
 10
179.499420166016
 20
166.771408081055
 30
0.0
 11
177.499420166016
 21
164.771408081055
 31
0.0
  0
LINE
  5
   11A
  8
0
  6
CONTINUOUS
 62
    52
 10
179.499420166016
 20
162.528762817383
 30
0.0
 11
177.499420166016
 21
160.528762817383
 31
0.0
  0
LINE
  5
   11B
  8
0
  6
CONTINUOUS
 62
    52
 10
179.499420166016
 20
158.286117553711
 30
0.0
 11
177.499420166016
 21
156.286117553711
 31
0.0
  0
LINE
  5
   11C
  8
0
  6
CONTINUOUS
 62
    52
 10
179.499420166016
 20
154.043563842773
 30
0.0
 11
179.205703735352
 21
153.749847412109
 31
0.0
  0
ENDBLK
  5
   11D
  8
0
  6
CONTINUOUS
 62
     7
  0
BLOCK
  5
   11E
  8
0
  6
CONTINUOUS
 62
     7
  2
*HATCH25
 70
    65
 10
0.0
 20
0.0
 30
0.0
  3
*HATCH25
  0
LINE
  5
   11F
  8
0
  6
CONTINUOUS
 62
    52
 10
179.499420166016
 20
-9.29809856414795
 30
0.0
 11
177.499420166016
 21
-11.2980985641479
 31
0.0
  0
LINE
  5
   120
  8
0
  6
CONTINUOUS
 62
    52
 10
179.499420166016
 20
-13.5407390594482
 30
0.0
 11
177.499420166016
 21
-15.5407390594482
 31
0.0
  0
LINE
  5
   121
  8
0
  6
CONTINUOUS
 62
    52
 10
179.499420166016
 20
-17.7833805084229
 30
0.0
 11
177.499420166016
 21
-19.7833805084229
 31
0.0
  0
LINE
  5
   122
  8
0
  6
CONTINUOUS
 62
    52
 10
179.499420166016
 20
-22.0260219573975
 30
0.0
 11
177.499420166016
 21
-24.0260219573975
 31
0.0
  0
LINE
  5
   123
  8
0
  6
CONTINUOUS
 62
    52
 10
179.499420166016
 20
-26.2686634063721
 30
0.0
 11
177.499420166016
 21
-28.2686634063721
 31
0.0
  0
LINE
  5
   124
  8
0
  6
CONTINUOUS
 62
    52
 10
179.499420166016
 20
-30.5113048553467
 30
0.0
 11
177.499420166016
 21
-32.511302947998
 31
0.0
  0
LINE
  5
   125
  8
0
  6
CONTINUOUS
 62
    52
 10
179.499420166016
 20
-34.7539443969727
 30
0.0
 11
177.499420166016
 21
-36.7539405822754
 31
0.0
  0
LINE
  5
   126
  8
0
  6
CONTINUOUS
 62
    52
 10
179.499420166016
 20
-38.99658203125
 30
0.0
 11
177.499420166016
 21
-40.9965782165527
 31
0.0
  0
LINE
  5
   127
  8
0
  6
CONTINUOUS
 62
    52
 10
179.499420166016
 20
-43.2392196655273
 30
0.0
 11
177.499420166016
 21
-45.2392158508301
 31
0.0
  0
LINE
  5
   128
  8
0
  6
CONTINUOUS
 62
    52
 10
179.499420166016
 20
-47.4818572998047
 30
0.0
 11
177.499420166016
 21
-49.4818534851074
 31
0.0
  0
LINE
  5
   129
  8
0
  6
CONTINUOUS
 62
    52
 10
179.499420166016
 20
-51.724494934082
 30
0.0
 11
177.499420166016
 21
-53.7244911193848
 31
0.0
  0
LINE
  5
   12A
  8
0
  6
CONTINUOUS
 62
    52
 10
179.499420166016
 20
-55.9671325683594
 30
0.0
 11
177.499420166016
 21
-57.9671287536621
 31
0.0
  0
LINE
  5
   12B
  8
0
  6
CONTINUOUS
 62
    52
 10
179.499420166016
 20
-60.2097702026367
 30
0.0
 11
177.499420166016
 21
-62.2097663879395
 31
0.0
  0
LINE
  5
   12C
  8
0
  6
CONTINUOUS
 62
    52
 10
179.499420166016
 20
-64.4524078369141
 30
0.0
 11
177.499420166016
 21
-66.4524078369141
 31
0.0
  0
LINE
  5
   12D
  8
0
  6
CONTINUOUS
 62
    52
 10
179.499420166016
 20
-68.6950531005859
 30
0.0
 11
177.499420166016
 21
-70.6950531005859
 31
0.0
  0
LINE
  5
   12E
  8
0
  6
CONTINUOUS
 62
    52
 10
179.499420166016
 20
-72.9376983642578
 30
0.0
 11
177.499420166016
 21
-74.9376983642578
 31
0.0
  0
LINE
  5
   12F
  8
0
  6
CONTINUOUS
 62
    52
 10
179.499420166016
 20
-77.1803436279297
 30
0.0
 11
177.499420166016
 21
-79.1803436279297
 31
0.0
  0
LINE
  5
   130
  8
0
  6
CONTINUOUS
 62
    52
 10
179.499420166016
 20
-81.4229888916016
 30
0.0
 11
177.499420166016
 21
-83.4229888916016
 31
0.0
  0
LINE
  5
   131
  8
0
  6
CONTINUOUS
 62
    52
 10
179.499420166016
 20
-85.6656341552734
 30
0.0
 11
177.499420166016
 21
-87.6656341552734
 31
0.0
  0
LINE
  5
   132
  8
0
  6
CONTINUOUS
 62
    52
 10
179.499420166016
 20
-89.9082794189453
 30
0.0
 11
177.499420166016
 21
-91.9082794189453
 31
0.0
  0
LINE
  5
   133
  8
0
  6
CONTINUOUS
 62
    52
 10
179.499420166016
 20
-94.1509246826172
 30
0.0
 11
177.499420166016
 21
-96.1509246826172
 31
0.0
  0
ENDBLK
  5
   134
  8
0
  6
CONTINUOUS
 62
     7
  0
BLOCK
  5
   135
  8
0
  6
CONTINUOUS
 62
     7
  2
*HATCH26
 70
    65
 10
0.0
 20
0.0
 30
0.0
  3
*HATCH26
  0
LINE
  5
   136
  8
0
  6
CONTINUOUS
 62
    52
 10
170.220428466797
 20
153.249862670898
 30
0.0
 11
167.999420166016
 21
151.028839111328
 31
0.0
  0
LINE
  5
   137
  8
0
  6
CONTINUOUS
 62
    52
 10
170.499420166016
 20
149.286209106445
 30
0.0
 11
167.999420166016
 21
146.786209106445
 31
0.0
  0
LINE
  5
   138
  8
0
  6
CONTINUOUS
 62
    52
 10
170.499420166016
 20
145.043563842773
 30
0.0
 11
169.705718994141
 21
144.249862670898
 31
0.0
  0
ENDBLK
  5
   139
  8
0
  6
CONTINUOUS
 62
     7
  0
BLOCK
  5
   13A
  8
0
  6
CONTINUOUS
 62
     7
  2
*UDIM164
 70
    65
 10
0.0
 20
0.0
 30
0.0
  3
*UDIM164
  0
TEXT
  5
   13B
  8
0
  6
CONTINUOUS
 62
     7
 10
112.307442050277
 20
46.2440646258037
 30
0.0
 40
3.00000001532688
  1
2
 41
0.933333333333333
 72
     1
 11
113.407442055897
 21
47.7440646334672
 31
0.0
 73
     2
  0
LINE
  5
   13C
  8
0
  6
CONTINUOUS
 62
     7
 10
118.057441533079
 20
12.0783092591579
 30
0.0
 11
118.057441533079
 21
47.2440646258037
 31
0.0
  0
LINE
  5
   13D
  8
0
  6
CONTINUOUS
 62
     7
 10
118.757441461554
 20
11.6320593047555
 30
0.0
 11
118.757441461554
 21
47.2440646258037
 31
0.0
  0
LINE
  5
   13E
  8
0
  6
CONTINUOUS
 62
     7
 10
112.307442050277
 20
45.2440646258037
 30
0.0
 11
118.757441461554
 21
45.2440646258037
 31
0.0
  0
LINE
  5
   13F
  8
0
  6
CONTINUOUS
 62
     7
 10
115.103018255872
 20
44.7231201958521
 30
0.0
 11
118.057441533079
 21
45.2440646258037
 31
0.0
  0
LINE
  5
   140
  8
0
  6
CONTINUOUS
 62
     7
 10
118.057441533079
 20
45.2440646258037
 30
0.0
 11
115.103018255872
 21
45.7650090557554
 31
0.0
  0
LINE
  5
   141
  8
0
  6
CONTINUOUS
 62
     7
 10
121.711864738761
 20
45.7650090557554
 30
0.0
 11
118.757441461554
 21
45.2440646258037
 31
0.0
  0
LINE
  5
   142
  8
0
  6
CONTINUOUS
 62
     7
 10
118.757441461554
 20
45.2440646258037
 30
0.0
 11
121.711864738761
 21
44.7231201958521
 31
0.0
  0
ENDBLK
  5
   143
  8
0
  6
CONTINUOUS
 62
     7
  0
BLOCK
  5
   144
  8
0
  6
CONTINUOUS
 62
     7
  2
*UDIM165
 70
    65
 10
0.0
 20
0.0
 30
0.0
  3
*UDIM165
  0
TEXT
  5
   145
  8
0
  6
CONTINUOUS
 62
     7
 10
121.23584076594
 20
46.2440646258037
 30
0.0
 40
3.00000001532688
  1
44,5
 41
0.933333333333333
 72
     1
 11
126.535840793018
 21
47.7440646334672
 31
0.0
 73
     2
  0
LINE
  5
   146
  8
0
  6
CONTINUOUS
 62
     7
 10
134.33243719194
 20
-27.2005031748465
 30
0.0
 11
134.33243719194
 21
47.2440646258037
 31
0.0
  0
LINE
  5
   147
  8
0
  6
CONTINUOUS
 62
     7
 10
118.757441461554
 20
45.2440646258037
 30
0.0
 11
134.33243719194
 21
45.2440646258037
 31
0.0
  0
LINE
  5
   148
  8
0
  6
CONTINUOUS
 62
     7
 10
115.803018184347
 20
44.7231201958521
 30
0.0
 11
118.757441461554
 21
45.2440646258037
 31
0.0
  0
LINE
  5
   149
  8
0
  6
CONTINUOUS
 62
     7
 10
118.757441461554
 20
45.2440646258037
 30
0.0
 11
115.803018184347
 21
45.7650090557554
 31
0.0
  0
LINE
  5
   14A
  8
0
  6
CONTINUOUS
 62
     7
 10
137.286860469147
 20
45.7650090557554
 30
0.0
 11
134.33243719194
 21
45.2440646258037
 31
0.0
  0
LINE
  5
   14B
  8
0
  6
CONTINUOUS
 62
     7
 10
134.33243719194
 20
45.2440646258037
 30
0.0
 11
137.286860469147
 21
44.7231201958521
 31
0.0
  0
ENDBLK
  5
   14C
  8
0
  6
CONTINUOUS
 62
     7
  0
BLOCK
  5
   14D
  8
0
  6
CONTINUOUS
 62
     7
  2
*UDIM166
 70
    65
 10
0.0
 20
0.0
 30
0.0
  3
*UDIM166
  0
TEXT
  5
   14E
  8
0
  6
CONTINUOUS
 62
     7
 10
145.001900328907
 20
46.2440646258037
 30
0.0
 40
3.00000001532688
  1
22
 41
0.933333333333333
 72
     1
 11
147.501900341679
 21
47.7440646334672
 31
0.0
 73
     2
  0
LINE
  5
   14F
  8
0
  6
CONTINUOUS
 62
     7
 10
142.026897279738
 20
-45.1066224323163
 30
0.0
 11
142.026897279738
 21
47.2440646258037
 31
0.0
  0
LINE
  5
   150
  8
0
  6
CONTINUOUS
 62
     7
 10
134.33243719194
 20
45.2440646258037
 30
0.0
 11
150.001900354451
 21
45.2440646258037
 31
0.0
  0
LINE
  5
   151
  8
0
  6
CONTINUOUS
 62
     7
 10
137.286860469147
 20
45.7650090557554
 30
0.0
 11
134.33243719194
 21
45.2440646258037
 31
0.0
  0
LINE
  5
   152
  8
0
  6
CONTINUOUS
 62
     7
 10
134.33243719194
 20
45.2440646258037
 30
0.0
 11
137.286860469147
 21
44.7231201958521
 31
0.0
  0
LINE
  5
   153
  8
0
  6
CONTINUOUS
 62
     7
 10
139.072474002531
 20
44.7231201958521
 30
0.0
 11
142.026897279738
 21
45.2440646258037
 31
0.0
  0
LINE
  5
   154
  8
0
  6
CONTINUOUS
 62
     7
 10
142.026897279738
 20
45.2440646258037
 30
0.0
 11
139.072474002531
 21
45.7650090557554
 31
0.0
  0
ENDBLK
  5
   155
  8
0
  6
CONTINUOUS
 62
     7
  0
BLOCK
  5
   156
  8
0
  6
CONTINUOUS
 62
     7
  2
*UDIM167
 70
    65
 10
0.0
 20
0.0
 30
0.0
  3
*UDIM167
  0
TEXT
  5
   157
  8
0
  6
CONTINUOUS
 62
     7
 10
73.5451458571642
 20
39.3438593372102
 30
0.0
 40
3.00000001532688
  1
140,5
 41
0.933333333333333
 72
     1
 11
80.2451458913943
 21
40.8438593448737
 31
0.0
 73
     2
  0
LINE
  5
   158
  8
0
  6
CONTINUOUS
 62
     7
 10
55.9326515197754
 20
35.2704366152974
 30
0.0
 11
55.9326515197754
 21
40.3438593372102
 31
0.0
  0
LINE
  5
   159
  8
0
  6
CONTINUOUS
 62
     7
 10
105.107641154528
 20
-28.6004978865358
 30
0.0
 11
105.107641154528
 21
40.3438593372102
 31
0.0
  0
LINE
  5
   15A
  8
0
  6
CONTINUOUS
 62
     7
 10
55.9326515197754
 20
38.3438593372102
 30
0.0
 11
105.107641154528
 21
38.3438593372102
 31
0.0
  0
LINE
  5
   15B
  8
0
  6
CONTINUOUS
 62
     7
 10
58.8870747969824
 20
38.8648037671619
 30
0.0
 11
55.9326515197754
 21
38.3438593372102
 31
0.0
  0
LINE
  5
   15C
  8
0
  6
CONTINUOUS
 62
     7
 10
55.9326515197754
 20
38.3438593372102
 30
0.0
 11
58.8870747969824
 21
37.8229149072586
 31
0.0
  0
LINE
  5
   15D
  8
0
  6
CONTINUOUS
 62
     7
 10
102.153217877321
 20
37.8229149072586
 30
0.0
 11
105.107641154528
 21
38.3438593372102
 31
0.0
  0
LINE
  5
   15E
  8
0
  6
CONTINUOUS
 62
     7
 10
105.107641154528
 20
38.3438593372102
 30
0.0
 11
102.153217877321
 21
38.8648037671619
 31
0.0
  0
ENDBLK
  5
   15F
  8
0
  6
CONTINUOUS
 62
     7
  0
BLOCK
  5
   160
  8
0
  6
CONTINUOUS
 62
     7
  2
*UDIM168
 70
    65
 10
0.0
 20
0.0
 30
0.0
  3
*UDIM168
  0
TEXT
  5
   161
  8
0
  6
CONTINUOUS
 62
     7
 10
108.807543096606
 20
39.3438593372102
 30
0.0
 40
3.00000001532688
  1
37
 41
0.933333333333333
 72
     1
 11
111.307543109378
 21
40.8438593448737
 31
0.0
 73
     2
  0
LINE
  5
   162
  8
0
  6
CONTINUOUS
 62
     7
 10
118.057441533079
 20
12.0783092591579
 30
0.0
 11
118.057441533079
 21
40.3438593372102
 31
0.0
  0
LINE
  5
   163
  8
0
  6
CONTINUOUS
 62
     7
 10
105.107641154528
 20
38.3438593372102
 30
0.0
 11
118.057441533079
 21
38.3438593372102
 31
0.0
  0
LINE
  5
   164
  8
0
  6
CONTINUOUS
 62
     7
 10
108.062064431735
 20
38.8648037671619
 30
0.0
 11
105.107641154528
 21
38.3438593372102
 31
0.0
  0
LINE
  5
   165
  8
0
  6
CONTINUOUS
 62
     7
 10
105.107641154528
 20
38.3438593372102
 30
0.0
 11
108.062064431735
 21
37.8229149072586
 31
0.0
  0
LINE
  5
   166
  8
0
  6
CONTINUOUS
 62
     7
 10
115.103018255872
 20
37.8229149072586
 30
0.0
 11
118.057441533079
 21
38.3438593372102
 31
0.0
  0
LINE
  5
   167
  8
0
  6
CONTINUOUS
 62
     7
 10
118.057441533079
 20
38.3438593372102
 30
0.0
 11
115.103018255872
 21
38.8648037671619
 31
0.0
  0
ENDBLK
  5
   168
  8
0
  6
CONTINUOUS
 62
     7
  0
BLOCK
  5
   169
  8
0
  6
CONTINUOUS
 62
     7
  2
*UDIM169
 70
    65
 10
0.0
 20
0.0
 30
0.0
  3
*UDIM169
  0
TEXT
  5
   16A
  8
0
  6
CONTINUOUS
 62
     7
 10
124.818453653085
 20
-130.452484854849
 30
0.0
 40
3.00000001532688
  1
42,5
 41
0.933333333333333
 72
     1
 11
130.118453680162
 21
-128.952484847186
 31
0.0
 73
     2
  0
LINE
  5
   16B
  8
0
  6
CONTINUOUS
 62
     7
 10
105.107641154528
 20
-67.1754727870221
 30
0.0
 11
105.107641154528
 21
-133.452484854849
 31
0.0
  0
LINE
  5
   16C
  8
0
  6
CONTINUOUS
 62
     7
 10
119.982441336384
 20
-83.8005152690778
 30
0.0
 11
119.982441336384
 21
-133.452484854849
 31
0.0
  0
LINE
  5
   16D
  8
0
  6
CONTINUOUS
 62
     7
 10
105.107641154528
 20
-131.452484854849
 30
0.0
 11
135.418453707239
 21
-131.452484854849
 31
0.0
  0
LINE
  5
   16E
  8
0
  6
CONTINUOUS
 62
     7
 10
108.062064431735
 20
-130.931540424897
 30
0.0
 11
105.107641154528
 21
-131.452484854849
 31
0.0
  0
LINE
  5
   16F
  8
0
  6
CONTINUOUS
 62
     7
 10
105.107641154528
 20
-131.452484854849
 30
0.0
 11
108.062064431735
 21
-131.973429284801
 31
0.0
  0
LINE
  5
   170
  8
0
  6
CONTINUOUS
 62
     7
 10
117.028018059177
 20
-131.973429284801
 30
0.0
 11
119.982441336384
 21
-131.452484854849
 31
0.0
  0
LINE
  5
   171
  8
0
  6
CONTINUOUS
 62
     7
 10
119.982441336384
 20
-131.452484854849
 30
0.0
 11
117.028018059177
 21
-130.931540424897
 31
0.0
  0
ENDBLK
  5
   172
  8
0
  6
CONTINUOUS
 62
     7
  0
BLOCK
  5
   173
  8
0
  6
CONTINUOUS
 62
     7
  2
*UDIM170
 70
    65
 10
0.0
 20
0.0
 30
0.0
  3
*UDIM170
  0
TEXT
  5
   174
  8
0
  6
CONTINUOUS
 62
     7
 10
222.104703610042
 20
-103.500316586468
 30
0.0
 40
3.00000002980232
  1
R.min 200
 50
359.999999844103
 41
0.933333333333333
 72
     1
 11
234.404703736305
 21
-102.000316604972
 31
0.0
 73
     2
  0
LINE
  5
   175
  8
0
  6
CONTINUOUS
 62
     7
 10
210.557830810547
 20
-77.6912618672061
 30
0.0
 11
210.557830810547
 21
-106.500316619873
 31
0.0
  0
LINE
  5
   176
  8
0
  6
CONTINUOUS
 62
     7
 10
260.557830810547
 20
-92.0033974607448
 30
0.0
 11
260.557830810547
 21
-106.500316619873
 31
0.0
  0
LINE
  5
   177
  8
0
  6
CONTINUOUS
 62
     7
 10
210.557830810547
 20
-104.500316619873
 30
0.0
 11
260.557830810547
 21
-104.500316619873
 31
0.0
  0
LINE
  5
   178
  8
0
  6
CONTINUOUS
 62
     7
 10
213.512254087754
 20
-103.979372189921
 30
0.0
 11
210.557830810547
 21
-104.500316619873
 31
0.0
  0
LINE
  5
   179
  8
0
  6
CONTINUOUS
 62
     7
 10
210.557830810547
 20
-104.500316619873
 30
0.0
 11
213.512254087754
 21
-105.021261049825
 31
0.0
  0
LINE
  5
   17A
  8
0
  6
CONTINUOUS
 62
     7
 10
257.60340753334
 20
-105.021261049825
 30
0.0
 11
260.557830810547
 21
-104.500316619873
 31
0.0
  0
LINE
  5
   17B
  8
0
  6
CONTINUOUS
 62
     7
 10
260.557830810547
 20
-104.500316619873
 30
0.0
 11
257.60340753334
 21
-103.979372189921
 31
0.0
  0
ENDBLK
  5
   17C
  8
0
  6
CONTINUOUS
 62
     7
  0
BLOCK
  5
   17D
  8
0
  6
CONTINUOUS
 62
     7
  2
*UDIM171
 70
    65
 10
0.0
 20
0.0
 30
0.0
  3
*UDIM171
  0
TEXT
  5
   17E
  8
0
  6
CONTINUOUS
 62
     7
 10
196.805239811439
 20
-38.3602237557474
 30
0.0
 40
3.00000002980232
  1
2,75
 50
359.999999844103
 41
0.933333333333333
 72
     1
 11
202.105239868164
 21
-36.8602237552404
 31
0.0
 73
     2
  0
LINE
  5
   17F
  8
0
  6
CONTINUOUS
 62
     7
 10
209.870330810547
 20
-26.0453471374512
 30
0.0
 11
209.870330810547
 21
-41.3602237701416
 31
0.0
  0
LINE
  5
   180
  8
0
  6
CONTINUOUS
 62
     7
 10
196.805239815513
 20
-39.3602237701416
 30
0.0
 11
210.557830810547
 21
-39.3602237701416
 31
0.0
  0
LINE
  5
   181
  8
0
  6
CONTINUOUS
 62
     7
 10
206.91590753334
 20
-39.8811682000933
 30
0.0
 11
209.870330810547
 21
-39.3602237701416
 31
0.0
  0
LINE
  5
   182
  8
0
  6
CONTINUOUS
 62
     7
 10
209.870330810547
 20
-39.3602237701416
 30
0.0
 11
206.91590753334
 21
-38.8392793401899
 31
0.0
  0
LINE
  5
   183
  8
0
  6
CONTINUOUS
 62
     7
 10
213.512254087754
 20
-38.8392793401899
 30
0.0
 11
210.557830810547
 21
-39.3602237701416
 31
0.0
  0
LINE
  5
   184
  8
0
  6
CONTINUOUS
 62
     7
 10
210.557830810547
 20
-39.3602237701416
 30
0.0
 11
213.512254087754
 21
-39.8811682000933
 31
0.0
  0
ENDBLK
  5
   185
  8
0
  6
CONTINUOUS
 62
     7
  0
BLOCK
  5
   186
  8
0
  6
CONTINUOUS
 62
     7
  2
*UDIM172
 70
    65
 10
0.0
 20
0.0
 30
0.0
  3
*UDIM172
  0
TEXT
  5
   187
  8
0
  6
CONTINUOUS
 62
     7
 10
241.869567864307
 20
-37.4003471723189
 30
0.0
 40
3.00000002980232
  1
90
 50
449.999999844103
 41
0.933333333333333
 72
     1
 11
240.369567856193
 21
-34.9003471434116
 31
0.0
 73
     2
  0
LINE
  5
   188
  8
0
  6
CONTINUOUS
 62
     7
 10
223.790330810547
 20
-23.3753471374512
 30
0.0
 11
244.869567871094
 21
-23.3753471374512
 31
0.0
  0
LINE
  5
   189
  8
0
  6
CONTINUOUS
 62
     7
 10
242.869567871094
 20
-23.3753471374512
 30
0.0
 11
242.869567871094
 21
-45.8753471374512
 31
0.0
  0
LINE
  5
   18A
  8
0
  6
CONTINUOUS
 62
     7
 10
243.390512301045
 20
-26.3297704146581
 30
0.0
 11
242.869567871094
 21
-23.3753471374512
 31
0.0
  0
LINE
  5
   18B
  8
0
  6
CONTINUOUS
 62
     7
 10
242.869567871094
 20
-23.3753471374512
 30
0.0
 11
242.348623441142
 21
-26.3297704146581
 31
0.0
  0
LINE
  5
   18C
  8
0
  6
CONTINUOUS
 62
     7
 10
242.348623441142
 20
-42.9209238602442
 30
0.0
 11
242.869567871094
 21
-45.8753471374512
 31
0.0
  0
LINE
  5
   18D
  8
0
  6
CONTINUOUS
 62
     7
 10
242.869567871094
 20
-45.8753471374512
 30
0.0
 11
243.390512301045
 21
-42.9209238602442
 31
0.0
  0
ENDBLK
  5
   18E
  8
0
  6
CONTINUOUS
 62
     7
  0
BLOCK
  5
   18F
  8
0
  6
CONTINUOUS
 62
     7
  2
*UDIM173
 70
    65
 10
0.0
 20
0.0
 30
0.0
  3
*UDIM173
  0
TEXT
  5
   190
  8
0
  6
CONTINUOUS
 62
     7
 10
212.920858451127
 20
-13.5146922997288
 30
0.0
 40
3.00000002980232
  1
45
 50
359.999999844103
 41
0.933333333333333
 72
     1
 11
215.420858480036
 21
-12.0146922916174
 31
0.0
 73
     2
  0
LINE
  5
   191
  8
0
  6
CONTINUOUS
 62
     7
 10
209.870330810547
 20
-20.7053471374512
 30
0.0
 11
209.870330810547
 21
-12.5146923065186
 31
0.0
  0
LINE
  5
   192
  8
0
  6
CONTINUOUS
 62
     7
 10
221.120330810547
 20
-20.7053471374512
 30
0.0
 11
221.120330810547
 21
-12.5146923065186
 31
0.0
  0
LINE
  5
   193
  8
0
  6
CONTINUOUS
 62
     7
 10
209.870330810547
 20
-14.5146923065186
 30
0.0
 11
221.120330810547
 21
-14.5146923065186
 31
0.0
  0
LINE
  5
   194
  8
0
  6
CONTINUOUS
 62
     7
 10
206.91590753334
 20
-15.0356367364702
 30
0.0
 11
209.870330810547
 21
-14.5146923065186
 31
0.0
  0
LINE
  5
   195
  8
0
  6
CONTINUOUS
 62
     7
 10
209.870330810547
 20
-14.5146923065186
 30
0.0
 11
206.91590753334
 21
-13.9937478765669
 31
0.0
  0
LINE
  5
   196
  8
0
  6
CONTINUOUS
 62
     7
 10
224.074754087754
 20
-13.9937478765669
 30
0.0
 11
221.120330810547
 21
-14.5146923065186
 31
0.0
  0
LINE
  5
   197
  8
0
  6
CONTINUOUS
 62
     7
 10
221.120330810547
 20
-14.5146923065186
 30
0.0
 11
224.074754087754
 21
-15.0356367364702
 31
0.0
  0
ENDBLK
  5
   198
  8
0
  6
CONTINUOUS
 62
     7
  0
BLOCK
  5
   199
  8
0
  6
CONTINUOUS
 62
     7
  2
*UDIM174
 70
    65
 10
0.0
 20
0.0
 30
0.0
  3
*UDIM174
  0
TEXT
  5
   19A
  8
0
  6
CONTINUOUS
 62
     7
 10
180.555465384182
 20
-78.6104069797531
 30
0.0
 40
3.00000002980232
  1
7
 50
397.208926617964
 41
0.933333333333334
 72
     1
 11
180.524459858626
 21
-76.750557865946
 31
0.0
 73
     2
  0
TEXT
  5
   19B
  8
0
  6
CONTINUOUS
 62
     7
 10
178.046692887092
 20
-80.5152850914515
 30
0.0
 40
3.00000002980232
  1
Ø
 50
397.208926617964
 41
0.933333333333334
 72
     1
 11
178.015687361536
 21
-78.6554359776444
 31
0.0
 73
     2
  0
LINE
  5
   19C
  8
0
  6
CONTINUOUS
 62
     7
 10
196.879712057541
 20
-67.4712143303149
 30
0.0
 11
178.651416100298
 21
-81.3117208022176
 31
0.0
  0
LINE
  5
   19D
  8
0
  6
CONTINUOUS
 62
     7
 10
198.917693073525
 20
-65.2697072604898
 30
0.0
 11
196.879712057541
 21
-67.4712143303149
 31
0.0
  0
LINE
  5
   19E
  8
0
  6
CONTINUOUS
 62
     7
 10
196.879712057541
 20
-67.4712143303149
 30
0.0
 11
199.547747447427
 21
-66.099504755254
 31
0.0
  0
LINE
  5
   19F
  8
0
  6
CONTINUOUS
 62
     7
 10
193.447968547569
 20
-70.7309870144125
 30
0.0
 11
195.485949563553
 21
-68.5294799445875
 31
0.0
  0
LINE
  5
   1A0
  8
0
  6
CONTINUOUS
 62
     7
 10
195.485949563553
 20
-68.5294799445875
 30
0.0
 11
192.817914173667
 21
-69.9011895196484
 31
0.0
  0
ENDBLK
  5
   1A1
  8
0
  6
CONTINUOUS
 62
     7
  0
BLOCK
  5
   1A2
  8
0
  6
CONTINUOUS
 62
     7
  2
*UDIM175
 70
    65
 10
0.0
 20
0.0
 30
0.0
  3
*UDIM175
  0
TEXT
  5
   1A3
  8
0
  6
CONTINUOUS
 62
     7
 10
206.38283076177
 20
-92.2549514664588
 30
0.0
 40
3.00000002980232
  1
147
 50
359.999999844103
 41
0.933333333333333
 72
     1
 11
210.282830804586
 21
-90.7549514621496
 31
0.0
 73
     2
  0
LINE
  5
   1A4
  8
0
  6
CONTINUOUS
 62
     7
 10
192.182830810547
 20
-65.2503471374512
 30
0.0
 11
192.182830810547
 21
-95.2549514770508
 31
0.0
  0
LINE
  5
   1A5
  8
0
  6
CONTINUOUS
 62
     7
 10
228.932830810547
 20
-65.2503471374512
 30
0.0
 11
228.932830810547
 21
-95.2549514770508
 31
0.0
  0
LINE
  5
   1A6
  8
0
  6
CONTINUOUS
 62
     7
 10
192.182830810547
 20
-93.2549514770508
 30
0.0
 11
228.932830810547
 21
-93.2549514770508
 31
0.0
  0
LINE
  5
   1A7
  8
0
  6
CONTINUOUS
 62
     7
 10
195.137254087754
 20
-92.7340070470991
 30
0.0
 11
192.182830810547
 21
-93.2549514770508
 31
0.0
  0
LINE
  5
   1A8
  8
0
  6
CONTINUOUS
 62
     7
 10
192.182830810547
 20
-93.2549514770508
 30
0.0
 11
195.137254087754
 21
-93.7758959070024
 31
0.0
  0
LINE
  5
   1A9
  8
0
  6
CONTINUOUS
 62
     7
 10
225.97840753334
 20
-93.7758959070024
 30
0.0
 11
228.932830810547
 21
-93.2549514770508
 31
0.0
  0
LINE
  5
   1AA
  8
0
  6
CONTINUOUS
 62
     7
 10
228.932830810547
 20
-93.2549514770508
 30
0.0
 11
225.97840753334
 21
-92.7340070470991
 31
0.0
  0
ENDBLK
  5
   1AB
  8
0
  6
CONTINUOUS
 62
     7
  0
BLOCK
  5
   1AC
  8
0
  6
CONTINUOUS
 62
     7
  2
*UDIM176
 70
    65
 10
0.0
 20
0.0
 30
0.0
  3
*UDIM176
  0
TEXT
  5
   1AD
  8
0
  6
CONTINUOUS
 62
     7
 10
206.38283076177
 20
-80.8360443009315
 30
0.0
 40
3.00000002980232
  1
115
 50
359.999999844103
 41
0.933333333333333
 72
     1
 11
210.282830804586
 21
-79.3360442966223
 31
0.0
 73
     2
  0
LINE
  5
   1AE
  8
0
  6
CONTINUOUS
 62
     7
 10
196.182830810547
 20
-26.3753471374512
 30
0.0
 11
196.182830810547
 21
-83.8360443115234
 31
0.0
  0
LINE
  5
   1AF
  8
0
  6
CONTINUOUS
 62
     7
 10
224.932830810547
 20
-26.3753471374512
 30
0.0
 11
224.932830810547
 21
-83.8360443115234
 31
0.0
  0
LINE
  5
   1B0
  8
0
  6
CONTINUOUS
 62
     7
 10
196.182830810547
 20
-81.8360443115234
 30
0.0
 11
224.932830810547
 21
-81.8360443115234
 31
0.0
  0
LINE
  5
   1B1
  8
0
  6
CONTINUOUS
 62
     7
 10
199.137254087754
 20
-81.3150998815718
 30
0.0
 11
196.182830810547
 21
-81.8360443115234
 31
0.0
  0
LINE
  5
   1B2
  8
0
  6
CONTINUOUS
 62
     7
 10
196.182830810547
 20
-81.8360443115234
 30
0.0
 11
199.137254087754
 21
-82.3569887414751
 31
0.0
  0
LINE
  5
   1B3
  8
0
  6
CONTINUOUS
 62
     7
 10
221.97840753334
 20
-82.3569887414751
 30
0.0
 11
224.932830810547
 21
-81.8360443115234
 31
0.0
  0
LINE
  5
   1B4
  8
0
  6
CONTINUOUS
 62
     7
 10
224.932830810547
 20
-81.8360443115234
 30
0.0
 11
221.97840753334
 21
-81.3150998815718
 31
0.0
  0
ENDBLK
  5
   1B5
  8
0
  6
CONTINUOUS
 62
     7
  0
BLOCK
  5
   1B6
  8
0
  6
CONTINUOUS
 62
     7
  2
*UDIM177
 70
    65
 10
0.0
 20
0.0
 30
0.0
  3
*UDIM177
  0
TEXT
  5
   1B7
  8
0
  6
CONTINUOUS
 62
     7
 10
169.537090290927
 20
-50.0503471862266
 30
0.0
 40
3.00000002980232
  1
177
 50
449.999999844103
 41
0.933333333333333
 72
     1
 11
168.037090286613
 21
-46.1503471434116
 31
0.0
 73
     2
  0
LINE
  5
   1B8
  8
0
  6
CONTINUOUS
 62
     7
 10
193.557830810547
 20
-23.7503471374512
 30
0.0
 11
168.537090301514
 21
-23.7503471374512
 31
0.0
  0
LINE
  5
   1B9
  8
0
  6
CONTINUOUS
 62
     7
 10
193.557830810547
 20
-68.0003471374512
 30
0.0
 11
168.537090301514
 21
-68.0003471374512
 31
0.0
  0
LINE
  5
   1BA
  8
0
  6
CONTINUOUS
 62
     7
 10
170.537090301514
 20
-23.7503471374512
 30
0.0
 11
170.537090301514
 21
-68.0003471374512
 31
0.0
  0
LINE
  5
   1BB
  8
0
  6
CONTINUOUS
 62
     7
 10
171.058034731465
 20
-26.7047704146581
 30
0.0
 11
170.537090301514
 21
-23.7503471374512
 31
0.0
  0
LINE
  5
   1BC
  8
0
  6
CONTINUOUS
 62
     7
 10
170.537090301514
 20
-23.7503471374512
 30
0.0
 11
170.016145871562
 21
-26.7047704146581
 31
0.0
  0
LINE
  5
   1BD
  8
0
  6
CONTINUOUS
 62
     7
 10
170.016145871562
 20
-65.0459238602442
 30
0.0
 11
170.537090301514
 21
-68.0003471374512
 31
0.0
  0
LINE
  5
   1BE
  8
0
  6
CONTINUOUS
 62
     7
 10
170.537090301514
 20
-68.0003471374512
 30
0.0
 11
171.058034731465
 21
-65.0459238602442
 31
0.0
  0
ENDBLK
  5
   1BF
  8
0
  6
CONTINUOUS
 62
     7
  0
BLOCK
  5
   1C0
  8
0
  6
CONTINUOUS
 62
     7
  2
*UDIM178
 70
    65
 10
0.0
 20
0.0
 30
0.0
  3
*UDIM178
  0
TEXT
  5
   1C1
  8
0
  6
CONTINUOUS
 62
     7
 10
178.909399022006
 20
-50.0503471862266
 30
0.0
 40
3.00000002980232
  1
147
 50
449.999999844103
 41
0.933333333333333
 72
     1
 11
177.409399017692
 21
-46.1503471434116
 31
0.0
 73
     2
  0
LINE
  5
   1C2
  8
0
  6
CONTINUOUS
 62
     7
 10
191.182830810547
 20
-27.5003471374512
 30
0.0
 11
177.909399032593
 21
-27.5003471374512
 31
0.0
  0
LINE
  5
   1C3
  8
0
  6
CONTINUOUS
 62
     7
 10
191.182830810547
 20
-64.2503471374512
 30
0.0
 11
177.909399032593
 21
-64.2503471374512
 31
0.0
  0
LINE
  5
   1C4
  8
0
  6
CONTINUOUS
 62
     7
 10
179.909399032593
 20
-27.5003471374512
 30
0.0
 11
179.909399032593
 21
-64.2503471374512
 31
0.0
  0
LINE
  5
   1C5
  8
0
  6
CONTINUOUS
 62
     7
 10
180.430343462544
 20
-30.4547704146581
 30
0.0
 11
179.909399032593
 21
-27.5003471374512
 31
0.0
  0
LINE
  5
   1C6
  8
0
  6
CONTINUOUS
 62
     7
 10
179.909399032593
 20
-27.5003471374512
 30
0.0
 11
179.388454602641
 21
-30.4547704146581
 31
0.0
  0
LINE
  5
   1C7
  8
0
  6
CONTINUOUS
 62
     7
 10
179.388454602641
 20
-61.2959238602442
 30
0.0
 11
179.909399032593
 21
-64.2503471374512
 31
0.0
  0
LINE
  5
   1C8
  8
0
  6
CONTINUOUS
 62
     7
 10
179.909399032593
 20
-64.2503471374512
 30
0.0
 11
180.430343462544
 21
-61.2959238602442
 31
0.0
  0
ENDBLK
  5
   1C9
  8
0
  6
CONTINUOUS
 62
     7
  0
ENDSEC
  0
SECTION
  2
ENTITIES
  0
LINE
  5
   1CA
  8
0
  6
CONTINUOUS
 62
     1
 10
22.6398651808522
 20
-0.462979501485279
 30
0.0
 11
22.6036453969555
 21
-0.462979501485279
 31
0.0
  0
LINE
  5
   1CB
  8
0
  6
CONTINUOUS
 62
     1
 10
-50.4225928245081
 20
-89.0129602926967
 30
0.0
 11
-50.42259287373
 21
-88.6629603284595
 31
0.0
  0
LINE
  5
   1CC
  8
0
  6
DASHDOT
 62
     7
 10
10.4773877859116
 20
2.39209239672566
 30
0.0
 11
10.4773877859116
 21
31.6603991820338
 31
0.0
  0
LINE
  5
   1CD
  8
0
  6
CONTINUOUS
 62
   130
 10
2.60238859057426
 20
3.38693999648967
 30
0.0
 11
2.60238859057426
 21
3.56193997860828
 31
0.0
  0
LINE
  5
   1CE
  8
0
  6
CONTINUOUS
 62
   130
 10
18.3523869812489
 20
3.38693999648967
 30
0.0
 11
18.3523869812489
 21
3.56193997860828
 31
0.0
  0
LINE
  5
   1CF
  8
0
  6
CONTINUOUS
 62
     7
 10
10.3023863004689
 20
-21.3755236619566
 30
0.0
 11
-38.3476087285037
 21
-21.3755236619566
 31
0.0
  0
LINE
  5
   1D0
  8
0
  6
CONTINUOUS
 62
     7
 10
10.3023863004689
 20
-70.3755209082218
 30
0.0
 11
-38.3476087285037
 21
-70.3755209082218
 31
0.0
  0
LINE
  5
   1D1
  8
0
  6
CONTINUOUS
 62
     7
 10
10.2148863094096
 20
-25.5755232328032
 30
0.0
 11
-38.2601087374444
 21
-25.5755232328032
 31
0.0
  0
LINE
  5
   1D2
  8
0
  6
CONTINUOUS
 62
     7
 10
10.2148863094096
 20
-22.075523590431
 30
0.0
 11
-38.2601087374444
 21
-22.075523590431
 31
0.0
  0
LINE
  5
   1D3
  8
0
  6
CONTINUOUS
 62
     7
 10
-38.5226087106224
 20
-70.2005209261032
 30
0.0
 11
-38.5226087106224
 21
-21.5505236440752
 31
0.0
  0
LINE
  5
   1D4
  8
0
  6
CONTINUOUS
 62
     7
 10
10.4773862825875
 20
-70.2005209261032
 30
0.0
 11
10.4773862825875
 21
-21.5505236440752
 31
0.0
  0
LINE
  5
   1D5
  8
0
  6
CONTINUOUS
 62
     7
 10
7.32738660445257
 20
-28.9880255544038
 30
0.0
 11
7.32738660445257
 21
-27.9380256616922
 31
0.0
  0
LINE
  5
   1D6
  8
0
  6
CONTINUOUS
 62
     7
 10
8.37738649716421
 20
-28.9880255544038
 30
0.0
 11
8.37738649716421
 21
-27.9380256616922
 31
0.0
  0
LINE
  5
   1D7
  8
0
  6
DOT
 62
     7
 10
1.62237677326352
 20
-66.7248106389114
 30
0.0
 11
1.62237677326352
 21
-63.876232381546
 31
0.0
  0
LINE
  5
   1D8
  8
0
  6
DOT
 62
     7
 10
6.03237578859484
 20
-66.7248106389114
 30
0.0
 11
6.03237578859484
 21
-63.876232381546
 31
0.0
  0
LINE
  5
   1D9
  8
0
  6
CONTINUOUS
 62
     7
 10
8.5523760362869
 20
-58.9129742691182
 30
0.0
 11
8.50111986162513
 21
-58.7892304615501
 31
0.0
  0
LINE
  5
   1DA
  8
0
  6
CONTINUOUS
 62
     7
 10
8.50112003657417
 20
-58.7892305554209
 30
0.0
 11
8.37737622900612
 21
-58.7379743807591
 31
0.0
  0
LINE
  5
   1DB
  8
0
  6
CONTINUOUS
 62
     7
 10
8.37737581601295
 20
-58.7379744493863
 30
0.0
 11
7.32737592330132
 21
-58.7379744493863
 31
0.0
  0
LINE
  5
   1DC
  8
0
  6
CONTINUOUS
 62
     7
 10
7.20363260181611
 20
-58.7892303834121
 30
0.0
 11
7.32737640938416
 21
-58.7379742087504
 31
0.0
  0
LINE
  5
   1DD
  8
0
  6
CONTINUOUS
 62
     7
 10
7.1523762574647
 20
-58.9129740981352
 30
0.0
 11
7.20363243212647
 21
-58.7892302905672
 31
0.0
  0
LINE
  5
   1DE
  8
0
  6
CONTINUOUS
 62
     7
 10
7.15237594118271
 20
-59.7879743420979
 30
0.0
 11
7.15237594118271
 21
-58.9129744315049
 31
0.0
  0
LINE
  5
   1DF
  8
0
  6
CONTINUOUS
 62
     7
 10
7.15237594118271
 20
-60.4879749381443
 30
0.0
 11
7.15237594118271
 21
-59.7879743420979
 31
0.0
  0
LINE
  5
   1E0
  8
0
  6
CONTINUOUS
 62
     7
 10
7.15237594118271
 20
-61.1879748666187
 30
0.0
 11
7.15237594118271
 21
-60.4879749381443
 31
0.0
  0
LINE
  5
   1E1
  8
0
  6
CONTINUOUS
 62
     7
 10
7.15237594118271
 20
-61.8879747950932
 30
0.0
 11
7.15237594118271
 21
-61.1879748666187
 31
0.0
  0
LINE
  5
   1E2
  8
0
  6
CONTINUOUS
 62
     7
 10
7.15237594118271
 20
-62.7629747056862
 30
0.0
 11
7.15237594118271
 21
-61.8879747950932
 31
0.0
  0
LINE
  5
   1E3
  8
0
  6
CONTINUOUS
 62
     7
 10
7.20363235237258
 20
-62.8867184257946
 30
0.0
 11
7.15237617771081
 21
-62.7629746182266
 31
0.0
  0
LINE
  5
   1E4
  8
0
  6
CONTINUOUS
 62
     7
 10
7.32737632860446
 20
-62.9379746665007
 30
0.0
 11
7.20363252103641
 21
-62.8867184918389
 31
0.0
  0
LINE
  5
   1E5
  8
0
  6
CONTINUOUS
 62
     7
 10
8.37737581601295
 20
-62.9379746878048
 30
0.0
 11
7.32737592330132
 21
-62.9379746878048
 31
0.0
  0
LINE
  5
   1E6
  8
0
  6
CONTINUOUS
 62
     7
 10
8.37737630978582
 20
-62.9379744944919
 30
0.0
 11
8.50112011735387
 21
-62.8867183198302
 31
0.0
  0
LINE
  5
   1E7
  8
0
  6
CONTINUOUS
 62
     7
 10
8.50111994137902
 20
-62.8867182548117
 30
0.0
 11
8.55237611604078
 21
-62.7629744472436
 31
0.0
  0
LINE
  5
   1E8
  8
0
  6
CONTINUOUS
 62
     7
 10
8.55237579813156
 20
-62.7629747056862
 30
0.0
 11
8.55237579813156
 21
-61.8879747950932
 31
0.0
  0
LINE
  5
   1E9
  8
0
  6
CONTINUOUS
 62
     7
 10
8.55237579813156
 20
-61.8879747950932
 30
0.0
 11
8.55237579813156
 21
-61.1879748666187
 31
0.0
  0
LINE
  5
   1EA
  8
0
  6
CONTINUOUS
 62
     7
 10
8.55237579813156
 20
-61.1879748666187
 30
0.0
 11
8.55237579813156
 21
-60.4879749381443
 31
0.0
  0
LINE
  5
   1EB
  8
0
  6
CONTINUOUS
 62
     7
 10
8.55237579813156
 20
-60.4879749381443
 30
0.0
 11
8.55237579813156
 21
-59.7879756772418
 31
0.0
  0
LINE
  5
   1EC
  8
0
  6
CONTINUOUS
 62
     7
 10
8.55237579813156
 20
-59.7879756772418
 30
0.0
 11
8.55237579813156
 21
-58.9129744315049
 31
0.0
  0
LINE
  5
   1ED
  8
0
  6
CONTINUOUS
 62
     7
 10
-23.5601189179169
 20
-70.1130209350439
 30
0.0
 11
-23.5601189179169
 21
-43.895387588994
 31
0.0
  0
LINE
  5
   1EE
  8
0
  6
CONTINUOUS
 62
     7
 10
-23.9100849686534
 20
-44.1078830047961
 30
0.0
 11
-23.5601190481358
 21
-43.895386847721
 31
0.0
  0
LINE
  5
   1EF
  8
0
  6
CONTINUOUS
 62
     7
 10
-23.9101190289201
 20
-70.1130209350439
 30
0.0
 11
-23.9101190289201
 21
-44.1079024445987
 31
0.0
  0
LINE
  5
   1F0
  8
0
  6
CONTINUOUS
 62
     7
 10
-33.1851187977
 20
-70.1130209350439
 30
0.0
 11
-33.1851187977
 21
-44.1079023611522
 31
0.0
  0
LINE
  5
   1F1
  8
0
  6
CONTINUOUS
 62
     7
 10
-33.1851118018311
 20
-44.1079041815144
 30
0.0
 11
-33.5351171068466
 21
-43.8953893353409
 31
0.0
  0
LINE
  5
   1F2
  8
0
  6
CONTINUOUS
 62
     7
 10
-33.5351185662494
 20
-70.1130209350439
 30
0.0
 11
-33.5351185662494
 21
-43.8953875055475
 31
0.0
  0
LINE
  5
   1F3
  8
0
  6
CONTINUOUS
 62
     7
 10
10.2148863094096
 20
-31.0880173289636
 30
0.0
 11
2.13026734955261
 21
-31.0880173289636
 31
0.0
  0
ARC
  5
   1F4
  8
0
  6
CONTINUOUS
 62
     7
 10
7.85238368812746
 20
-27.93802899011
 30
0.0
 40
0.525002663955118
 50
360.000264330205
 51
539.999752563663
  0
ARC
  5
   1F5
  8
0
  6
CONTINUOUS
 62
     7
 10
7.85236576609031
 20
-28.988018434532
 30
0.0
 40
0.525020291173391
 50
180.000872430867
 51
359.99911053366
  0
CIRCLE
  5
   1F6
  8
0
  6
CONTINUOUS
 62
     7
 10
8.28988660167943
 20
-68.1880166706877
 30
0.0
 40
0.90999628353866
  0
CIRCLE
  5
   1F7
  8
0
  6
CONTINUOUS
 62
     7
 10
8.28988665397038
 20
-68.1880258003109
 30
0.0
 40
1.48750476579848
  0
ARC
  5
   1F8
  8
0
  6
DOT
 62
     7
 10
3.82737429495871
 20
-65.3005118133011
 30
0.0
 40
2.62499005491966
 50
392.859484181593
 51
507.140355930743
  0
ARC
  5
   1F9
  8
0
  6
DOT
 62
     7
 10
3.82737429495871
 20
-65.3005118133011
 30
0.0
 40
2.62499005491966
 50
212.859643965326
 51
327.140515714475
  0
CIRCLE
  5
   1FA
  8
0
  6
CONTINUOUS
 62
     7
 10
-36.3351078113379
 20
-68.1880222078381
 30
0.0
 40
0.910000119818836
  0
CIRCLE
  5
   1FB
  8
0
  6
CONTINUOUS
 62
     7
 10
-36.3351074306567
 20
-68.188020654194
 30
0.0
 40
1.48749878059038
  0
LINE
  5
   1FC
  8
0
  6
DASHDOT
 62
     7
 10
7.85238368812745
 20
-28.8130316183023
 30
0.0
 11
7.85238368812745
 21
-27.0630263619177
 31
0.0
  0
LINE
  5
   1FD
  8
0
  6
CONTINUOUS
 62
     7
 10
10.2148863094096
 20
-69.9380209529253
 30
0.0
 11
10.2148863094096
 21
-21.8130236172531
 31
0.0
  0
LINE
  5
   1FE
  8
0
  6
CONTINUOUS
 62
     7
 10
10.039886327291
 20
-70.1130209350439
 30
0.0
 11
-38.0851087553258
 21
-70.1130209350439
 31
0.0
  0
LINE
  5
   1FF
  8
0
  6
CONTINUOUS
 62
     7
 10
-38.2601087374444
 20
-69.9380209529253
 30
0.0
 11
-38.2601087374444
 21
-21.8130236172531
 31
0.0
  0
LINE
  5
   200
  8
0
  6
CONTINUOUS
 62
     7
 10
10.039886327291
 20
-21.6380236351345
 30
0.0
 11
-38.0851087553258
 21
-21.6380236351345
 31
0.0
  0
ARC
  5
   201
  8
0
  6
CONTINUOUS
 62
     7
 10
-38.0851087553258
 20
-21.8130236172531
 30
0.0
 40
0.174999982118607
 50
89.9999999480344
 51
179.999999948034
  0
ARC
  5
   202
  8
0
  6
CONTINUOUS
 62
     7
 10
-38.3476087285037
 20
-21.5505236440752
 30
0.0
 40
0.174999982118607
 50
89.9999999480344
 51
179.999999948034
  0
ARC
  5
   203
  8
0
  6
CONTINUOUS
 62
     7
 10
10.3023863004689
 20
-21.5505236440752
 30
0.0
 40
0.174999982118607
 50
359.999999948034
 51
449.999999948034
  0
ARC
  5
   204
  8
0
  6
CONTINUOUS
 62
     7
 10
10.039886327291
 20
-21.8130236172531
 30
0.0
 40
0.174999982118607
 50
359.999999948034
 51
449.999999948034
  0
ARC
  5
   205
  8
0
  6
CONTINUOUS
 62
     7
 10
10.039886327291
 20
-69.9380209529253
 30
0.0
 40
0.174999982118607
 50
269.999999948034
 51
359.999999948034
  0
ARC
  5
   206
  8
0
  6
CONTINUOUS
 62
     7
 10
10.3023863004689
 20
-70.2005209261032
 30
0.0
 40
0.174999982118607
 50
269.999999948034
 51
359.999999948034
  0
ARC
  5
   207
  8
0
  6
CONTINUOUS
 62
     7
 10
-38.0851087553258
 20
-69.9380209529253
 30
0.0
 40
0.174999982118607
 50
179.999999948034
 51
269.999999948034
  0
ARC
  5
   208
  8
0
  6
CONTINUOUS
 62
     7
 10
-38.3476087285037
 20
-70.2005209261032
 30
0.0
 40
0.174999982118607
 50
179.999999948034
 51
269.999999948034
  0
LINE
  5
   209
  8
0
  6
CONTINUOUS
 62
     7
 10
10.4773892892357
 20
-58.3004387628824
 30
0.0
 11
10.4773892892357
 21
-21.900506562737
 31
0.0
  0
LINE
  5
   20A
  8
0
  6
CONTINUOUS
 62
     7
 10
10.2148863094096
 20
-31.4380013167055
 30
0.0
 11
2.56292952788487
 21
-31.4380013167055
 31
0.0
  0
LINE
  5
   20B
  8
0
  6
CONTINUOUS
 62
     7
 10
6.45238335410989
 20
-40.7130163907186
 30
0.0
 11
2.5630636763947
 21
-40.7130163907186
 31
0.0
  0
LINE
  5
   20C
  8
0
  6
CONTINUOUS
 62
     7
 10
10.2148863094096
 20
-41.0630163549558
 30
0.0
 11
2.13042943112076
 21
-41.0630163549558
 31
0.0
  0
LINE
  5
   20D
  8
0
  6
CONTINUOUS
 62
     7
 10
-23.9002394314481
 20
-69.9380301685056
 30
0.0
 11
-23.9002394314481
 21
-66.4380305261335
 31
0.0
  0
LINE
  5
   20E
  8
0
  6
CONTINUOUS
 62
     7
 10
-33.1851185486427
 20
-69.9380301685056
 30
0.0
 11
-33.1851185486427
 21
-66.4380305261335
 31
0.0
  0
LINE
  5
   20F
  8
0
  6
CONTINUOUS
 62
     7
 10
9.95238299648202
 20
-31.4380013167055
 30
0.0
 11
6.45238335410989
 21
-31.4380013167055
 31
0.0
  0
LINE
  5
   210
  8
0
  6
CONTINUOUS
 62
     7
 10
10.2148863094096
 20
-40.7130163907186
 30
0.0
 11
6.45238335410989
 21
-40.7130163907186
 31
0.0
  0
LINE
  5
   211
  8
0
  6
DASHDOT
 62
     7
 10
33.8813699748323
 20
-45.8754908829906
 30
0.0
 11
-78.7619805825827
 21
-45.8754908829906
 31
0.0
  0
LINE
  5
   212
  8
0
  6
DASHDOT
 62
     7
 10
-14.0226097106934
 20
-72.1389341332798
 30
0.0
 11
-14.0226097106934
 21
-27.6407716923845
 31
0.0
  0
LINE
  5
   213
  8
0
  6
DASHDOT
 62
     7
 10
-14.0226097106934
 20
-120.947902943263
 30
0.0
 11
-14.0226097106934
 21
36.9819415477954
 31
0.0
  0
LINE
  5
   214
  8
0
  6
CONTINUOUS
 62
     1
 10
-49.6765233518474
 20
-74.6629659196335
 30
0.0
 11
-74.8350821346128
 21
-74.6628766593152
 31
0.0
  0
LINE
  5
   215
  8
0
  6
CONTINUOUS
 62
     1
 10
21.6313039306359
 20
-74.6629659196335
 30
0.0
 11
22.2898609921855
 21
-74.6629635831319
 31
0.0
  0
LINE
  5
   216
  8
0
  6
CONTINUOUS
 62
     1
 10
22.7273857466621
 20
-0.987974107265472
 30
0.0
 11
-75.2726026646537
 21
-0.987974107265472
 31
0.0
  0
LINE
  5
   217
  8
0
  6
CONTINUOUS
 62
     1
 10
21.6313028144241
 20
-74.6629662454129
 30
0.0
 11
12.5773902416227
 21
-74.6629662454129
 31
0.0
  0
LINE
  5
   218
  8
0
  6
CONTINUOUS
 62
     1
 10
22.6398758620035
 20
-74.3129662811756
 30
0.0
 11
12.5773902416227
 21
-74.3129662811756
 31
0.0
  0
LINE
  5
   219
  8
0
  6
CONTINUOUS
 62
     1
 10
-40.6226043224337
 20
-29.5129925549008
 30
0.0
 11
-75.2725927710536
 21
-29.5129925549008
 31
0.0
  0
LINE
  5
   21A
  8
0
  6
CONTINUOUS
 62
     1
 10
22.6398758620035
 20
-66.2629731118673
 30
0.0
 11
12.5773902416227
 21
-66.2629731118673
 31
0.0
  0
LINE
  5
   21B
  8
0
  6
CONTINUOUS
 62
     1
 10
-40.6226043224337
 20
-66.2629731118673
 30
0.0
 11
-75.2725934847713
 21
-66.2629731118673
 31
0.0
  0
LINE
  5
   21C
  8
0
  6
CONTINUOUS
 62
     1
 10
-50.0200974875697
 20
-29.5129925549008
 30
0.0
 11
-50.0200974875697
 21
-0.987979447841099
 31
0.0
  0
LINE
  5
   21D
  8
0
  6
CONTINUOUS
 62
     1
 10
-48.7600847989343
 20
-29.5129925549008
 30
0.0
 11
-48.7600847989343
 21
-0.987979447841099
 31
0.0
  0
LINE
  5
   21E
  8
0
  6
CONTINUOUS
 62
     1
 10
-47.5000934726013
 20
-29.5129925549008
 30
0.0
 11
-47.5000934726013
 21
-0.987979447841099
 31
0.0
  0
LINE
  5
   21F
  8
0
  6
CONTINUOUS
 62
     1
 10
-46.2401021462683
 20
-29.5129925549008
 30
0.0
 11
-46.2401021462683
 21
-0.987979447841099
 31
0.0
  0
LINE
  5
   220
  8
0
  6
CONTINUOUS
 62
     1
 10
-44.9800894576329
 20
-29.5129925549008
 30
0.0
 11
-44.9800894576329
 21
-0.987979447841099
 31
0.0
  0
LINE
  5
   221
  8
0
  6
CONTINUOUS
 62
     1
 10
-43.7200981312999
 20
-29.5129925549008
 30
0.0
 11
-43.7200981312999
 21
-0.987979447841099
 31
0.0
  0
LINE
  5
   222
  8
0
  6
CONTINUOUS
 62
     1
 10
-42.4600854426644
 20
-29.5129925549008
 30
0.0
 11
-42.4600854426644
 21
-0.987979447841099
 31
0.0
  0
LINE
  5
   223
  8
0
  6
CONTINUOUS
 62
     1
 10
-41.2000941163315
 20
-29.5129925549008
 30
0.0
 11
-41.2000941163315
 21
-0.987979447841099
 31
0.0
  0
LINE
  5
   224
  8
0
  6
CONTINUOUS
 62
     1
 10
-39.9401027899985
 20
-11.5754975587112
 30
0.0
 11
-39.9401027899985
 21
-0.987979447841099
 31
0.0
  0
LINE
  5
   225
  8
0
  6
CONTINUOUS
 62
     1
 10
-38.680090101363
 20
-11.5754975587112
 30
0.0
 11
-38.680090101363
 21
-0.987979447841099
 31
0.0
  0
LINE
  5
   226
  8
0
  6
CONTINUOUS
 62
     1
 10
-50.0200974875697
 20
-66.2629620969301
 30
0.0
 11
-50.0200974875697
 21
-29.5129925549008
 31
0.0
  0
LINE
  5
   227
  8
0
  6
CONTINUOUS
 62
     1
 10
-48.7600847989343
 20
-66.2629620969301
 30
0.0
 11
-48.7600847989343
 21
-29.5129925549008
 31
0.0
  0
LINE
  5
   228
  8
0
  6
CONTINUOUS
 62
     1
 10
-47.5000934726013
 20
-66.2629620969301
 30
0.0
 11
-47.5000934726013
 21
-29.5129925549008
 31
0.0
  0
LINE
  5
   229
  8
0
  6
CONTINUOUS
 62
     1
 10
-46.2401021462683
 20
-66.2629620969301
 30
0.0
 11
-46.2401021462683
 21
-29.5129925549008
 31
0.0
  0
LINE
  5
   22A
  8
0
  6
CONTINUOUS
 62
     1
 10
-44.9800894576329
 20
-66.2629620969301
 30
0.0
 11
-44.9800894576329
 21
-29.5129925549008
 31
0.0
  0
LINE
  5
   22B
  8
0
  6
CONTINUOUS
 62
     1
 10
-43.7200981312999
 20
-66.2629620969301
 30
0.0
 11
-43.7200981312999
 21
-29.5129925549008
 31
0.0
  0
LINE
  5
   22C
  8
0
  6
CONTINUOUS
 62
     1
 10
-42.4600854426644
 20
-66.2629620969301
 30
0.0
 11
-42.4600854426644
 21
-29.5129925549008
 31
0.0
  0
LINE
  5
   22D
  8
0
  6
CONTINUOUS
 62
     1
 10
-41.2000941163315
 20
-66.2629620969301
 30
0.0
 11
-41.2000941163315
 21
-29.5129925549008
 31
0.0
  0
LINE
  5
   22E
  8
0
  6
CONTINUOUS
 62
     2
 10
-50.0200974875697
 20
-114.037957735657
 30
0.0
 11
-50.0200974875697
 21
-99.672537206675
 31
0.0
  0
LINE
  5
   22F
  8
0
  6
CONTINUOUS
 62
     2
 10
-48.7600847989343
 20
-114.037957735657
 30
0.0
 11
-48.7600847989343
 21
-89.0129602926967
 31
0.0
  0
LINE
  5
   230
  8
0
  6
CONTINUOUS
 62
     2
 10
-47.5000934726013
 20
-114.037957735657
 30
0.0
 11
-47.5000934726013
 21
-89.0129602926967
 31
0.0
  0
LINE
  5
   231
  8
0
  6
CONTINUOUS
 62
     2
 10
-46.2401021462683
 20
-114.037957735657
 30
0.0
 11
-46.2401021462683
 21
-89.0129602926967
 31
0.0
  0
LINE
  5
   232
  8
0
  6
CONTINUOUS
 62
     2
 10
-44.9800894576329
 20
-114.037957735657
 30
0.0
 11
-44.9800894576329
 21
-89.0129602926967
 31
0.0
  0
LINE
  5
   233
  8
0
  6
CONTINUOUS
 62
     2
 10
-43.7200981312999
 20
-114.037957735657
 30
0.0
 11
-43.7200981312999
 21
-89.0129602926967
 31
0.0
  0
LINE
  5
   234
  8
0
  6
CONTINUOUS
 62
     2
 10
-42.4600854426644
 20
-114.037957735657
 30
0.0
 11
-42.4600854426644
 21
-89.0129602926967
 31
0.0
  0
LINE
  5
   235
  8
0
  6
CONTINUOUS
 62
     2
 10
-41.2000941163315
 20
-114.037957735657
 30
0.0
 11
-41.2000941163315
 21
-89.0129602926967
 31
0.0
  0
LINE
  5
   236
  8
0
  6
CONTINUOUS
 62
     2
 10
-39.9401027899985
 20
-114.037957735657
 30
0.0
 11
-39.9401027899985
 21
-89.0129602926967
 31
0.0
  0
LINE
  5
   237
  8
0
  6
CONTINUOUS
 62
     2
 10
-38.680090101363
 20
-88.4879624962809
 30
0.0
 11
-38.680090101363
 21
-74.8379638910296
 31
0.0
  0
LINE
  5
   238
  8
0
  6
CONTINUOUS
 62
     1
 10
21.974878066183
 20
-29.5129925549008
 30
0.0
 11
21.974878066183
 21
-0.987979447841099
 31
0.0
  0
LINE
  5
   239
  8
0
  6
CONTINUOUS
 62
     1
 10
20.7148653775475
 20
-29.5129925549008
 30
0.0
 11
20.7148653775475
 21
-0.987979447841099
 31
0.0
  0
LINE
  5
   23A
  8
0
  6
CONTINUOUS
 62
     1
 10
19.4548740512146
 20
-29.5129925549008
 30
0.0
 11
19.4548740512146
 21
-0.987979447841099
 31
0.0
  0
LINE
  5
   23B
  8
0
  6
CONTINUOUS
 62
     1
 10
18.1948827248816
 20
-29.5129925549008
 30
0.0
 11
18.1948827248816
 21
-0.987979447841099
 31
0.0
  0
LINE
  5
   23C
  8
0
  6
CONTINUOUS
 62
     1
 10
16.9348700362461
 20
-29.5129925549008
 30
0.0
 11
16.9348700362461
 21
-0.987979447841099
 31
0.0
  0
LINE
  5
   23D
  8
0
  6
CONTINUOUS
 62
     1
 10
15.6748787099132
 20
-29.5129925549008
 30
0.0
 11
15.6748787099132
 21
-0.987979447841099
 31
0.0
  0
LINE
  5
   23E
  8
0
  6
CONTINUOUS
 62
     1
 10
14.4148660212777
 20
-29.5129925549008
 30
0.0
 11
14.4148660212777
 21
-0.987979447841099
 31
0.0
  0
LINE
  5
   23F
  8
0
  6
CONTINUOUS
 62
     1
 10
13.1548746949447
 20
-29.5129925549008
 30
0.0
 11
13.1548746949447
 21
-0.987979447841099
 31
0.0
  0
LINE
  5
   240
  8
0
  6
CONTINUOUS
 62
     1
 10
11.8948833686118
 20
-11.5754933677893
 30
0.0
 11
11.8948833686118
 21
-0.987979447841099
 31
0.0
  0
LINE
  5
   241
  8
0
  6
CONTINUOUS
 62
     1
 10
10.6348706799763
 20
-11.5754975587112
 30
0.0
 11
10.6348706799763
 21
-0.987974107265472
 31
0.0
  0
LINE
  5
   242
  8
0
  6
CONTINUOUS
 62
     1
 10
21.974878066183
 20
-66.2629704415795
 30
0.0
 11
21.974878066183
 21
-29.5130008995503
 31
0.0
  0
LINE
  5
   243
  8
0
  6
CONTINUOUS
 62
     1
 10
20.7148653775475
 20
-66.2629704415795
 30
0.0
 11
20.7148653775475
 21
-29.5130008995503
 31
0.0
  0
LINE
  5
   244
  8
0
  6
CONTINUOUS
 62
     1
 10
19.4548740512146
 20
-66.2629704415795
 30
0.0
 11
19.4548740512146
 21
-29.5130008995503
 31
0.0
  0
LINE
  5
   245
  8
0
  6
CONTINUOUS
 62
     1
 10
18.1948827248816
 20
-66.2629704415795
 30
0.0
 11
18.1948827248816
 21
-29.5130008995503
 31
0.0
  0
LINE
  5
   246
  8
0
  6
CONTINUOUS
 62
     1
 10
16.9348700362461
 20
-66.2629704415795
 30
0.0
 11
16.9348700362461
 21
-29.5130008995503
 31
0.0
  0
LINE
  5
   247
  8
0
  6
CONTINUOUS
 62
     1
 10
15.6748787099132
 20
-66.2629704415795
 30
0.0
 11
15.6748787099132
 21
-29.5130008995503
 31
0.0
  0
LINE
  5
   248
  8
0
  6
CONTINUOUS
 62
     1
 10
14.4148660212777
 20
-66.2629704415795
 30
0.0
 11
14.4148660212777
 21
-29.5130008995503
 31
0.0
  0
LINE
  5
   249
  8
0
  6
CONTINUOUS
 62
     1
 10
13.1548746949447
 20
-66.2629704415795
 30
0.0
 11
13.1548746949447
 21
-29.5130008995503
 31
0.0
  0
LINE
  5
   24A
  8
0
  6
CONTINUOUS
 62
     1
 10
10.6348706799763
 20
-66.2629704415795
 30
0.0
 11
10.6348706799763
 21
-29.5130008995503
 31
0.0
  0
LINE
  5
   24B
  8
0
  6
CONTINUOUS
 62
     1
 10
21.974878066183
 20
-74.3129662811756
 30
0.0
 11
21.974878066183
 21
-66.2629724442954
 31
0.0
  0
LINE
  5
   24C
  8
0
  6
CONTINUOUS
 62
     1
 10
20.7148653775475
 20
-74.3129662811756
 30
0.0
 11
20.7148653775475
 21
-66.2629724442954
 31
0.0
  0
LINE
  5
   24D
  8
0
  6
CONTINUOUS
 62
     1
 10
19.4548740512146
 20
-74.3129662811756
 30
0.0
 11
19.4548740512146
 21
-66.2629724442954
 31
0.0
  0
LINE
  5
   24E
  8
0
  6
CONTINUOUS
 62
     1
 10
18.1948827248816
 20
-74.3129662811756
 30
0.0
 11
18.1948827248816
 21
-66.2629724442954
 31
0.0
  0
LINE
  5
   24F
  8
0
  6
CONTINUOUS
 62
     1
 10
16.9348700362461
 20
-74.3129662811756
 30
0.0
 11
16.9348700362461
 21
-66.2629724442954
 31
0.0
  0
LINE
  5
   250
  8
0
  6
CONTINUOUS
 62
     1
 10
15.6748787099132
 20
-74.3129662811756
 30
0.0
 11
15.6748787099132
 21
-66.2629724442954
 31
0.0
  0
LINE
  5
   251
  8
0
  6
CONTINUOUS
 62
     1
 10
14.4148660212777
 20
-74.3129662811756
 30
0.0
 11
14.4148660212777
 21
-66.2629724442954
 31
0.0
  0
LINE
  5
   252
  8
0
  6
CONTINUOUS
 62
     1
 10
13.1548746949447
 20
-74.3129662811756
 30
0.0
 11
13.1548746949447
 21
-66.2629724442954
 31
0.0
  0
LINE
  5
   253
  8
0
  6
CONTINUOUS
 62
     1
 10
10.6348706799763
 20
-74.3129662811756
 30
0.0
 11
10.6348706799763
 21
-66.2629724442954
 31
0.0
  0
LINE
  5
   254
  8
0
  6
CONTINUOUS
 62
     1
 10
9.95240386128071
 20
-11.5754975587112
 30
0.0
 11
9.95240386128071
 21
-2.73797504543293
 31
0.0
  0
LINE
  5
   255
  8
0
  6
CONTINUOUS
 62
     1
 10
-37.9975752174868
 20
-11.5754975587112
 30
0.0
 11
-37.9975752174868
 21
-2.73797815202659
 31
0.0
  0
LINE
  5
   256
  8
0
  6
CONTINUOUS
 62
     1
 10
9.95237715840449
 20
-2.73797392845154
 30
0.0
 11
-37.9976019203668
 21
-2.73797392845154
 31
0.0
  0
LINE
  5
   257
  8
0
  6
CONTINUOUS
 62
     1
 10
22.289865216615
 20
-74.662963908911
 30
0.0
 11
22.289865216615
 21
-74.3129662811756
 31
0.0
  0
LINE
  5
   258
  8
0
  6
CONTINUOUS
 62
     1
 10
-74.8350821346066
 20
-74.662963908911
 30
0.0
 11
-74.8350821346066
 21
-74.3129662811756
 31
0.0
  0
LINE
  5
   259
  8
0
  6
CONTINUOUS
 62
     1
 10
-13.4800376015976
 20
-114.037957735657
 30
0.0
 11
-13.4800376015976
 21
-89.0129602926967
 31
0.0
  0
LINE
  5
   25A
  8
0
  6
CONTINUOUS
 62
     1
 10
-12.2200389319734
 20
-114.037957735657
 30
0.0
 11
-12.2200389319734
 21
-89.0129602926967
 31
0.0
  0
LINE
  5
   25B
  8
0
  6
CONTINUOUS
 62
     1
 10
-10.7850379437288
 20
-114.037957735657
 30
0.0
 11
-10.7850379437288
 21
-89.0129602926967
 31
0.0
  0
LINE
  5
   25C
  8
0
  6
CONTINUOUS
 62
     1
 10
-9.52503827274667
 20
-114.037957735657
 30
0.0
 11
-9.52503827274667
 21
-89.0129602926967
 31
0.0
  0
LINE
  5
   25D
  8
0
  6
CONTINUOUS
 62
     1
 10
-8.26505262077536
 20
-114.037957735657
 30
0.0
 11
-8.26505262077536
 21
-89.0129602926967
 31
0.0
  0
LINE
  5
   25E
  8
0
  6
CONTINUOUS
 62
     1
 10
-7.00505061329134
 20
-114.037957735657
 30
0.0
 11
-7.00505061329134
 21
-89.0129602926967
 31
0.0
  0
LINE
  5
   25F
  8
0
  6
CONTINUOUS
 62
     1
 10
-5.74503792465709
 20
-114.037957735657
 30
0.0
 11
-5.74503792465709
 21
-89.0129602926967
 31
0.0
  0
LINE
  5
   260
  8
0
  6
CONTINUOUS
 62
     1
 10
-4.48505193889893
 20
-114.037957735657
 30
0.0
 11
-4.48505193889893
 21
-89.0129602926967
 31
0.0
  0
LINE
  5
   261
  8
0
  6
CONTINUOUS
 62
     1
 10
-0.705221319232445
 20
-0.462944999504941
 30
0.0
 11
-0.705256101917382
 21
11.1529275610262
 31
0.0
  0
LINE
  5
   262
  8
0
  6
CONTINUOUS
 62
     1
 10
0.55483940989224
 20
-0.462952187533304
 30
0.0
 11
0.55477543891844
 21
28.0618565343846
 31
0.0
  0
LINE
  5
   263
  8
0
  6
CONTINUOUS
 62
     1
 10
1.8148414173733
 20
-0.462949360760902
 30
0.0
 11
1.81477744639737
 21
28.0618603081698
 31
0.0
  0
LINE
  5
   264
  8
0
  6
CONTINUOUS
 62
     1
 10
3.07484342485435
 20
-0.46294653509743
 30
0.0
 11
3.0747794538763
 21
28.0618640808461
 31
0.0
  0
LINE
  5
   265
  8
0
  6
CONTINUOUS
 62
     1
 10
4.33480272007085
 20
-0.462936805366851
 30
0.0
 11
4.33472802710837
 21
28.061867855717
 31
0.0
  0
LINE
  5
   266
  8
0
  6
CONTINUOUS
 62
     1
 10
5.59483675866518
 20
-0.462940883782466
 30
0.0
 11
5.59477278768288
 21
28.0618716272956
 31
0.0
  0
LINE
  5
   267
  8
0
  6
CONTINUOUS
 62
     1
 10
6.85483876614623
 20
-0.462938058118993
 30
0.0
 11
6.85477479516181
 21
28.0618753999719
 31
0.0
  0
LINE
  5
   268
  8
0
  6
CONTINUOUS
 62
     1
 10
8.11484077362728
 20
-0.462935232455521
 30
0.0
 11
8.11477680264074
 21
28.0618791715392
 31
0.0
  0
LINE
  5
   269
  8
0
  6
CONTINUOUS
 62
     1
 10
9.37483209995709
 20
-0.462932406804029
 30
0.0
 11
9.37476812896842
 21
28.0618829475303
 31
0.0
  0
LINE
  5
   26A
  8
0
  6
CONTINUOUS
 62
     1
 10
22.7273858204941
 20
-0.462979501485279
 30
0.0
 11
-14.0226097106934
 21
-0.462979501485279
 31
0.0
  0
LINE
  5
   26B
  8
0
  6
CONTINUOUS
 62
     1
 10
-14.7401858073394
 20
-114.037957735657
 30
0.0
 11
-14.7401858073394
 21
-89.0129602926967
 31
0.0
  0
LINE
  5
   26C
  8
0
  6
CONTINUOUS
 62
     1
 10
-16.0001891499672
 20
-114.037957735657
 30
0.0
 11
-16.0001891499672
 21
-89.0129602926967
 31
0.0
  0
LINE
  5
   26D
  8
0
  6
CONTINUOUS
 62
     1
 10
-17.2601868182335
 20
-114.037957735657
 30
0.0
 11
-17.2601868182335
 21
-89.0129602926967
 31
0.0
  0
LINE
  5
   26E
  8
0
  6
CONTINUOUS
 62
     1
 10
-18.5201864892157
 20
-114.037957735657
 30
0.0
 11
-18.5201864892157
 21
-89.0129602926967
 31
0.0
  0
LINE
  5
   26F
  8
0
  6
CONTINUOUS
 62
     1
 10
-19.780172141187
 20
-114.037957735657
 30
0.0
 11
-19.780172141187
 21
-89.0129602926967
 31
0.0
  0
LINE
  5
   270
  8
0
  6
CONTINUOUS
 62
     1
 10
-21.040174148671
 20
-114.037957735657
 30
0.0
 11
-21.040174148671
 21
-89.0129602926967
 31
0.0
  0
LINE
  5
   271
  8
0
  6
CONTINUOUS
 62
     1
 10
-22.3001868373053
 20
-114.037957735657
 30
0.0
 11
-22.3001868373053
 21
-89.0129602926967
 31
0.0
  0
LINE
  5
   272
  8
0
  6
CONTINUOUS
 62
     1
 10
-23.5601728230634
 20
-114.037957735657
 30
0.0
 11
-23.5601728230634
 21
-89.0129602926967
 31
0.0
  0
LINE
  5
   273
  8
0
  6
CONTINUOUS
 62
     1
 10
-24.8201374465198
 20
-114.037957735657
 30
0.0
 11
-24.8201374465198
 21
-98.8990561466539
 31
0.0
  0
LINE
  5
   274
  8
0
  6
CONTINUOUS
 62
     1
 10
-24.8201354943248
 20
12.8894041363984
 30
0.0
 11
-24.82011397791
 21
28.0618520263496
 31
0.0
  0
LINE
  5
   275
  8
0
  6
CONTINUOUS
 62
     1
 10
-25.9051334882414
 20
13.8295296891392
 30
0.0
 11
-25.905111961677
 21
28.0618520284436
 31
0.0
  0
LINE
  5
   276
  8
0
  6
CONTINUOUS
 62
     1
 10
-26.0801234322771
 20
-114.037957735657
 30
0.0
 11
-26.0801234322771
 21
-99.8520236344766
 31
0.0
  0
LINE
  5
   277
  8
0
  6
CONTINUOUS
 62
     1
 10
-27.1651218350263
 20
13.6039346865244
 30
0.0
 11
-27.1651003110377
 21
28.0618520279867
 31
0.0
  0
LINE
  5
   278
  8
0
  6
CONTINUOUS
 62
     1
 10
-27.3401254397613
 20
-114.037957735657
 30
0.0
 11
-27.3401254397613
 21
-99.4470683316841
 31
0.0
  0
LINE
  5
   279
  8
0
  6
CONTINUOUS
 62
     1
 10
-28.6001755124221
 20
-114.037957735657
 30
0.0
 11
-28.6001755124221
 21
-89.0129602926967
 31
0.0
  0
LINE
  5
   27A
  8
0
  6
CONTINUOUS
 62
     1
 10
-29.8601775199059
 20
-114.037957735657
 30
0.0
 11
-29.8601775199059
 21
-89.0129602926967
 31
0.0
  0
LINE
  5
   27B
  8
0
  6
CONTINUOUS
 62
     1
 10
-31.1201795273898
 20
-114.037957735657
 30
0.0
 11
-31.1201795273898
 21
-89.0129602926967
 31
0.0
  0
LINE
  5
   27C
  8
0
  6
CONTINUOUS
 62
     1
 10
-32.3801815348736
 20
-114.037957735657
 30
0.0
 11
-32.3801815348736
 21
-89.0129602926967
 31
0.0
  0
LINE
  5
   27D
  8
0
  6
CONTINUOUS
 62
     1
 10
-33.6401728612063
 20
-114.037957735657
 30
0.0
 11
-33.6401728612063
 21
-89.0129602926967
 31
0.0
  0
LINE
  5
   27E
  8
0
  6
CONTINUOUS
 62
     1
 10
-34.9001748686901
 20
-114.037957735657
 30
0.0
 11
-34.9001748686901
 21
-89.0129602926967
 31
0.0
  0
LINE
  5
   27F
  8
0
  6
CONTINUOUS
 62
     1
 10
-36.160176876174
 20
-114.037957735657
 30
0.0
 11
-36.160176876174
 21
-89.0129602926967
 31
0.0
  0
LINE
  5
   280
  8
0
  6
CONTINUOUS
 62
     1
 10
-37.4201788836578
 20
-114.037957735657
 30
0.0
 11
-37.4201788836578
 21
-89.0129602926967
 31
0.0
  0
LINE
  5
   281
  8
0
  6
CONTINUOUS
 62
     1
 10
-38.6801221448168
 20
-0.462958139182774
 30
0.0
 11
-38.6801221448168
 21
28.0618520260032
 31
0.0
  0
LINE
  5
   282
  8
0
  6
CONTINUOUS
 62
     1
 10
-39.9401455146017
 20
-0.463033846447402
 30
0.0
 11
-39.9401455146017
 21
28.0618520260031
 31
0.0
  0
LINE
  5
   283
  8
0
  6
CONTINUOUS
 62
     1
 10
-41.2001742249582
 20
-0.463023157256799
 30
0.0
 11
-41.2001742249582
 21
28.0618520260031
 31
0.0
  0
LINE
  5
   284
  8
0
  6
CONTINUOUS
 62
     1
 10
-42.4601174861182
 20
-0.462958139182774
 30
0.0
 11
-42.4601174861182
 21
28.0618520260032
 31
0.0
  0
LINE
  5
   285
  8
0
  6
CONTINUOUS
 62
     1
 10
-43.7201408559028
 20
-0.46303242561369
 30
0.0
 11
-43.7201408559028
 21
28.0618520260032
 31
0.0
  0
LINE
  5
   286
  8
0
  6
CONTINUOUS
 62
     1
 10
-44.9801215010866
 20
-0.462958139182774
 30
0.0
 11
-44.9801215010866
 21
28.0618520260032
 31
0.0
  0
LINE
  5
   287
  8
0
  6
CONTINUOUS
 62
     1
 10
-46.2401448708711
 20
-0.463031478388558
 30
0.0
 11
-46.2401448708711
 21
28.0619280224656
 31
0.0
  0
LINE
  5
   288
  8
0
  6
CONTINUOUS
 62
     1
 10
-47.5001361972039
 20
-0.463031004780007
 30
0.0
 11
-47.5001361972039
 21
28.0619374752132
 31
0.0
  0
LINE
  5
   289
  8
0
  6
CONTINUOUS
 62
     1
 10
-48.760116842388
 20
-0.462958139182774
 30
0.0
 11
-48.760116842388
 21
28.0619152811943
 31
0.0
  0
LINE
  5
   28A
  8
0
  6
CONTINUOUS
 62
     1
 10
-50.0201402121722
 20
-0.463019376399515
 30
0.0
 11
-50.0201402121722
 21
10.92760158479
 31
0.0
  0
LINE
  5
   28B
  8
0
  6
CONTINUOUS
 62
     1
 10
-14.0226118698137
 20
-0.462979501504122
 30
0.0
 11
-75.272602738492
 21
-0.462979501504122
 31
0.0
  0
LINE
  5
   28C
  8
0
  6
CONTINUOUS
 62
     1
 10
22.727386534214
 20
1.28702031970079
 30
0.0
 11
22.727386534214
 21
27.5369375288574
 31
0.0
  0
LINE
  5
   28D
  8
0
  6
CONTINUOUS
 62
     1
 10
22.4648673739915
 20
27.9915404370312
 30
0.0
 11
22.2019589902797
 21
28.061974549108
 31
0.0
  0
LINE
  5
   28E
  8
0
  6
CONTINUOUS
 62
     1
 10
22.6569973676565
 20
27.7993914877217
 30
0.0
 11
22.4648381181128
 21
27.9915667575703
 31
0.0
  0
LINE
  5
   28F
  8
0
  6
CONTINUOUS
 62
     1
 10
22.727401390835
 20
27.5368740693424
 30
0.0
 11
22.6570606754533
 21
27.7993740405956
 31
0.0
  0
LINE
  5
   290
  8
0
  6
CONTINUOUS
 62
     1
 10
-75.2726034522057
 20
1.28702031970079
 30
0.0
 11
-75.2726034522057
 21
27.5369375288574
 31
0.0
  0
LINE
  5
   291
  8
0
  6
CONTINUOUS
 62
     1
 10
-75.0100807655566
 20
27.9915413817738
 30
0.0
 11
-74.7475807994416
 21
28.0618660772911
 31
0.0
  0
LINE
  5
   292
  8
0
  6
CONTINUOUS
 62
     1
 10
-75.2022142856481
 20
27.7993914877217
 30
0.0
 11
-75.0100550361045
 21
27.9915667575703
 31
0.0
  0
LINE
  5
   293
  8
0
  6
CONTINUOUS
 62
     1
 10
-75.2726183088267
 20
27.5368740693426
 30
0.0
 11
-75.202277593445
 21
27.7993740405957
 31
0.0
  0
LINE
  5
   294
  8
0
  6
CONTINUOUS
 62
     1
 10
22.7273758530624
 20
-114.037957735657
 30
0.0
 11
22.7273758530624
 21
1.28701515140433
 31
0.0
  0
LINE
  5
   295
  8
0
  6
CONTINUOUS
 62
     1
 10
-75.2725927710536
 20
-88.4879624962809
 30
0.0
 11
-75.2725927710536
 21
1.28701515140433
 31
0.0
  0
CIRCLE
  5
   296
  8
0
  6
CONTINUOUS
 62
     1
 10
-26.272574748255
 20
12.3120173382721
 30
0.0
 40
1.57569269749607
  0
LINE
  5
   297
  8
0
  6
DASHDOT
 62
     7
 10
-26.272574748255
 20
9.11955532475453
 30
0.0
 11
-26.272574748255
 21
15.5174811176804
 31
0.0
  0
LINE
  5
   298
  8
0
  6
DASHDOT
 62
     7
 10
-23.6550596929191
 20
12.3120173382721
 30
0.0
 11
-28.4904557542393
 21
12.3120173382721
 31
0.0
  0
LINE
  5
   299
  8
0
  6
CONTINUOUS
 62
     1
 10
22.7273758530624
 20
-114.037957735657
 30
0.0
 11
-75.2725867659855
 21
-114.037957735657
 31
0.0
  0
LINE
  5
   29A
  8
0
  6
CONTINUOUS
 62
     1
 10
22.7273758530624
 20
-89.0129602926967
 30
0.0
 11
-75.2725902853502
 21
-89.0129602926967
 31
0.0
  0
LINE
  5
   29B
  8
0
  6
CONTINUOUS
 62
     1
 10
22.7273758530624
 20
-88.6629603284595
 30
0.0
 11
-74.9225903703349
 21
-88.6629603284595
 31
0.0
  0
LINE
  5
   29C
  8
0
  6
CONTINUOUS
 62
     1
 10
22.7273758530624
 20
-88.4879624962809
 30
0.0
 11
-75.2725903591828
 21
-88.4879624962809
 31
0.0
  0
LINE
  5
   29D
  8
0
  6
CONTINUOUS
 62
     1
 10
22.7273753608447
 20
-74.8379638910296
 30
0.0
 11
12.5773902416227
 21
-74.8379638910296
 31
0.0
  0
LINE
  5
   29E
  8
0
  6
CONTINUOUS
 62
     1
 10
-75.2725927710536
 20
-114.037957735657
 30
0.0
 11
-75.2725927710536
 21
-89.0129602926967
 31
0.0
  0
LINE
  5
   29F
  8
0
  6
CONTINUOUS
 62
     1
 10
-74.9225928068163
 20
-89.0129602926967
 30
0.0
 11
-74.9225928068163
 21
-88.6629603284595
 31
0.0
  0
LINE
  5
   2A0
  8
0
  6
CONTINUOUS
 62
     1
 10
-38.5226072072983
 20
-88.4879624962809
 30
0.0
 11
-38.5226072072983
 21
-80.1754932194906
 31
0.0
  0
LINE
  5
   2A1
  8
0
  6
CONTINUOUS
 62
     1
 10
10.4773877859116
 20
-88.4879624962809
 30
0.0
 11
10.4773877859116
 21
-80.1754932194906
 31
0.0
  0
LINE
  5
   2A2
  8
0
  6
CONTINUOUS
 62
     2
 10
-50.0200974875697
 20
-88.4879624962809
 30
0.0
 11
-50.0200974875697
 21
-74.8379638910296
 31
0.0
  0
LINE
  5
   2A3
  8
0
  6
CONTINUOUS
 62
     2
 10
-48.7600847989343
 20
-88.4879624962809
 30
0.0
 11
-48.7600847989343
 21
-74.8379638910296
 31
0.0
  0
LINE
  5
   2A4
  8
0
  6
CONTINUOUS
 62
     2
 10
-47.5000934726013
 20
-88.4879624962809
 30
0.0
 11
-47.5000934726013
 21
-74.8379638910296
 31
0.0
  0
LINE
  5
   2A5
  8
0
  6
CONTINUOUS
 62
     2
 10
-46.2401021462683
 20
-88.4879624962809
 30
0.0
 11
-46.2401021462683
 21
-74.8379638910296
 31
0.0
  0
LINE
  5
   2A6
  8
0
  6
CONTINUOUS
 62
     2
 10
-44.9800894576329
 20
-88.4879624962809
 30
0.0
 11
-44.9800894576329
 21
-74.8379638910296
 31
0.0
  0
LINE
  5
   2A7
  8
0
  6
CONTINUOUS
 62
     2
 10
-43.7200981312999
 20
-88.4879624962809
 30
0.0
 11
-43.7200981312999
 21
-74.8379638910296
 31
0.0
  0
LINE
  5
   2A8
  8
0
  6
CONTINUOUS
 62
     2
 10
-42.4600854426644
 20
-88.4879624962809
 30
0.0
 11
-42.4600854426644
 21
-74.8379638910296
 31
0.0
  0
LINE
  5
   2A9
  8
0
  6
CONTINUOUS
 62
     2
 10
-41.2000941163315
 20
-88.4879624962809
 30
0.0
 11
-41.2000941163315
 21
-74.8379638910296
 31
0.0
  0
LINE
  5
   2AA
  8
0
  6
CONTINUOUS
 62
     2
 10
-39.9401027899985
 20
-88.4879624962809
 30
0.0
 11
-39.9401027899985
 21
-80.1754932194906
 31
0.0
  0
LINE
  5
   2AB
  8
0
  6
CONTINUOUS
 62
     1
 10
-50.0200974875697
 20
-74.3129662811756
 30
0.0
 11
-50.0200974875697
 21
-66.2629724442954
 31
0.0
  0
LINE
  5
   2AC
  8
0
  6
CONTINUOUS
 62
     1
 10
-48.7600847989343
 20
-74.3129662811756
 30
0.0
 11
-48.7600847989343
 21
-66.2629724442954
 31
0.0
  0
LINE
  5
   2AD
  8
0
  6
CONTINUOUS
 62
     1
 10
-47.5000934726013
 20
-74.3129662811756
 30
0.0
 11
-47.5000934726013
 21
-66.2629724442954
 31
0.0
  0
LINE
  5
   2AE
  8
0
  6
CONTINUOUS
 62
     1
 10
-46.2401021462683
 20
-74.3129662811756
 30
0.0
 11
-46.2401021462683
 21
-66.2629724442954
 31
0.0
  0
LINE
  5
   2AF
  8
0
  6
CONTINUOUS
 62
     1
 10
-44.9800894576329
 20
-74.3129662811756
 30
0.0
 11
-44.9800894576329
 21
-66.2629724442954
 31
0.0
  0
LINE
  5
   2B0
  8
0
  6
CONTINUOUS
 62
     1
 10
-43.7200981312999
 20
-74.3129662811756
 30
0.0
 11
-43.7200981312999
 21
-66.2629724442954
 31
0.0
  0
LINE
  5
   2B1
  8
0
  6
CONTINUOUS
 62
     1
 10
-42.4600854426644
 20
-74.3129662811756
 30
0.0
 11
-42.4600854426644
 21
-66.2629724442954
 31
0.0
  0
LINE
  5
   2B2
  8
0
  6
CONTINUOUS
 62
     1
 10
-41.2000941163315
 20
-74.3129662811756
 30
0.0
 11
-41.2000941163315
 21
-66.2629724442954
 31
0.0
  0
LINE
  5
   2B3
  8
0
  6
CONTINUOUS
 62
     2
 10
-38.6801029187445
 20
-114.037957735657
 30
0.0
 11
-38.6801029187445
 21
-89.0129602926967
 31
0.0
  0
LINE
  5
   2B4
  8
0
  6
CONTINUOUS
 62
     1
 10
21.974878066183
 20
-88.4879624962809
 30
0.0
 11
21.974878066183
 21
-74.8379638910296
 31
0.0
  0
LINE
  5
   2B5
  8
0
  6
CONTINUOUS
 62
     1
 10
20.7148653775475
 20
-88.4879624962809
 30
0.0
 11
20.7148653775475
 21
-74.8379638910296
 31
0.0
  0
LINE
  5
   2B6
  8
0
  6
CONTINUOUS
 62
     1
 10
19.4548740512146
 20
-88.4879624962809
 30
0.0
 11
19.4548740512146
 21
-74.8379638910296
 31
0.0
  0
LINE
  5
   2B7
  8
0
  6
CONTINUOUS
 62
     1
 10
18.1948827248816
 20
-88.4879624962809
 30
0.0
 11
18.1948827248816
 21
-74.8379638910296
 31
0.0
  0
LINE
  5
   2B8
  8
0
  6
CONTINUOUS
 62
     1
 10
16.9348700362461
 20
-88.4879624962809
 30
0.0
 11
16.9348700362461
 21
-74.8379638910296
 31
0.0
  0
LINE
  5
   2B9
  8
0
  6
CONTINUOUS
 62
     1
 10
15.6748787099132
 20
-88.6629603284595
 30
0.0
 11
15.6748787099132
 21
-74.8379638910296
 31
0.0
  0
LINE
  5
   2BA
  8
0
  6
CONTINUOUS
 62
     1
 10
14.4148660212777
 20
-88.6629603284595
 30
0.0
 11
14.4148660212777
 21
-74.8379638910296
 31
0.0
  0
LINE
  5
   2BB
  8
0
  6
CONTINUOUS
 62
     1
 10
13.1548746949447
 20
-88.4879624962809
 30
0.0
 11
13.1548746949447
 21
-74.8379638910296
 31
0.0
  0
LINE
  5
   2BC
  8
0
  6
CONTINUOUS
 62
     1
 10
11.8948833686118
 20
-88.4879624962809
 30
0.0
 11
11.8948833686118
 21
-80.1754932194906
 31
0.0
  0
LINE
  5
   2BD
  8
0
  6
CONTINUOUS
 62
     1
 10
10.6348706799763
 20
-88.4879624962809
 30
0.0
 11
10.6348706799763
 21
-80.1754932194906
 31
0.0
  0
LINE
  5
   2BE
  8
0
  6
CONTINUOUS
 62
     1
 10
21.9747507284743
 20
-0.462877085303731
 30
0.0
 11
21.9746653135347
 21
28.0619206767
 31
0.0
  0
LINE
  5
   2BF
  8
0
  6
CONTINUOUS
 62
     1
 10
20.7147380398445
 20
-0.462880857090482
 30
0.0
 11
20.7146526249049
 21
28.0619169032523
 31
0.0
  0
LINE
  5
   2C0
  8
0
  6
CONTINUOUS
 62
     1
 10
19.4547467135172
 20
-0.462884630506252
 30
0.0
 11
19.4546612985775
 21
28.0619131314975
 31
0.0
  0
LINE
  5
   2C1
  8
0
  6
CONTINUOUS
 62
     1
 10
18.1947553871898
 20
-0.462888407244066
 30
0.0
 11
18.1946699722502
 21
28.0619093547597
 31
0.0
  0
LINE
  5
   2C2
  8
0
  6
CONTINUOUS
 62
     1
 10
16.93474269856
 20
-0.462892177369767
 30
0.0
 11
16.9346572836204
 21
28.061905584634
 31
0.0
  0
LINE
  5
   2C3
  8
0
  6
CONTINUOUS
 62
     1
 10
15.6747513722327
 20
-0.462895949124515
 30
0.0
 11
15.6746659572931
 21
28.0619018112182
 31
0.0
  0
LINE
  5
   2C4
  8
0
  6
CONTINUOUS
 62
     1
 10
14.4147386836029
 20
-0.462899725894331
 30
0.0
 11
14.4146532686633
 21
28.0618980361094
 31
0.0
  0
LINE
  5
   2C5
  8
0
  6
CONTINUOUS
 62
     1
 10
13.1547473572756
 20
-0.462903499310102
 30
0.0
 11
13.1546619423359
 21
28.0618942626936
 31
0.0
  0
LINE
  5
   2C6
  8
0
  6
CONTINUOUS
 62
     1
 10
11.8947560309483
 20
-0.462907267742793
 30
0.0
 11
11.8946706160086
 21
28.0618904925999
 31
0.0
  0
LINE
  5
   2C7
  8
0
  6
CONTINUOUS
 62
     1
 10
10.6347561596999
 20
-0.462911041171367
 30
0.0
 11
10.6346707447603
 21
28.0618867208324
 31
0.0
  0
CIRCLE
  5
   2C8
  8
0
  6
CONTINUOUS
 62
     1
 10
-26.272574748255
 20
-98.2881278681542
 30
0.0
 40
1.57569269749607
  0
LINE
  5
   2C9
  8
0
  6
DASHDOT
 62
     1
 10
-26.272574748255
 20
-103.363820208022
 30
0.0
 11
-26.272574748255
 21
-89.0129602926967
 31
0.0
  0
LINE
  5
   2CA
  8
0
  6
DASHDOT
 62
     1
 10
-21.1968824083868
 20
-98.2881278681542
 30
0.0
 11
-31.3482670881232
 21
-98.2881278681542
 31
0.0
  0
LINE
  5
   2CB
  8
0
  6
CONTINUOUS
 62
     1
 10
-13.4800376015976
 20
-0.462979501485293
 30
0.0
 11
-13.4800376015976
 21
28.0618520260031
 31
0.0
  0
LINE
  5
   2CC
  8
0
  6
CONTINUOUS
 62
     1
 10
-12.2200389319734
 20
-0.462979501485293
 30
0.0
 11
-12.2200389319734
 21
28.0618520260031
 31
0.0
  0
LINE
  5
   2CD
  8
0
  6
CONTINUOUS
 62
     1
 10
-10.7850379437288
 20
-0.462979501485293
 30
0.0
 11
-10.7850379437288
 21
28.0618520260031
 31
0.0
  0
LINE
  5
   2CE
  8
0
  6
CONTINUOUS
 62
     1
 10
-9.52503827274667
 20
-0.462979501485293
 30
0.0
 11
-9.52503827274667
 21
28.0618520260031
 31
0.0
  0
LINE
  5
   2CF
  8
0
  6
CONTINUOUS
 62
     1
 10
-8.26505262077536
 20
-0.462979501485293
 30
0.0
 11
-8.26505262077536
 21
28.0618520260031
 31
0.0
  0
LINE
  5
   2D0
  8
0
  6
CONTINUOUS
 62
     1
 10
-7.00505061329134
 20
-0.462979501485293
 30
0.0
 11
-7.00505061329134
 21
28.0618520260031
 31
0.0
  0
LINE
  5
   2D1
  8
0
  6
CONTINUOUS
 62
     1
 10
-5.74503792465709
 20
-0.462979501485293
 30
0.0
 11
-5.74503792465709
 21
28.0618520260031
 31
0.0
  0
LINE
  5
   2D2
  8
0
  6
CONTINUOUS
 62
     1
 10
-4.48505193889893
 20
-0.462979501485293
 30
0.0
 11
-4.48505193889893
 21
28.0618520260031
 31
0.0
  0
LINE
  5
   2D3
  8
0
  6
CONTINUOUS
 62
     1
 10
-14.7401858073394
 20
-0.462979501485279
 30
0.0
 11
-14.7401858073394
 21
28.0618520260032
 31
0.0
  0
LINE
  5
   2D4
  8
0
  6
CONTINUOUS
 62
     1
 10
-16.0001891499672
 20
-0.462979501485279
 30
0.0
 11
-16.0001891499672
 21
28.0618520260031
 31
0.0
  0
LINE
  5
   2D5
  8
0
  6
CONTINUOUS
 62
     1
 10
-17.2601868182335
 20
-0.462979501485293
 30
0.0
 11
-17.2601868182335
 21
28.0618520260031
 31
0.0
  0
LINE
  5
   2D6
  8
0
  6
CONTINUOUS
 62
     1
 10
-18.5201864892157
 20
-0.462979501485293
 30
0.0
 11
-18.5201864892157
 21
28.0618520260031
 31
0.0
  0
LINE
  5
   2D7
  8
0
  6
CONTINUOUS
 62
     1
 10
-19.780172141187
 20
-0.462979501485293
 30
0.0
 11
-19.780172141187
 21
28.0618520260031
 31
0.0
  0
LINE
  5
   2D8
  8
0
  6
CONTINUOUS
 62
     1
 10
-21.040174148671
 20
-0.462979501485293
 30
0.0
 11
-21.040174148671
 21
28.0618520260031
 31
0.0
  0
LINE
  5
   2D9
  8
0
  6
CONTINUOUS
 62
     1
 10
-22.3001868373053
 20
-0.462979501485293
 30
0.0
 11
-22.3001868373053
 21
28.0618520260031
 31
0.0
  0
LINE
  5
   2DA
  8
0
  6
CONTINUOUS
 62
     1
 10
-23.5601728230634
 20
-0.462979501485293
 30
0.0
 11
-23.5601728230634
 21
28.0618520260031
 31
0.0
  0
LINE
  5
   2DB
  8
0
  6
CONTINUOUS
 62
     1
 10
-24.8201374465198
 20
-0.462979501485279
 30
0.0
 11
-24.8201374465198
 21
11.734590815895
 31
0.0
  0
LINE
  5
   2DC
  8
0
  6
CONTINUOUS
 62
     1
 10
-26.0801234322771
 20
-0.462979501485279
 30
0.0
 11
-26.0801234322771
 21
10.766814425524
 31
0.0
  0
LINE
  5
   2DD
  8
0
  6
CONTINUOUS
 62
     1
 10
-27.3401254397613
 20
-0.462979501485279
 30
0.0
 11
-27.3401254397613
 21
11.1786262120586
 31
0.0
  0
LINE
  5
   2DE
  8
0
  6
CONTINUOUS
 62
     1
 10
-28.6001755124221
 20
-0.462979501485293
 30
0.0
 11
-28.6001755124221
 21
28.0618520260031
 31
0.0
  0
LINE
  5
   2DF
  8
0
  6
CONTINUOUS
 62
     1
 10
-29.8601775199059
 20
-0.462979501485293
 30
0.0
 11
-29.8601775199059
 21
28.0618520260031
 31
0.0
  0
LINE
  5
   2E0
  8
0
  6
CONTINUOUS
 62
     1
 10
-31.1201795273898
 20
-0.462979501485293
 30
0.0
 11
-31.1201795273898
 21
28.0618520260031
 31
0.0
  0
LINE
  5
   2E1
  8
0
  6
CONTINUOUS
 62
     1
 10
-32.3801815348736
 20
-0.462979501485293
 30
0.0
 11
-32.3801815348736
 21
28.0618520260031
 31
0.0
  0
LINE
  5
   2E2
  8
0
  6
CONTINUOUS
 62
     1
 10
-33.6401728612063
 20
-0.462979501485293
 30
0.0
 11
-33.6401728612063
 21
28.0618520260031
 31
0.0
  0
LINE
  5
   2E3
  8
0
  6
CONTINUOUS
 62
     1
 10
-34.9001748686901
 20
-0.462979501485293
 30
0.0
 11
-34.9001748686901
 21
28.0618520260031
 31
0.0
  0
LINE
  5
   2E4
  8
0
  6
CONTINUOUS
 62
     1
 10
-36.160176876174
 20
-0.462979501485293
 30
0.0
 11
-36.160176876174
 21
28.0618520260031
 31
0.0
  0
LINE
  5
   2E5
  8
0
  6
CONTINUOUS
 62
     1
 10
-37.4201788836578
 20
-0.462979501485293
 30
0.0
 11
-37.4201788836578
 21
28.0618520260031
 31
0.0
  0
LINE
  5
   2E6
  8
0
  6
CONTINUOUS
 62
     1
 10
-3.22508731544258
 20
-97.6770020467772
 30
0.0
 11
-3.22508731544258
 21
-89.0129602926967
 31
0.0
  0
LINE
  5
   2E7
  8
0
  6
CONTINUOUS
 62
     1
 10
-24.8201374465198
 20
-97.6771995896546
 30
0.0
 11
-24.8201374465198
 21
-89.0129602926967
 31
0.0
  0
LINE
  5
   2E8
  8
0
  6
CONTINUOUS
 62
     1
 10
-26.0801234322771
 20
-96.7242321018319
 30
0.0
 11
-26.0801234322771
 21
-89.0129602926967
 31
0.0
  0
LINE
  5
   2E9
  8
0
  6
CONTINUOUS
 62
     1
 10
-27.3401254397613
 20
-97.1291874046243
 30
0.0
 11
-27.3401254397613
 21
-89.0129602926967
 31
0.0
  0
LINE
  5
   2EA
  8
0
  6
CONTINUOUS
 62
     1
 10
-74.7477177171476
 20
28.0618293955673
 30
0.0
 11
22.2019589931441
 21
28.061974549108
 31
0.0
  0
LINE
  5
   2EB
  8
0
  6
CONTINUOUS
 62
     1
 10
-3.22505206764515
 20
-0.462978791065893
 30
0.0
 11
-3.22505206764515
 21
11.7011292690673
 31
0.0
  0
LINE
  5
   2EC
  8
0
  6
CONTINUOUS
 62
     1
 10
-1.96505219639119
 20
-0.462978080646494
 30
0.0
 11
-1.96505219639119
 21
10.7481218783029
 31
0.0
  0
CIRCLE
  5
   2ED
  8
0
  6
CONTINUOUS
 62
     1
 10
-1.7726446731317
 20
12.3120173382721
 30
0.0
 40
1.57569269749607
  0
LINE
  5
   2EE
  8
0
  6
DASHDOT
 62
     7
 10
-1.77264467313172
 20
8.67613472524482
 30
0.0
 11
-1.77264467313172
 21
16.08759331705
 31
0.0
  0
LINE
  5
   2EF
  8
0
  6
DASHDOT
 62
     7
 10
1.17649387962491
 20
12.3120173382721
 30
0.0
 11
-4.98916398022445
 21
12.3120173382721
 31
0.0
  0
LINE
  5
   2F0
  8
0
  6
CONTINUOUS
 62
     1
 10
-0.705263043516569
 20
13.4711135107734
 30
0.0
 11
-0.705306734172067
 21
28.0618527616683
 31
0.0
  0
LINE
  5
   2F1
  8
0
  6
CONTINUOUS
 62
     1
 10
-1.96505219639119
 20
13.8759125812197
 30
0.0
 11
-1.96505219639119
 21
28.0618196804042
 31
0.0
  0
LINE
  5
   2F2
  8
0
  6
CONTINUOUS
 62
     1
 10
-3.22505206764515
 20
12.9229037696165
 30
0.0
 11
-3.22505206764515
 21
28.061936479576
 31
0.0
  0
LINE
  5
   2F3
  8
0
  6
CONTINUOUS
 62
     1
 10
-74.5201377087737
 20
-0.463019376399515
 30
0.0
 11
-74.5201377087737
 21
28.0618617834349
 31
0.0
  0
LINE
  5
   2F4
  8
0
  6
CONTINUOUS
 62
     1
 10
-73.2601143389929
 20
-0.462958139182774
 30
0.0
 11
-73.2601143389929
 21
28.0619152811943
 31
0.0
  0
LINE
  5
   2F5
  8
0
  6
CONTINUOUS
 62
     1
 10
-72.0001336938054
 20
-0.463031004780007
 30
0.0
 11
-72.0001336938054
 21
28.0619374752132
 31
0.0
  0
LINE
  5
   2F6
  8
0
  6
CONTINUOUS
 62
     1
 10
-70.7401423674725
 20
-0.463031478388558
 30
0.0
 11
-70.7401423674725
 21
28.0619280224656
 31
0.0
  0
LINE
  5
   2F7
  8
0
  6
CONTINUOUS
 62
     1
 10
-69.4801189976915
 20
-0.462958139182774
 30
0.0
 11
-69.4801189976915
 21
28.0618520260032
 31
0.0
  0
LINE
  5
   2F8
  8
0
  6
CONTINUOUS
 62
     1
 10
-68.2201383525043
 20
-0.46303242561369
 30
0.0
 11
-68.2201383525043
 21
28.0618520260032
 31
0.0
  0
LINE
  5
   2F9
  8
0
  6
CONTINUOUS
 62
     1
 10
-66.9601149827231
 20
-0.462958139182774
 30
0.0
 11
-66.9601149827231
 21
28.0618520260032
 31
0.0
  0
LINE
  5
   2FA
  8
0
  6
CONTINUOUS
 62
     1
 10
-65.7001717215492
 20
-0.463023157256799
 30
0.0
 11
-65.7001717215492
 21
28.0618520260031
 31
0.0
  0
LINE
  5
   2FB
  8
0
  6
CONTINUOUS
 62
     1
 10
-64.4401430112031
 20
-0.463033846447402
 30
0.0
 11
-64.4401430112031
 21
28.0618520260031
 31
0.0
  0
LINE
  5
   2FC
  8
0
  6
CONTINUOUS
 62
     1
 10
-63.1801196414217
 20
-0.462958139182774
 30
0.0
 11
-63.1801196414217
 21
28.0618520260032
 31
0.0
  0
LINE
  5
   2FD
  8
0
  6
CONTINUOUS
 62
     1
 10
-61.9201763802489
 20
-0.462979501485293
 30
0.0
 11
-61.9201763802489
 21
28.0618520260031
 31
0.0
  0
LINE
  5
   2FE
  8
0
  6
CONTINUOUS
 62
     1
 10
-60.6601743727651
 20
-0.462979501485293
 30
0.0
 11
-60.6601743727651
 21
28.0618520260031
 31
0.0
  0
LINE
  5
   2FF
  8
0
  6
CONTINUOUS
 62
     1
 10
-59.4001723652812
 20
-0.462979501485293
 30
0.0
 11
-59.4001723652812
 21
28.0618520260031
 31
0.0
  0
LINE
  5
   300
  8
0
  6
CONTINUOUS
 62
     1
 10
-58.1401703577973
 20
-0.462979501485293
 30
0.0
 11
-58.1401703577973
 21
28.0618520260031
 31
0.0
  0
LINE
  5
   301
  8
0
  6
CONTINUOUS
 62
     1
 10
-56.8801790314647
 20
-0.462979501485293
 30
0.0
 11
-56.8801790314647
 21
28.0618520260031
 31
0.0
  0
LINE
  5
   302
  8
0
  6
CONTINUOUS
 62
     1
 10
-55.6201770239809
 20
-0.462979501485293
 30
0.0
 11
-55.6201770239809
 21
28.0618520260031
 31
0.0
  0
LINE
  5
   303
  8
0
  6
CONTINUOUS
 62
     1
 10
-54.360175016497
 20
-0.462979501485293
 30
0.0
 11
-54.360175016497
 21
28.0618520260031
 31
0.0
  0
LINE
  5
   304
  8
0
  6
CONTINUOUS
 62
     1
 10
-53.1001730090131
 20
-0.462979501485293
 30
0.0
 11
-53.1001730090131
 21
28.0618520260031
 31
0.0
  0
LINE
  5
   305
  8
0
  6
CONTINUOUS
 62
     1
 10
-51.4901193495126
 20
13.6039346894111
 30
0.0
 11
-51.490097825524
 21
28.0618520308734
 31
0.0
  0
CIRCLE
  5
   306
  8
0
  6
CONTINUOUS
 62
     1
 10
-50.7725722448599
 20
12.3120173382721
 30
0.0
 40
1.57569269749607
  0
LINE
  5
   307
  8
0
  6
DASHDOT
 62
     7
 10
-48.155057189524
 20
12.3120173382721
 30
0.0
 11
-52.9904532508442
 21
12.3120173382721
 31
0.0
  0
LINE
  5
   308
  8
0
  6
DASHDOT
 62
     7
 10
-50.7725722448599
 20
9.11955532475453
 30
0.0
 11
-50.7725722448599
 21
15.5174811176804
 31
0.0
  0
LINE
  5
   309
  8
0
  6
CONTINUOUS
 62
     1
 10
-51.6651229542476
 20
-0.462979501485279
 30
0.0
 11
-51.6651229542476
 21
11.1786262120586
 31
0.0
  0
LINE
  5
   30A
  8
0
  6
CONTINUOUS
 62
     1
 10
-50.0201402121722
 20
13.6964325260785
 30
0.0
 11
-50.0201402121722
 21
28.0618617834349
 31
0.0
  0
LINE
  5
   30B
  8
0
  6
CONTINUOUS
 62
     1
 10
-74.5200949841746
 20
-29.5129925549008
 30
0.0
 11
-74.5200949841746
 21
-0.987979447841099
 31
0.0
  0
LINE
  5
   30C
  8
0
  6
CONTINUOUS
 62
     1
 10
-73.2600822955392
 20
-29.5129925549008
 30
0.0
 11
-73.2600822955392
 21
-0.987979447841099
 31
0.0
  0
LINE
  5
   30D
  8
0
  6
CONTINUOUS
 62
     1
 10
-72.0000909692062
 20
-29.5129925549008
 30
0.0
 11
-72.0000909692062
 21
-0.987979447841099
 31
0.0
  0
LINE
  5
   30E
  8
0
  6
CONTINUOUS
 62
     1
 10
-70.7400996428732
 20
-29.5129925549008
 30
0.0
 11
-70.7400996428732
 21
-0.987979447841099
 31
0.0
  0
LINE
  5
   30F
  8
0
  6
CONTINUOUS
 62
     1
 10
-69.4800869542378
 20
-29.5129925549008
 30
0.0
 11
-69.4800869542378
 21
-0.987979447841099
 31
0.0
  0
LINE
  5
   310
  8
0
  6
CONTINUOUS
 62
     1
 10
-68.2200956279048
 20
-29.5129925549008
 30
0.0
 11
-68.2200956279048
 21
-0.987979447841099
 31
0.0
  0
LINE
  5
   311
  8
0
  6
CONTINUOUS
 62
     1
 10
-66.9600829392693
 20
-29.5129925549008
 30
0.0
 11
-66.9600829392693
 21
-0.987979447841099
 31
0.0
  0
LINE
  5
   312
  8
0
  6
CONTINUOUS
 62
     1
 10
-65.7000916129364
 20
-29.5129925549008
 30
0.0
 11
-65.7000916129364
 21
-0.987979447841099
 31
0.0
  0
LINE
  5
   313
  8
0
  6
CONTINUOUS
 62
     1
 10
-64.4401002866034
 20
-29.5129925549008
 30
0.0
 11
-64.4401002866034
 21
-0.987979447841099
 31
0.0
  0
LINE
  5
   314
  8
0
  6
CONTINUOUS
 62
     1
 10
-63.1800875979679
 20
-29.5129925549008
 30
0.0
 11
-63.1800875979679
 21
-0.987979447841099
 31
0.0
  0
LINE
  5
   315
  8
0
  6
CONTINUOUS
 62
     1
 10
-74.5200949841746
 20
-66.2629620969301
 30
0.0
 11
-74.5200949841746
 21
-29.5129925549008
 31
0.0
  0
LINE
  5
   316
  8
0
  6
CONTINUOUS
 62
     1
 10
-73.2600822955392
 20
-66.2629620969301
 30
0.0
 11
-73.2600822955392
 21
-29.5129925549008
 31
0.0
  0
LINE
  5
   317
  8
0
  6
CONTINUOUS
 62
     1
 10
-72.0000909692062
 20
-66.2629620969301
 30
0.0
 11
-72.0000909692062
 21
-29.5129925549008
 31
0.0
  0
LINE
  5
   318
  8
0
  6
CONTINUOUS
 62
     1
 10
-70.7400996428732
 20
-66.2629620969301
 30
0.0
 11
-70.7400996428732
 21
-29.5129925549008
 31
0.0
  0
LINE
  5
   319
  8
0
  6
CONTINUOUS
 62
     1
 10
-69.4800869542378
 20
-66.2629620969301
 30
0.0
 11
-69.4800869542378
 21
-29.5129925549008
 31
0.0
  0
LINE
  5
   31A
  8
0
  6
CONTINUOUS
 62
     1
 10
-68.2200956279048
 20
-66.2629620969301
 30
0.0
 11
-68.2200956279048
 21
-29.5129925549008
 31
0.0
  0
LINE
  5
   31B
  8
0
  6
CONTINUOUS
 62
     1
 10
-66.9600829392693
 20
-66.2629620969301
 30
0.0
 11
-66.9600829392693
 21
-29.5129925549008
 31
0.0
  0
LINE
  5
   31C
  8
0
  6
CONTINUOUS
 62
     1
 10
-65.7000916129364
 20
-66.2629620969301
 30
0.0
 11
-65.7000916129364
 21
-29.5129925549008
 31
0.0
  0
LINE
  5
   31D
  8
0
  6
CONTINUOUS
 62
     1
 10
-64.4401002866034
 20
-66.2629620969301
 30
0.0
 11
-64.4401002866034
 21
-29.5129925549008
 31
0.0
  0
LINE
  5
   31E
  8
0
  6
CONTINUOUS
 62
     1
 10
-74.5200949841746
 20
-74.3129662811756
 30
0.0
 11
-74.5200949841746
 21
-66.2629724442954
 31
0.0
  0
LINE
  5
   31F
  8
0
  6
CONTINUOUS
 62
     1
 10
-73.2600822955392
 20
-74.3129662811756
 30
0.0
 11
-73.2600822955392
 21
-66.2629724442954
 31
0.0
  0
LINE
  5
   320
  8
0
  6
CONTINUOUS
 62
     1
 10
-72.0000909692062
 20
-74.3129662811756
 30
0.0
 11
-72.0000909692062
 21
-66.2629724442954
 31
0.0
  0
LINE
  5
   321
  8
0
  6
CONTINUOUS
 62
     1
 10
-70.7400996428732
 20
-74.3129662811756
 30
0.0
 11
-70.7400996428732
 21
-66.2629724442954
 31
0.0
  0
LINE
  5
   322
  8
0
  6
CONTINUOUS
 62
     1
 10
-69.4800869542378
 20
-74.3129662811756
 30
0.0
 11
-69.4800869542378
 21
-66.2629724442954
 31
0.0
  0
LINE
  5
   323
  8
0
  6
CONTINUOUS
 62
     1
 10
-68.2200956279048
 20
-74.3129662811756
 30
0.0
 11
-68.2200956279048
 21
-66.2629724442954
 31
0.0
  0
LINE
  5
   324
  8
0
  6
CONTINUOUS
 62
     1
 10
-66.9600829392693
 20
-74.3129662811756
 30
0.0
 11
-66.9600829392693
 21
-66.2629724442954
 31
0.0
  0
LINE
  5
   325
  8
0
  6
CONTINUOUS
 62
     1
 10
-65.7000916129364
 20
-74.3129662811756
 30
0.0
 11
-65.7000916129364
 21
-66.2629724442954
 31
0.0
  0
LINE
  5
   326
  8
0
  6
CONTINUOUS
 62
     1
 10
-64.4401002866034
 20
-74.3129662811756
 30
0.0
 11
-64.4401002866034
 21
-66.2629724442954
 31
0.0
  0
LINE
  5
   327
  8
0
  6
CONTINUOUS
 62
     1
 10
-63.1800875979679
 20
-74.3129662811756
 30
0.0
 11
-63.1800875979679
 21
-66.2629724442954
 31
0.0
  0
LINE
  5
   328
  8
0
  6
CONTINUOUS
 62
     1
 10
-63.1800875979679
 20
-66.2629620969301
 30
0.0
 11
-63.1800875979679
 21
-29.5129925549008
 31
0.0
  0
LINE
  5
   329
  8
0
  6
CONTINUOUS
 62
     2
 10
-74.5200949841746
 20
-88.4879624962809
 30
0.0
 11
-74.5200949841746
 21
-74.8379638910296
 31
0.0
  0
LINE
  5
   32A
  8
0
  6
CONTINUOUS
 62
     2
 10
-73.2600822955392
 20
-88.4879624962809
 30
0.0
 11
-73.2600822955392
 21
-74.8379638910296
 31
0.0
  0
LINE
  5
   32B
  8
0
  6
CONTINUOUS
 62
     2
 10
-72.0000909692062
 20
-88.4879624962809
 30
0.0
 11
-72.0000909692062
 21
-74.8379638910296
 31
0.0
  0
LINE
  5
   32C
  8
0
  6
CONTINUOUS
 62
     2
 10
-70.7400996428732
 20
-88.4879624962809
 30
0.0
 11
-70.7400996428732
 21
-74.8379638910296
 31
0.0
  0
LINE
  5
   32D
  8
0
  6
CONTINUOUS
 62
     2
 10
-69.4800869542378
 20
-88.4879624962809
 30
0.0
 11
-69.4800869542378
 21
-74.8379638910296
 31
0.0
  0
LINE
  5
   32E
  8
0
  6
CONTINUOUS
 62
     2
 10
-68.2200956279048
 20
-88.4879624962809
 30
0.0
 11
-68.2200956279048
 21
-74.8379638910296
 31
0.0
  0
LINE
  5
   32F
  8
0
  6
CONTINUOUS
 62
     2
 10
-66.9600829392693
 20
-88.4879624962809
 30
0.0
 11
-66.9600829392693
 21
-74.8379638910296
 31
0.0
  0
LINE
  5
   330
  8
0
  6
CONTINUOUS
 62
     2
 10
-65.7000916129364
 20
-88.4879624962809
 30
0.0
 11
-65.7000916129364
 21
-74.8379638910296
 31
0.0
  0
LINE
  5
   331
  8
0
  6
CONTINUOUS
 62
     2
 10
-64.4401002866034
 20
-88.4879624962809
 30
0.0
 11
-64.4401002866034
 21
-74.8379638910296
 31
0.0
  0
LINE
  5
   332
  8
0
  6
CONTINUOUS
 62
     2
 10
-63.1800875979679
 20
-88.4879624962809
 30
0.0
 11
-63.1800875979679
 21
-74.8379638910296
 31
0.0
  0
LINE
  5
   333
  8
0
  6
CONTINUOUS
 62
     2
 10
-74.5200949841746
 20
-114.037957735657
 30
0.0
 11
-74.5200949841746
 21
-89.0129602926967
 31
0.0
  0
LINE
  5
   334
  8
0
  6
CONTINUOUS
 62
     2
 10
-73.2600822955392
 20
-114.037957735657
 30
0.0
 11
-73.2600822955392
 21
-89.0129602926967
 31
0.0
  0
LINE
  5
   335
  8
0
  6
CONTINUOUS
 62
     2
 10
-72.0000909692062
 20
-114.037957735657
 30
0.0
 11
-72.0000909692062
 21
-89.0129602926967
 31
0.0
  0
LINE
  5
   336
  8
0
  6
CONTINUOUS
 62
     2
 10
-70.7400996428732
 20
-114.037957735657
 30
0.0
 11
-70.7400996428732
 21
-89.0129602926967
 31
0.0
  0
LINE
  5
   337
  8
0
  6
CONTINUOUS
 62
     2
 10
-69.4800869542378
 20
-114.037957735657
 30
0.0
 11
-69.4800869542378
 21
-89.0129602926967
 31
0.0
  0
LINE
  5
   338
  8
0
  6
CONTINUOUS
 62
     2
 10
-68.2200956279048
 20
-114.037957735657
 30
0.0
 11
-68.2200956279048
 21
-89.0129602926967
 31
0.0
  0
LINE
  5
   339
  8
0
  6
CONTINUOUS
 62
     2
 10
-66.9600829392693
 20
-114.037957735657
 30
0.0
 11
-66.9600829392693
 21
-89.0129602926967
 31
0.0
  0
LINE
  5
   33A
  8
0
  6
CONTINUOUS
 62
     2
 10
-65.7000916129364
 20
-114.037957735657
 30
0.0
 11
-65.7000916129364
 21
-89.0129602926967
 31
0.0
  0
LINE
  5
   33B
  8
0
  6
CONTINUOUS
 62
     2
 10
-64.4401002866034
 20
-114.037957735657
 30
0.0
 11
-64.4401002866034
 21
-89.0129602926967
 31
0.0
  0
LINE
  5
   33C
  8
0
  6
CONTINUOUS
 62
     2
 10
-63.1801004153494
 20
-114.037957735657
 30
0.0
 11
-63.1801004153494
 21
-89.0129602926967
 31
0.0
  0
LINE
  5
   33D
  8
0
  6
CONTINUOUS
 62
     1
 10
-61.9201763802489
 20
-114.037957735657
 30
0.0
 11
-61.9201763802489
 21
-89.0129602926967
 31
0.0
  0
LINE
  5
   33E
  8
0
  6
CONTINUOUS
 62
     1
 10
-60.6601743727651
 20
-114.037957735657
 30
0.0
 11
-60.6601743727651
 21
-89.0129602926967
 31
0.0
  0
LINE
  5
   33F
  8
0
  6
CONTINUOUS
 62
     1
 10
-59.4001723652812
 20
-114.037957735657
 30
0.0
 11
-59.4001723652812
 21
-89.0129602926967
 31
0.0
  0
LINE
  5
   340
  8
0
  6
CONTINUOUS
 62
     1
 10
-58.1401703577973
 20
-114.037957735657
 30
0.0
 11
-58.1401703577973
 21
-89.0129602926967
 31
0.0
  0
LINE
  5
   341
  8
0
  6
CONTINUOUS
 62
     1
 10
-56.8801790314647
 20
-114.037957735657
 30
0.0
 11
-56.8801790314647
 21
-89.0129602926967
 31
0.0
  0
LINE
  5
   342
  8
0
  6
CONTINUOUS
 62
     1
 10
-51.6651229542476
 20
-97.1291874046243
 30
0.0
 11
-51.6651229542476
 21
-89.0129602926967
 31
0.0
  0
LINE
  5
   343
  8
0
  6
CONTINUOUS
 62
     1
 10
-53.1001730090131
 20
-114.037957735657
 30
0.0
 11
-53.1001730090131
 21
-89.0129602926967
 31
0.0
  0
LINE
  5
   344
  8
0
  6
CONTINUOUS
 62
     1
 10
-54.360175016497
 20
-114.037957735657
 30
0.0
 11
-54.360175016497
 21
-89.0129602926967
 31
0.0
  0
LINE
  5
   345
  8
0
  6
CONTINUOUS
 62
     1
 10
-55.6201770239809
 20
-114.037957735657
 30
0.0
 11
-55.6201770239809
 21
-89.0129602926967
 31
0.0
  0
CIRCLE
  5
   346
  8
0
  6
CONTINUOUS
 62
     1
 10
-50.7725722448599
 20
-98.2881278681542
 30
0.0
 40
1.57569269749607
  0
LINE
  5
   347
  8
0
  6
DASHDOT
 62
     1
 10
-50.7725722448599
 20
-103.363820208022
 30
0.0
 11
-50.7725722448599
 21
-89.0129602926967
 31
0.0
  0
LINE
  5
   348
  8
0
  6
DASHDOT
 62
     1
 10
-45.6968799049917
 20
-98.2881278681542
 30
0.0
 11
-55.8482645847281
 21
-98.2881278681542
 31
0.0
  0
LINE
  5
   349
  8
0
  6
CONTINUOUS
 62
     1
 10
-51.6651229542476
 20
-114.037957735657
 30
0.0
 11
-51.6651229542476
 21
-99.4470683316841
 31
0.0
  0
LINE
  5
   34A
  8
0
  6
CONTINUOUS
 62
     2
 10
-50.0200974875697
 20
-96.9037185296335
 30
0.0
 11
-50.0200974875697
 21
-89.0129602926967
 31
0.0
  0
LINE
  5
   34B
  8
0
  6
CONTINUOUS
 62
     1
 10
-51.6651229542476
 20
-88.4879624962809
 30
0.0
 11
-51.6651229542476
 21
-74.8379638910296
 31
0.0
  0
LINE
  5
   34C
  8
0
  6
CONTINUOUS
 62
     1
 10
-53.1001730090131
 20
-88.4879615490102
 30
0.0
 11
-53.1001730090131
 21
-74.8379629437666
 31
0.0
  0
LINE
  5
   34D
  8
0
  6
CONTINUOUS
 62
     1
 10
-54.360175016497
 20
-88.4879606017853
 30
0.0
 11
-54.360175016497
 21
-74.8379619965417
 31
0.0
  0
LINE
  5
   34E
  8
0
  6
CONTINUOUS
 62
     1
 10
-55.6201770239809
 20
-88.4879596545603
 30
0.0
 11
-55.6201770239809
 21
-74.8379610493167
 31
0.0
  0
LINE
  5
   34F
  8
0
  6
CONTINUOUS
 62
     1
 10
-56.8801790314647
 20
-88.4879587073354
 30
0.0
 11
-56.8801790314647
 21
-74.8379601020918
 31
0.0
  0
LINE
  5
   350
  8
0
  6
CONTINUOUS
 62
     1
 10
-58.1401703577973
 20
-88.4879577601185
 30
0.0
 11
-58.1401703577973
 21
-74.8379591548749
 31
0.0
  0
LINE
  5
   351
  8
0
  6
CONTINUOUS
 62
     1
 10
-59.4001723652812
 20
-88.4879568128936
 30
0.0
 11
-59.4001723652812
 21
-74.83795820765
 31
0.0
  0
LINE
  5
   352
  8
0
  6
CONTINUOUS
 62
     1
 10
-60.6601743727651
 20
-88.4879558656684
 30
0.0
 11
-60.6601743727651
 21
-74.8379572604248
 31
0.0
  0
LINE
  5
   353
  8
0
  6
CONTINUOUS
 62
     1
 10
-61.9201763802489
 20
-88.4879549184433
 30
0.0
 11
-61.9201763802489
 21
-74.8379563131997
 31
0.0
  0
LINE
  5
   354
  8
0
  6
CONTINUOUS
 62
     1
 10
-51.6651229542476
 20
-74.3129662811756
 30
0.0
 11
-51.6651229542476
 21
-66.2629724442954
 31
0.0
  0
LINE
  5
   355
  8
0
  6
CONTINUOUS
 62
     1
 10
-53.1001730090131
 20
-74.3129653339129
 30
0.0
 11
-53.1001730090131
 21
-66.2629714970372
 31
0.0
  0
LINE
  5
   356
  8
0
  6
CONTINUOUS
 62
     1
 10
-54.360175016497
 20
-74.312964386688
 30
0.0
 11
-54.360175016497
 21
-66.2629705498123
 31
0.0
  0
LINE
  5
   357
  8
0
  6
CONTINUOUS
 62
     1
 10
-55.6201770239809
 20
-74.312963439463
 30
0.0
 11
-55.6201770239809
 21
-66.2629696025873
 31
0.0
  0
LINE
  5
   358
  8
0
  6
CONTINUOUS
 62
     1
 10
-56.8801790314647
 20
-74.3129624922381
 30
0.0
 11
-56.8801790314647
 21
-66.2629686553624
 31
0.0
  0
LINE
  5
   359
  8
0
  6
CONTINUOUS
 62
     1
 10
-58.1401703577973
 20
-74.3129615450212
 30
0.0
 11
-58.1401703577973
 21
-66.2629677081455
 31
0.0
  0
LINE
  5
   35A
  8
0
  6
CONTINUOUS
 62
     1
 10
-59.4001723652812
 20
-74.3129605977963
 30
0.0
 11
-59.4001723652812
 21
-66.2629667609206
 31
0.0
  0
LINE
  5
   35B
  8
0
  6
CONTINUOUS
 62
     1
 10
-60.6601743727651
 20
-74.3129596505712
 30
0.0
 11
-60.6601743727651
 21
-66.2629658136954
 31
0.0
  0
LINE
  5
   35C
  8
0
  6
CONTINUOUS
 62
     1
 10
-61.9201763802489
 20
-74.312958703346
 30
0.0
 11
-61.9201763802489
 21
-66.2629648664703
 31
0.0
  0
LINE
  5
   35D
  8
0
  6
CONTINUOUS
 62
     1
 10
-51.6651229542476
 20
-66.2629620969301
 30
0.0
 11
-51.6651229542476
 21
-29.5129925549008
 31
0.0
  0
LINE
  5
   35E
  8
0
  6
CONTINUOUS
 62
     1
 10
-53.1001730090131
 20
-66.2629611496719
 30
0.0
 11
-53.1001730090131
 21
-29.5129916076634
 31
0.0
  0
LINE
  5
   35F
  8
0
  6
CONTINUOUS
 62
     1
 10
-54.360175016497
 20
-66.262960202447
 30
0.0
 11
-54.360175016497
 21
-29.5129906604385
 31
0.0
  0
LINE
  5
   360
  8
0
  6
CONTINUOUS
 62
     1
 10
-55.6201770239809
 20
-66.262959255222
 30
0.0
 11
-55.6201770239809
 21
-29.5129897132136
 31
0.0
  0
LINE
  5
   361
  8
0
  6
CONTINUOUS
 62
     1
 10
-56.8801790314647
 20
-66.2629583079971
 30
0.0
 11
-56.8801790314647
 21
-29.5129887659886
 31
0.0
  0
LINE
  5
   362
  8
0
  6
CONTINUOUS
 62
     1
 10
-58.1401703577973
 20
-66.2629573607802
 30
0.0
 11
-58.1401703577973
 21
-29.5129878187717
 31
0.0
  0
LINE
  5
   363
  8
0
  6
CONTINUOUS
 62
     1
 10
-59.4001723652812
 20
-66.2629564135553
 30
0.0
 11
-59.4001723652812
 21
-29.5129868715468
 31
0.0
  0
LINE
  5
   364
  8
0
  6
CONTINUOUS
 62
     1
 10
-60.6601743727651
 20
-66.2629554663302
 30
0.0
 11
-60.6601743727651
 21
-29.5129859243217
 31
0.0
  0
LINE
  5
   365
  8
0
  6
CONTINUOUS
 62
     1
 10
-61.9201763802489
 20
-66.262954519105
 30
0.0
 11
-61.9201763802489
 21
-29.5129849770965
 31
0.0
  0
LINE
  5
   366
  8
0
  6
CONTINUOUS
 62
     1
 10
-51.6651229542476
 20
-29.5129925549008
 30
0.0
 11
-51.6651229542476
 21
-0.987979447841099
 31
0.0
  0
LINE
  5
   367
  8
0
  6
CONTINUOUS
 62
     1
 10
-53.1001730090131
 20
-29.5129916076634
 30
0.0
 11
-53.1001730090131
 21
-0.987978500619789
 31
0.0
  0
LINE
  5
   368
  8
0
  6
CONTINUOUS
 62
     1
 10
-54.360175016497
 20
-29.5129906604385
 30
0.0
 11
-54.360175016497
 21
-0.987977553394856
 31
0.0
  0
LINE
  5
   369
  8
0
  6
CONTINUOUS
 62
     1
 10
-55.6201770239809
 20
-29.5129897132136
 30
0.0
 11
-55.6201770239809
 21
-0.987976606169937
 31
0.0
  0
LINE
  5
   36A
  8
0
  6
CONTINUOUS
 62
     1
 10
-56.8801790314647
 20
-29.5129887659886
 30
0.0
 11
-56.8801790314647
 21
-0.987975658945004
 31
0.0
  0
LINE
  5
   36B
  8
0
  6
CONTINUOUS
 62
     1
 10
-58.1401703577973
 20
-29.5129878187717
 30
0.0
 11
-58.1401703577973
 21
-0.987974711728114
 31
0.0
  0
LINE
  5
   36C
  8
0
  6
CONTINUOUS
 62
     1
 10
-59.4001723652812
 20
-29.5129868715468
 30
0.0
 11
-59.4001723652812
 21
-0.987973764503195
 31
0.0
  0
LINE
  5
   36D
  8
0
  6
CONTINUOUS
 62
     1
 10
-60.6601743727651
 20
-29.5129859243217
 30
0.0
 11
-60.6601743727651
 21
-0.987972817278063
 31
0.0
  0
LINE
  5
   36E
  8
0
  6
CONTINUOUS
 62
     1
 10
-61.9201763802489
 20
-29.5129849770965
 30
0.0
 11
-61.9201763802489
 21
-0.987971870052917
 31
0.0
  0
LINE
  5
   36F
  8
0
  6
CONTINUOUS
 62
     1
 10
22.6398758620035
 20
-29.5129925549008
 30
0.0
 11
12.5773902416227
 21
-29.5129925549008
 31
0.0
  0
CIRCLE
  5
   370
  8
0
  6
CONTINUOUS
 62
     1
 10
-1.7726446731317
 20
-98.2881278681542
 30
0.0
 40
1.57569269749607
  0
LINE
  5
   371
  8
0
  6
DASHDOT
 62
     1
 10
-1.7726446731317
 20
-103.363820208022
 30
0.0
 11
-1.7726446731317
 21
-89.0129602926967
 31
0.0
  0
LINE
  5
   372
  8
0
  6
DASHDOT
 62
     1
 10
3.3030476667365
 20
-98.2881278681542
 30
0.0
 11
-6.84833701299991
 21
-98.2881278681542
 31
0.0
  0
LINE
  5
   373
  8
0
  6
CONTINUOUS
 62
     1
 10
-3.22508197486695
 20
-114.037957735657
 30
0.0
 11
-3.22508197486695
 21
-98.8990561466539
 31
0.0
  0
LINE
  5
   374
  8
0
  6
CONTINUOUS
 62
     1
 10
-4.4850465983233
 20
-114.037957735657
 30
0.0
 11
-4.4850465983233
 21
-89.0129602926967
 31
0.0
  0
LINE
  5
   375
  8
0
  6
CONTINUOUS
 62
     1
 10
-5.74503258408147
 20
-114.037957735657
 30
0.0
 11
-5.74503258408147
 21
-89.0129602926967
 31
0.0
  0
LINE
  5
   376
  8
0
  6
CONTINUOUS
 62
     1
 10
-0.705093981625396
 20
-97.1291874046243
 30
0.0
 11
-0.705093981625396
 21
-89.0129602926967
 31
0.0
  0
LINE
  5
   377
  8
0
  6
CONTINUOUS
 62
     1
 10
-0.705093981625396
 20
-114.037957735657
 30
0.0
 11
-0.705093981625396
 21
-99.4470683316841
 31
0.0
  0
LINE
  5
   378
  8
0
  6
CONTINUOUS
 62
     1
 10
0.554956091035336
 20
-114.037957735657
 30
0.0
 11
0.554956091035336
 21
-89.0129602926967
 31
0.0
  0
LINE
  5
   379
  8
0
  6
CONTINUOUS
 62
     1
 10
1.8149580985192
 20
-114.037957735657
 30
0.0
 11
1.8149580985192
 21
-89.0129602926967
 31
0.0
  0
LINE
  5
   37A
  8
0
  6
CONTINUOUS
 62
     1
 10
3.07496010600306
 20
-114.037957735657
 30
0.0
 11
3.07496010600306
 21
-89.0129602926967
 31
0.0
  0
LINE
  5
   37B
  8
0
  6
CONTINUOUS
 62
     1
 10
4.33496211348692
 20
-114.037957735657
 30
0.0
 11
4.33496211348692
 21
-89.0129602926967
 31
0.0
  0
LINE
  5
   37C
  8
0
  6
CONTINUOUS
 62
     1
 10
5.59495343981953
 20
-114.037957735657
 30
0.0
 11
5.59495343981953
 21
-89.0129602926967
 31
0.0
  0
LINE
  5
   37D
  8
0
  6
CONTINUOUS
 62
     1
 10
6.85495544730339
 20
-114.037957735657
 30
0.0
 11
6.85495544730339
 21
-89.0129602926967
 31
0.0
  0
LINE
  5
   37E
  8
0
  6
CONTINUOUS
 62
     1
 10
8.11495745478726
 20
-114.037957735657
 30
0.0
 11
8.11495745478726
 21
-89.0129602926967
 31
0.0
  0
LINE
  5
   37F
  8
0
  6
CONTINUOUS
 62
     1
 10
9.37495946227111
 20
-114.037957735657
 30
0.0
 11
9.37495946227111
 21
-89.0129602926967
 31
0.0
  0
LINE
  5
   380
  8
0
  6
CONTINUOUS
 62
     2
 10
10.6348834973578
 20
-114.037957735657
 30
0.0
 11
10.6348834973578
 21
-89.0129602926967
 31
0.0
  0
LINE
  5
   381
  8
0
  6
CONTINUOUS
 62
     2
 10
11.8948833686118
 20
-114.037957735657
 30
0.0
 11
11.8948833686118
 21
-89.0129602926967
 31
0.0
  0
LINE
  5
   382
  8
0
  6
CONTINUOUS
 62
     2
 10
13.1548746949447
 20
-114.037957735657
 30
0.0
 11
13.1548746949447
 21
-89.0129602926967
 31
0.0
  0
LINE
  5
   383
  8
0
  6
CONTINUOUS
 62
     2
 10
14.4148660212777
 20
-114.037957735657
 30
0.0
 11
14.4148660212777
 21
-89.0129602926967
 31
0.0
  0
LINE
  5
   384
  8
0
  6
CONTINUOUS
 62
     2
 10
15.6748787099132
 20
-114.037957735657
 30
0.0
 11
15.6748787099132
 21
-89.0129602926967
 31
0.0
  0
LINE
  5
   385
  8
0
  6
CONTINUOUS
 62
     2
 10
16.9348700362461
 20
-114.037957735657
 30
0.0
 11
16.9348700362461
 21
-89.0129602926967
 31
0.0
  0
LINE
  5
   386
  8
0
  6
CONTINUOUS
 62
     2
 10
18.1948827248816
 20
-114.037957735657
 30
0.0
 11
18.1948827248816
 21
-89.0129602926967
 31
0.0
  0
LINE
  5
   387
  8
0
  6
CONTINUOUS
 62
     2
 10
19.4548740512146
 20
-114.037957735657
 30
0.0
 11
19.4548740512146
 21
-89.0129602926967
 31
0.0
  0
LINE
  5
   388
  8
0
  6
CONTINUOUS
 62
     2
 10
20.7148653775475
 20
-114.037957735657
 30
0.0
 11
20.7148653775475
 21
-89.0129602926967
 31
0.0
  0
LINE
  5
   389
  8
0
  6
CONTINUOUS
 62
     2
 10
21.974878066183
 20
-114.037957735657
 30
0.0
 11
21.974878066183
 21
-89.0129602926967
 31
0.0
  0
LINE
  5
   38A
  8
0
  6
CONTINUOUS
 62
     1
 10
-1.96509598910961
 20
-114.037957735657
 30
0.0
 11
-1.96509598910961
 21
-99.8520236344766
 31
0.0
  0
LINE
  5
   38B
  8
0
  6
CONTINUOUS
 62
     1
 10
-1.96509598910961
 20
-96.7242321018319
 30
0.0
 11
-1.96509598910961
 21
-89.0129602926967
 31
0.0
  0
LINE
  5
   38C
  8
0
  6
CONTINUOUS
 62
   253
 10
3.65238679900024
 20
-38.1755693996585
 30
0.0
 11
3.65238679900024
 21
-33.975569828812
 31
0.0
  0
LINE
  5
   38D
  8
0
  6
CONTINUOUS
 62
   253
 10
0.152364667447532
 20
-30.4755701864399
 30
0.0
 11
-29.0045838187835
 21
-30.4755701864399
 31
0.0
  0
LINE
  5
   38E
  8
0
  6
CONTINUOUS
 62
   253
 10
0.152406222664643
 20
-41.6755690420307
 30
0.0
 11
-29.0045838187835
 21
-41.6755690420307
 31
0.0
  0
LINE
  5
   38F
  8
0
  6
CONTINUOUS
 62
   253
 10
-31.4524873925107
 20
-37.5630694622434
 30
0.0
 11
-31.4524873925107
 21
-34.5880697662271
 31
0.0
  0
LINE
  5
   390
  8
0
  6
CONTINUOUS
 62
   253
 10
-34.322485315037
 20
-36.0755689070421
 30
0.0
 11
-31.4524866940351
 21
-34.5880690919063
 31
0.0
  0
LINE
  5
   391
  8
0
  6
CONTINUOUS
 62
   253
 10
-31.4524870911743
 20
-37.5630689586507
 30
0.0
 11
-34.3224857121762
 21
-36.0755691435149
 31
0.0
  0
LINE
  5
   392
  8
0
  6
CONTINUOUS
 62
   253
 10
-17.4349877566952
 20
-32.838069945041
 30
0.0
 11
-33.534986111607
 21
-32.838069945041
 31
0.0
  0
LINE
  5
   393
  8
0
  6
CONTINUOUS
 62
   253
 10
-17.4349877566952
 20
-39.3130692834295
 30
0.0
 11
-33.534986111607
 21
-39.3130692834295
 31
0.0
  0
LINE
  5
   394
  8
0
  6
CONTINUOUS
 62
   253
 10
-17.4349877566952
 20
-33.1880699092783
 30
0.0
 11
-33.534986111607
 21
-33.1880699092783
 31
0.0
  0
LINE
  5
   395
  8
0
  6
CONTINUOUS
 62
   253
 10
-17.4349877566952
 20
-38.9630693191923
 30
0.0
 11
-33.534986111607
 21
-38.9630693191923
 31
0.0
  0
LINE
  5
   396
  8
0
  6
CONTINUOUS
 62
   212
 10
-37.8224023254752
 20
-36.0605194728186
 30
0.0
 11
-37.8200097476049
 21
-36.0455685312411
 31
0.0
  0
LINE
  5
   397
  8
0
  6
CONTINUOUS
 62
   212
 10
-37.8216456864438
 20
-36.0653655194207
 30
0.0
 11
-37.8224040481806
 21
-36.0605242875038
 31
0.0
  0
ARC
  5
   398
  8
0
  6
CONTINUOUS
 62
   253
 10
-33.534977157633
 20
-36.0755775942339
 30
0.0
 40
2.88751040360131
 50
90.0002154635732
 51
269.99979239382
  0
ARC
  5
   399
  8
0
  6
CONTINUOUS
 62
   253
 10
-17.4349178832576
 20
-36.0755106214018
 30
0.0
 40
2.88740980014256
 50
269.998670528618
 51
450.001337085033
  0
ARC
  5
   39A
  8
0
  6
CONTINUOUS
 62
   253
 10
-17.4349948242596
 20
-36.0755816149461
 30
0.0
 40
3.23750961592477
 50
270.000071014136
 51
449.999851941332
  0
ARC
  5
   39B
  8
0
  6
CONTINUOUS
 62
   253
 10
0.152364667447532
 20
-33.9755961739466
 30
0.0
 40
3.50003008642377
 50
360.000408171145
 51
449.999687224272
  0
ARC
  5
   39C
  8
0
  6
CONTINUOUS
 62
   253
 10
0.152406222664643
 20
-38.1755967442077
 30
0.0
 40
3.49996683151764
 50
269.999625886224
 51
360.000495208613
  0
ARC
  5
   39D
  8
0
  6
CONTINUOUS
 62
   253
 10
-33.5347754029417
 20
-36.0755842695868
 30
0.0
 40
3.23766956556554
 50
90.0037124837677
 51
269.996243749254
  0
ARC
  5
   39E
  8
0
  6
CONTINUOUS
 62
   253
 10
-29.0045870787818
 20
-23.4755553592236
 30
0.0
 40
7.00001289713202
 50
234.341115437973
 51
269.999999948034
  0
ARC
  5
   39F
  8
0
  6
CONTINUOUS
 62
   253
 10
-29.0046224228551
 20
-48.675342153486
 30
0.0
 40
6.99977226950215
 50
89.9999999480344
 51
125.659728516165
  0
ARC
  5
   3A0
  8
0
  6
CONTINUOUS
 62
   253
 10
-33.9014586727534
 20
-41.8505559393178
 30
0.0
 40
1.40001070593149
 50
227.167359060545
 51
305.659728516165
  0
ARC
  5
   3A1
  8
0
  6
CONTINUOUS
 62
   253
 10
-33.9014451477223
 20
-30.3005842502824
 30
0.0
 40
1.40001488729263
 50
414.341115437973
 51
492.832984108824
  0
ARC
  5
   3A2
  8
0
  6
CONTINUOUS
 62
   253
 10
-28.5476099108234
 20
-36.0755281017125
 30
0.0
 40
9.27487028601404
 50
400.975915448473
 51
679.023494202201
  0
ARC
  5
   3A3
  8
0
  6
CONTINUOUS
 62
   253
 10
-20.488312087457
 20
-43.0755688989795
 30
0.0
 40
1.39999985694885
 50
89.9999999480344
 51
139.023494202201
  0
ARC
  5
   3A4
  8
0
  6
CONTINUOUS
 62
   253
 10
-20.4882399753857
 20
-29.075570329491
 30
0.0
 40
1.39999985694885
 50
220.975915448474
 51
269.999999948034
  0
LINE
  5
   3A5
  8
0
  6
DASHDOT
 62
     7
 10
-28.5476099108234
 20
-46.0503983162009
 30
0.0
 11
-28.5476099108234
 21
-26.100657887224
 31
0.0
  0
LINE
  5
   3A6
  8
0
  6
DASHDOT
 62
     7
 10
4.40617255132851
 20
-36.0755281017125
 30
0.0
 11
-38.5224801253118
 21
-36.0755281017125
 31
0.0
  0
INSERT
  5
   3A7
  8
255
  6
CONTINUOUS
 62
     7
  2
MOSTRA
 10
-14.0226016998299
 20
-71.3379807710634
 30
0.0
 41
0.349999964237213
 42
0.349999964237213
 50
359.999999792138
 43
0.349999964237213
  0
LINE
  5
   3A8
  8
0
  6
CONTINUOUS
 62
     1
 10
-40.6226043224337
 20
-74.3129662811756
 30
0.0
 11
-75.2725923526688
 21
-74.3129662811756
 31
0.0
  0
LINE
  5
   3A9
  8
0
  6
CONTINUOUS
 62
     1
 10
-40.6226043224337
 20
-74.6629662454129
 30
0.0
 11
-49.6765168952352
 21
-74.6629662454129
 31
0.0
  0
LINE
  5
   3AA
  8
0
  6
CONTINUOUS
 62
     1
 10
-40.6226043224337
 20
-74.8379638910296
 30
0.0
 11
-75.2725922788363
 21
-74.8379638910296
 31
0.0
  0
TEXT
  5
   3AB
  8
0
  6
CONTINUOUS
 62
     7
 10
-76.8862156615188
 20
-55.9841254190519
 30
0.0
 40
3.00000001532688
  1
=     =
 50
89.9999999480344
 41
0.916666616797451
 72
     2
 11
-76.886215644582
 21
-37.2841263379853
 31
0.0
  0
INSERT
  5
   3AC
  8
0
  6
CONTINUOUS
 62
     7
  2
*UDIM143
 10
0.0
 20
0.0
 30
0.0
  0
INSERT
  5
   3AD
  8
0
  6
CONTINUOUS
 62
     7
  2
*UDIM144
 10
0.0
 20
0.0
 30
0.0
  0
INSERT
  5
   3AE
  8
0
  6
CONTINUOUS
 62
     7
  2
*UDIM145
 10
0.0
 20
0.0
 30
0.0
  0
INSERT
  5
   3AF
  8
0
  6
CONTINUOUS
 62
     7
  2
*UDIM146
 10
0.0
 20
0.0
 30
0.0
  0
INSERT
  5
   3B0
  8
0
  6
CONTINUOUS
 62
     7
  2
*UDIM147
 10
0.0
 20
0.0
 30
0.0
  0
INSERT
  5
   3B1
  8
0
  6
CONTINUOUS
 62
     7
  2
*UDIM148
 10
0.0
 20
0.0
 30
0.0
  0
TEXT
  5
   3B2
  8
0
  6
CONTINUOUS
 62
     7
 10
-27.9899580908712
 20
30.7207864618603
 30
0.0
 40
3.00000001532688
  1
=         =
 50
359.999999948034
 41
0.916666616797451
 72
     2
 11
1.71004044796335
 21
30.7207864350725
 31
0.0
  0
TEXT
  5
   3B3
  8
0
  6
CONTINUOUS
 62
     7
 10
-14.8568409106457
 20
51.1015660160881
 30
0.0
 40
3.00000001532688
  1
Y
 50
359.999999948034
 41
0.916666616797451
 72
     2
 11
-12.6568410162311
 21
51.1015660141039
 31
0.0
  0
TEXT
  5
   3B4
  8
0
  6
CONTINUOUS
 62
     7
 10
43.5193390185236
 20
-47.4930863851552
 30
0.0
 40
3.00000001532688
  1
X
 50
359.999999948034
 41
0.916666616797451
 72
     2
 11
45.7193389129382
 21
-47.4930863871395
 31
0.0
  0
TEXT
  5
   3B5
  8
0
  6
CONTINUOUS
 62
     7
 10
-90.6270873989865
 20
-47.36581245712
 30
0.0
 40
3.00000001532688
  1
X
 50
359.999999948034
 41
0.916666616797451
 72
     2
 11
-88.4270875045719
 21
-47.3658124591042
 31
0.0
  0
TEXT
  5
   3B6
  8
0
  6
CONTINUOUS
 62
     7
 10
-14.749826400042
 20
-139.175951593099
 30
0.0
 40
3.00000001532688
  1
Y
 50
359.999999948034
 41
0.916666616797451
 72
     2
 11
-12.5498265056274
 21
-139.175951595083
 31
0.0
  0
LINE
  5
   3B7
  8
0
  6
CONTINUOUS
 62
     7
 10
215.21076965332
 20
29.3161194009383
 30
0.0
 11
215.21076965332
 21
5.39959791473552
 31
0.0
  0
LINE
  5
   3B8
  8
0
  6
CONTINUOUS
 62
     7
 10
213.21076965332
 20
29.3161194009383
 30
0.0
 11
213.21076965332
 21
5.39959791473552
 31
0.0
  0
LINE
  5
   3B9
  8
0
  6
DASHDOT
 62
     7
 10
210.008166550923
 20
17.3578586578369
 30
0.0
 11
218.434385743361
 21
17.3578586578369
 31
0.0
  0
POINT
  5
   3BA
  8
0
  6
CONTINUOUS
 62
     7
 10
213.21076965332
 20
19.3578586578369
 30
0.0
  0
POINT
  5
   3BB
  8
0
  6
CONTINUOUS
 62
     7
 10
213.21076965332
 20
15.3578586578369
 30
0.0
  0
LINE
  5
   3BC
  8
0
  6
CONTINUOUS
 62
     7
 10
215.21076965332
 20
21.0360579201915
 30
0.0
 11
213.21076965332
 21
19.3578586578369
 31
0.0
  0
LINE
  5
   3BD
  8
0
  6
CONTINUOUS
 62
     7
 10
213.21076965332
 20
15.3578586578369
 30
0.0
 11
215.21076965332
 21
13.6796593954824
 31
0.0
  0
LINE
  5
   3BE
  8
0
  6
CONTINUOUS
 62
     7
 10
213.21076965332
 20
7.85785865783691
 30
0.0
 11
215.21076965332
 21
7.85785865783691
 31
0.0
  0
CIRCLE
  5
   3BF
  8
0
  6
CONTINUOUS
 62
     7
 10
214.21076965332
 20
17.3578586578369
 30
0.0
 40
12.0
  0
LINE
  5
   3C0
  8
0
  6
CONTINUOUS
 62
     7
 10
207.210777282715
 20
12.8578586578369
 30
0.0
 11
209.710777282715
 21
12.8578586578369
 31
0.0
  0
LINE
  5
   3C1
  8
0
  6
CONTINUOUS
 62
     7
 10
210.710777282715
 20
21.8578586578369
 30
0.0
 11
210.710777282715
 21
13.8578586578369
 31
0.0
  0
LINE
  5
   3C2
  8
0
  6
CONTINUOUS
 62
     7
 10
210.710777282715
 20
21.8578586578369
 30
0.0
 11
213.21076965332
 21
21.8578586578369
 31
0.0
  0
LINE
  5
   3C3
  8
0
  6
CONTINUOUS
 62
     7
 10
207.210777282715
 20
10.3578586578369
 30
0.0
 11
209.710777282715
 21
10.3578586578369
 31
0.0
  0
LINE
  5
   3C4
  8
0
  6
CONTINUOUS
 62
     7
 10
206.210777282715
 20
9.35785865783691
 30
0.0
 11
206.210777282715
 21
8.4135799239057
 31
0.0
  0
ARC
  5
   3C5
  8
0
  6
CONTINUOUS
 62
     7
 10
209.710781429995
 20
13.8578579864982
 30
0.0
 40
0.999996977799109
 50
629.999840735313
 51
720.000252836193
  0
ARC
  5
   3C6
  8
0
  6
CONTINUOUS
 62
     7
 10
207.210791936222
 20
9.35784597153244
 30
0.0
 40
3.50001845311552
 50
450.000186734275
 51
513.408761128067
  0
ARC
  5
   3C7
  8
0
  6
CONTINUOUS
 62
     7
 10
207.210733034565
 20
9.3578995526193
 30
0.0
 40
0.999949821243504
 50
449.997764042825
 51
540.001169660043
  0
ARC
  5
   3C8
  8
0
  6
CONTINUOUS
 62
     7
 10
209.710796635097
 20
13.8578266109026
 30
0.0
 40
3.49997105594423
 50
629.999653243441
 51
720.000420168909
  0
INSERT
  5
   3C9
  8
0
  6
CONTINUOUS
 62
     7
  2
*HATCH22
 10
214.21076965332
 20
17.3578586578369
 30
0.0
 50
269.999999844103
  0
INSERT
  5
   3CA
  8
0
  6
CONTINUOUS
 62
     7
  2
*HATCH23
 10
214.21076965332
 20
17.3578586578369
 30
0.0
 50
269.999999844103
  0
LINE
  5
   3CB
  8
0
  6
CONTINUOUS
 62
     7
 10
205.635153894599
 20
8.96388377350597
 30
0.0
 11
199.264408730594
 21
2.72807792519045
 31
0.0
  0
LINE
  5
   3CC
  8
0
  6
CONTINUOUS
 62
     7
 10
199.264408730594
 20
-16.0488458272784
 30
0.0
 11
207.549640418725
 21
-22.7985918240152
 31
0.0
  0
LINE
  5
   3CD
  8
0
  6
CONTINUOUS
 62
     7
 10
202.065126960985
 20
-20.3373496708437
 30
0.0
 11
207.549640418725
 21
-22.7985918240152
 31
0.0
  0
LINE
  5
   3CE
  8
0
  6
CONTINUOUS
 62
     7
 10
204.302608019318
 20
-18.3016439668236
 30
0.0
 11
207.549640418725
 21
-22.7985918240152
 31
0.0
  0
LINE
  5
   3CF
  8
0
  6
CONTINUOUS
 62
     7
 10
199.264408730594
 20
2.72807792519045
 30
0.0
 11
199.264408730594
 21
-16.0488458272784
 31
0.0
  0
INSERT
  5
   3D0
  8
0
  6
CONTINUOUS
 62
     7
  2
*UDIM149
 10
0.0
 20
0.0
 30
0.0
  0
INSERT
  5
   3D1
  8
0
  6
CONTINUOUS
 62
     7
  2
*UDIM150
 10
0.0
 20
0.0
 30
0.0
  0
LINE
  5
   3D2
  8
0
  6
DASHDOT
 62
     7
 10
5.26044976762223
 20
-145.142979741097
 30
0.0
 11
-27.3465565138171
 21
-145.142979741097
 31
0.0
  0
LINE
  5
   3D3
  8
0
  6
DASHDOT
 62
     7
 10
4.91084879958654
 20
-206.74297606945
 30
0.0
 11
-29.0202898083805
 21
-206.74297606945
 31
0.0
  0
LINE
  5
   3D4
  8
0
  6
DASHDOT
 62
     7
 10
-35.0226084589958
 20
-136.483449933126
 30
0.0
 11
-35.0226084589958
 21
-217.583435933334
 31
0.0
  0
LINE
  5
   3D5
  8
0
  6
DASHDOT
 62
     7
 10
-7.02261012792587
 20
-135.824100453449
 30
0.0
 11
-7.02261012792587
 21
-217.583435933334
 31
0.0
  0
LINE
  5
   3D6
  8
0
  6
CONTINUOUS
 62
     1
 10
10.9773887991905
 20
-141.142979979515
 30
0.0
 11
10.9773887991905
 21
-210.742975831032
 31
0.0
  0
LINE
  5
   3D7
  8
0
  6
CONTINUOUS
 62
     1
 10
10.9773887991905
 20
-141.142979979515
 30
0.0
 11
-53.0226073861122
 21
-141.142979979515
 31
0.0
  0
LINE
  5
   3D8
  8
0
  6
CONTINUOUS
 62
     1
 10
-53.0226073861122
 20
-141.142979979515
 30
0.0
 11
-53.0226073861122
 21
-210.742975831032
 31
0.0
  0
LINE
  5
   3D9
  8
0
  6
CONTINUOUS
 62
     1
 10
10.9773887991905
 20
-210.742975831032
 30
0.0
 11
-53.0226073861122
 21
-210.742975831032
 31
0.0
  0
LINE
  5
   3DA
  8
0
  6
DASHDOT
 62
     7
 10
14.5657321561841
 20
-175.942977905273
 30
0.0
 11
-41.8145598523416
 21
-175.942977905273
 31
0.0
  0
LINE
  5
   3DB
  8
0
  6
DASHDOT
 62
     7
 10
-14.0226097106934
 20
-138.677276334178
 30
0.0
 11
-14.0226097106934
 21
-213.911715418288
 31
0.0
  0
CIRCLE
  5
   3DC
  8
0
  6
CONTINUOUS
 62
     7
 10
-35.0226084589958
 20
-145.142979741097
 30
0.0
 40
0.549999967217445
  0
CIRCLE
  5
   3DD
  8
0
  6
CONTINUOUS
 62
     7
 10
-7.02261012792587
 20
-145.142979741097
 30
0.0
 40
0.549999967217445
  0
CIRCLE
  5
   3DE
  8
0
  6
CONTINUOUS
 62
     7
 10
-35.0226084589958
 20
-206.74297606945
 30
0.0
 40
0.549999967217445
  0
CIRCLE
  5
   3DF
  8
0
  6
CONTINUOUS
 62
     7
 10
-7.02261012792587
 20
-206.74297606945
 30
0.0
 40
0.549999967217445
  0
LINE
  5
   3E0
  8
0
  6
DASHDOT
 62
     7
 10
-44.0579919005487
 20
-175.942977905273
 30
0.0
 11
-48.9297872158935
 21
-175.942977905273
 31
0.0
  0
LINE
  5
   3E1
  8
0
  6
DASHDOT
 62
     7
 10
-28.0226088762283
 20
-138.677276334178
 30
0.0
 11
-28.0226088762283
 21
-213.911715418288
 31
0.0
  0
LINE
  5
   3E2
  8
0
  6
DASHDOT
 62
     7
 10
-2.26105451583862E-2
 20
-138.677276334178
 30
0.0
 11
-2.26105451583862E-2
 21
-213.911715418288
 31
0.0
  0
LINE
  5
   3E3
  8
0
  6
DASHDOT
 62
     7
 10
-42.0226080417633
 20
-138.677276334178
 30
0.0
 11
-42.0226080417633
 21
-213.911715418288
 31
0.0
  0
LINE
  5
   3E4
  8
0
  6
DASHDOT
 62
     7
 10
15.5385571331701
 20
-151.442979365587
 30
0.0
 11
-55.9429303062368
 21
-151.442979365587
 31
0.0
  0
LINE
  5
   3E5
  8
0
  6
DASHDOT
 62
     7
 10
15.5385571331701
 20
-200.44297644496
 30
0.0
 11
-55.9429303062368
 21
-200.44297644496
 31
0.0
  0
ARC
  5
   3E6
  8
0
  6
CONTINUOUS
 62
     7
 10
-42.0226080417633
 20
-151.442979365587
 30
0.0
 40
7.99999952316284
 50
179.999999896069
 51
321.317812442579
  0
ARC
  5
   3E7
  8
0
  6
CONTINUOUS
 62
     7
 10
-28.0226088762283
 20
-151.442979365587
 30
0.0
 40
7.99999952316284
 50
218.682187349558
 51
321.317812442579
  0
ARC
  5
   3E8
  8
0
  6
CONTINUOUS
 62
     7
 10
-14.0226097106934
 20
-151.442979365587
 30
0.0
 40
7.99999952316284
 50
218.682187349558
 51
321.317812442579
  0
ARC
  5
   3E9
  8
0
  6
CONTINUOUS
 62
     7
 10
-2.26105451583862E-2
 20
-151.442979365587
 30
0.0
 40
7.99999952316284
 50
218.682187349558
 51
501.317812442579
  0
LINE
  5
   3EA
  8
0
  6
CONTINUOUS
 62
     7
 10
-6.26760817132589
 20
-146.44297966361
 30
0.0
 11
-7.77761208452585
 21
-146.44297966361
 31
0.0
  0
LINE
  5
   3EB
  8
0
  6
CONTINUOUS
 62
     7
 10
-6.2676081713259
 20
-156.442979067564
 30
0.0
 11
-7.77761208452585
 21
-156.442979067564
 31
0.0
  0
LINE
  5
   3EC
  8
0
  6
CONTINUOUS
 62
     7
 10
-20.2676073368609
 20
-146.44297966361
 30
0.0
 11
-21.7776112500608
 21
-146.44297966361
 31
0.0
  0
LINE
  5
   3ED
  8
0
  6
CONTINUOUS
 62
     7
 10
-20.2676073368609
 20
-156.442979067564
 30
0.0
 11
-21.7776112500608
 21
-156.442979067564
 31
0.0
  0
LINE
  5
   3EE
  8
0
  6
CONTINUOUS
 62
     7
 10
-34.2676065023958
 20
-146.44297966361
 30
0.0
 11
-35.7776104155958
 21
-146.44297966361
 31
0.0
  0
LINE
  5
   3EF
  8
0
  6
CONTINUOUS
 62
     7
 10
-34.2676065023958
 20
-156.442979067564
 30
0.0
 11
-35.7776104155958
 21
-156.442979067564
 31
0.0
  0
ARC
  5
   3F0
  8
0
  6
CONTINUOUS
 62
     7
 10
-42.0226080417633
 20
-151.442979365587
 30
0.0
 40
7.99999952316284
 50
398.682187349558
 51
539.999999896069
  0
ARC
  5
   3F1
  8
0
  6
CONTINUOUS
 62
     7
 10
-28.0226088762283
 20
-151.442979365587
 30
0.0
 40
7.99999952316284
 50
398.682187349558
 51
501.317812442579
  0
ARC
  5
   3F2
  8
0
  6
CONTINUOUS
 62
     7
 10
-14.0226097106934
 20
-151.442979365587
 30
0.0
 40
7.99999952316284
 50
398.682187349558
 51
501.317812442579
  0
ARC
  5
   3F3
  8
0
  6
CONTINUOUS
 62
     7
 10
-42.0226080417633
 20
-200.44297644496
 30
0.0
 40
7.99999952316284
 50
179.999999896069
 51
321.317812442579
  0
ARC
  5
   3F4
  8
0
  6
CONTINUOUS
 62
     7
 10
-42.0226080417633
 20
-200.44297644496
 30
0.0
 40
7.99999952316284
 50
398.682187349558
 51
539.999999896069
  0
LINE
  5
   3F5
  8
0
  6
CONTINUOUS
 62
     7
 10
-34.2676065023958
 20
-195.442976742983
 30
0.0
 11
-35.7776104155958
 21
-195.442976742983
 31
0.0
  0
LINE
  5
   3F6
  8
0
  6
CONTINUOUS
 62
     7
 10
-34.2676065023958
 20
-205.442976146936
 30
0.0
 11
-35.7776104155958
 21
-205.442976146936
 31
0.0
  0
ARC
  5
   3F7
  8
0
  6
CONTINUOUS
 62
     7
 10
-28.0226088762283
 20
-200.44297644496
 30
0.0
 40
7.99999952316284
 50
398.682187349558
 51
501.317812442579
  0
ARC
  5
   3F8
  8
0
  6
CONTINUOUS
 62
     7
 10
-28.0226088762283
 20
-200.44297644496
 30
0.0
 40
7.99999952316284
 50
218.682187349558
 51
321.317812442579
  0
ARC
  5
   3F9
  8
0
  6
CONTINUOUS
 62
     7
 10
-14.0226097106934
 20
-200.44297644496
 30
0.0
 40
7.99999952316284
 50
218.682187349558
 51
321.317812442579
  0
ARC
  5
   3FA
  8
0
  6
CONTINUOUS
 62
     7
 10
-14.0226097106934
 20
-200.44297644496
 30
0.0
 40
7.99999952316284
 50
398.682187349558
 51
501.317812442579
  0
ARC
  5
   3FB
  8
0
  6
CONTINUOUS
 62
     7
 10
-2.26105451583862E-2
 20
-200.44297644496
 30
0.0
 40
7.99999952316284
 50
218.682187349558
 51
501.317812442579
  0
LINE
  5
   3FC
  8
0
  6
CONTINUOUS
 62
     7
 10
-20.2676073368609
 20
-195.442976742983
 30
0.0
 11
-21.7776112500608
 21
-195.442976742983
 31
0.0
  0
LINE
  5
   3FD
  8
0
  6
CONTINUOUS
 62
     7
 10
-20.2676073368609
 20
-205.442976146936
 30
0.0
 11
-21.7776112500608
 21
-205.442976146936
 31
0.0
  0
LINE
  5
   3FE
  8
0
  6
CONTINUOUS
 62
     7
 10
-6.26760817132589
 20
-195.442976742983
 30
0.0
 11
-7.77761208452585
 21
-195.442976742983
 31
0.0
  0
LINE
  5
   3FF
  8
0
  6
CONTINUOUS
 62
     7
 10
-6.2676081713259
 20
-205.442976146936
 30
0.0
 11
-7.77761208452585
 21
-205.442976146936
 31
0.0
  0
INSERT
  5
   400
  8
0
  6
CONTINUOUS
 62
     1
  2
*UDIM151
 10
0.0
 20
0.0
 30
0.0
  0
INSERT
  5
   401
  8
0
  6
CONTINUOUS
 62
     7
  2
*UDIM152
 10
0.0
 20
0.0
 30
0.0
  0
INSERT
  5
   402
  8
0
  6
CONTINUOUS
 62
     7
  2
*UDIM153
 10
0.0
 20
0.0
 30
0.0
  0
INSERT
  5
   403
  8
0
  6
CONTINUOUS
 62
     7
  2
*UDIM154
 10
0.0
 20
0.0
 30
0.0
  0
INSERT
  5
   404
  8
0
  6
CONTINUOUS
 62
     7
  2
*UDIM155
 10
0.0
 20
0.0
 30
0.0
  0
INSERT
  5
   405
  8
0
  6
CONTINUOUS
 62
     7
  2
*UDIM156
 10
0.0
 20
0.0
 30
0.0
  0
INSERT
  5
   406
  8
0
  6
CONTINUOUS
 62
     7
  2
*UDIM157
 10
0.0
 20
0.0
 30
0.0
  0
INSERT
  5
   407
  8
0
  6
CONTINUOUS
 62
     7
  2
*UDIM158
 10
0.0
 20
0.0
 30
0.0
  0
INSERT
  5
   408
  8
0
  6
CONTINUOUS
 62
     7
  2
*UDIM159
 10
0.0
 20
0.0
 30
0.0
  0
INSERT
  5
   409
  8
0
  6
CONTINUOUS
 62
     7
  2
*UDIM160
 10
0.0
 20
0.0
 30
0.0
  0
TEXT
  5
   40A
  8
0
  6
CONTINUOUS
 62
     7
 10
16.2153035233356
 20
-177.334882508201
 30
0.0
 40
3.00000005960463
  1
X
 50
359.999999896069
 41
0.916666581564485
 72
     2
 11
18.4153033445217
 21
-177.334882512181
 31
0.0
  0
TEXT
  5
   40B
  8
0
  6
CONTINUOUS
 62
     7
 10
-93.6716222999397
 20
-176.911915004115
 30
0.0
 40
3.00000005960463
  1
X
 50
359.999999896069
 41
0.916666581564485
 72
     2
 11
-91.4716224787537
 21
-176.911915008095
 31
0.0
  0
INSERT
  5
   40C
  8
0
  6
CONTINUOUS
 62
     7
  2
*UDIM161
 10
0.0
 20
0.0
 30
0.0
  0
INSERT
  5
   40D
  8
0
  6
CONTINUOUS
 62
     7
  2
*UDIM162
 10
0.0
 20
0.0
 30
0.0
  0
INSERT
  5
   40E
  8
0
  6
CONTINUOUS
 62
     7
  2
*UDIM163
 10
0.0
 20
0.0
 30
0.0
  0
LINE
  5
   40F
  8
0
  6
CONTINUOUS
 62
   130
 10
56.4576510865319
 20
28.0620176034822
 30
0.0
 11
56.4576520878898
 21
1.28702033933537
 31
0.0
  0
LINE
  5
   410
  8
0
  6
CONTINUOUS
 62
   130
 10
89.5326274573858
 20
1.28700021398274
 30
0.0
 11
89.532643479124
 21
28.0619365762218
 31
0.0
  0
LINE
  5
   411
  8
0
  6
CONTINUOUS
 62
   130
 10
57.5076446006069
 20
-38.7879739732293
 30
0.0
 11
57.7701449048192
 21
-38.7176386032537
 31
0.0
  0
LINE
  5
   412
  8
0
  6
CONTINUOUS
 62
   130
 10
55.9326515197754
 20
-71.3379808905848
 30
0.0
 11
90.9326265811998
 21
-71.3379669189422
 31
0.0
  0
LINE
  5
   413
  8
0
  6
CONTINUOUS
 62
   130
 10
90.9326159001637
 20
-34.587954652073
 30
0.0
 11
90.932621240739
 21
-36.337954473259
 31
0.0
  0
LINE
  5
   414
  8
0
  6
CONTINUOUS
 62
   130
 10
90.9326159000456
 20
-40.8879425294253
 30
0.0
 11
90.9326212406199
 21
-71.3379714615166
 31
0.0
  0
LINE
  5
   415
  8
0
  6
CONTINUOUS
 62
   130
 10
56.4576518478527
 20
1.28701499325616
 30
0.0
 11
56.4576528492106
 21
-35.9159368328099
 31
0.0
  0
LINE
  5
   416
  8
0
  6
CONTINUOUS
 62
   130
 10
56.4576521681148
 20
-55.587968540544
 30
0.0
 11
56.4576525019007
 21
-41.3099609662591
 31
0.0
  0
LINE
  5
   417
  8
0
  6
CONTINUOUS
 62
   130
 10
56.4576520426713
 20
-60.8379699399251
 30
0.0
 11
56.4576530440288
 21
-70.4629689564485
 31
0.0
  0
LINE
  5
   418
  8
0
  6
CONTINUOUS
 62
   130
 10
56.4576531350611
 20
-70.4629686772822
 30
0.0
 11
56.8076507627965
 21
-70.4629686772822
 31
0.0
  0
LINE
  5
   419
  8
0
  6
CONTINUOUS
 62
   130
 10
56.8076510965825
 20
-41.2161857865658
 30
0.0
 11
56.8076510965825
 21
-38.7879755854601
 31
0.0
  0
LINE
  5
   41A
  8
0
  6
CONTINUOUS
 62
   130
 10
56.8076510965825
 20
-36.5129704773426
 30
0.0
 11
56.8076510965825
 21
-36.0097387172391
 31
0.0
  0
LINE
  5
   41B
  8
0
  6
CONTINUOUS
 62
   130
 10
55.9326515197754
 20
-55.5879685282707
 30
0.0
 11
56.4576524674891
 21
-55.5879685282707
 31
0.0
  0
LINE
  5
   41C
  8
0
  6
CONTINUOUS
 62
   130
 10
55.9326515197754
 20
-60.8379679918289
 30
0.0
 11
56.4576521337032
 21
-60.8379679918289
 31
0.0
  0
LINE
  5
   41D
  8
0
  6
CONTINUOUS
 62
   130
 10
55.9326515197754
 20
-60.8379679918289
 30
0.0
 11
55.9326515197754
 21
-55.5879685282707
 31
0.0
  0
LINE
  5
   41E
  8
0
  6
CONTINUOUS
 62
   130
 10
57.5076446006069
 20
-38.7879739732293
 30
0.0
 11
57.7701449048192
 21
-38.7176386032537
 31
0.0
  0
LINE
  5
   41F
  8
0
  6
CONTINUOUS
 62
   130
 10
57.77014790839
 20
-38.7176472925722
 30
0.0
 11
57.9623111620451
 21
-38.5254827106642
 31
0.0
  0
LINE
  5
   420
  8
0
  6
CONTINUOUS
 62
   130
 10
57.9623148530608
 20
-38.5254798247166
 30
0.0
 11
58.0326345440852
 21
-38.2629958818465
 31
0.0
  0
LINE
  5
   421
  8
0
  6
CONTINUOUS
 62
   130
 10
58.0326336145405
 20
-38.2629714429182
 30
0.0
 11
58.0326342821124
 21
-37.037971568088
 31
0.0
  0
LINE
  5
   422
  8
0
  6
CONTINUOUS
 62
   130
 10
57.9623072287245
 20
-36.7754785438627
 30
0.0
 11
58.0326322535975
 21
-37.0379785095919
 31
0.0
  0
LINE
  5
   423
  8
0
  6
CONTINUOUS
 62
   130
 10
57.7701434142618
 20
-36.5833166121668
 30
0.0
 11
57.9623066705906
 21
-36.775475851396
 31
0.0
  0
LINE
  5
   424
  8
0
  6
CONTINUOUS
 62
   130
 10
57.5076457569479
 20
-36.512978016034
 30
0.0
 11
57.770145728201
 21
-36.5833187314157
 31
0.0
  0
LINE
  5
   425
  8
0
  6
CONTINUOUS
 62
   130
 10
56.8076510965825
 20
-36.5129704773426
 30
0.0
 11
57.5076460182672
 21
-36.5129704773426
 31
0.0
  0
LINE
  5
   426
  8
0
  6
CONTINUOUS
 62
   130
 10
56.8076510965825
 20
-38.7879702448845
 30
0.0
 11
57.5076460182672
 21
-38.7879702448845
 31
0.0
  0
LINE
  5
   427
  8
0
  6
CONTINUOUS
 62
   130
 10
89.5326268545003
 20
-34.5879863570892
 30
0.0
 11
89.5326321950749
 21
1.28700997722511
 31
0.0
  0
LINE
  5
   428
  8
0
  6
CONTINUOUS
 62
   130
 10
89.5326267242453
 20
-34.5879813551892
 30
0.0
 11
90.9326159000429
 21
-34.5879813551892
 31
0.0
  0
LINE
  5
   429
  8
0
  6
CONTINUOUS
 62
   130
 10
89.5326189123698
 20
-17.4630819169901
 30
0.0
 11
89.7076242297726
 21
-17.416191666798
 31
0.0
  0
LINE
  5
   42A
  8
0
  6
CONTINUOUS
 62
   130
 10
89.5326147923606
 20
-20.2128190701586
 30
0.0
 11
89.7076254543792
 21
-20.2597146550971
 31
0.0
  0
LINE
  5
   42B
  8
0
  6
CONTINUOUS
 62
   130
 10
56.8076504903681
 20
-70.4629687386398
 30
0.0
 11
80.6076480584986
 21
-70.4629704075685
 31
0.0
  0
LINE
  5
   42C
  8
0
  6
CONTINUOUS
 62
   130
 10
80.6076489984989
 20
-71.3379650351308
 30
0.0
 11
80.6076489984989
 21
-70.4629704651134
 31
0.0
  0
LINE
  5
   42D
  8
0
  6
CONTINUOUS
 62
   130
 10
59.3388406058597
 20
-36.6879514260636
 30
0.0
 11
90.5826179309673
 21
-36.6879727883655
 31
0.0
  0
LINE
  5
   42E
  8
0
  6
CONTINUOUS
 62
   130
 10
59.3388376397142
 20
-40.5379510326718
 30
0.0
 11
90.5826149648218
 21
-40.5379723949737
 31
0.0
  0
LINE
  5
   42F
  8
0
  6
CONTINUOUS
 62
   130
 10
56.4576546111601
 20
-35.9159408684897
 30
0.0
 11
56.8076510965825
 21
-36.009722188093
 31
0.0
  0
LINE
  5
   430
  8
0
  6
CONTINUOUS
 62
   130
 10
56.4576474313102
 20
-41.30996540113
 30
0.0
 11
56.8076510965824
 21
-41.2161820928975
 31
0.0
  0
LINE
  5
   431
  8
0
  6
CONTINUOUS
 62
   130
 10
90.5826421337604
 20
-36.6879536763831
 30
0.0
 11
90.932631406067
 21
-36.3379590641953
 31
0.0
  0
LINE
  5
   432
  8
0
  6
CONTINUOUS
 62
   130
 10
90.5826178357588
 20
-40.5379675067023
 30
0.0
 11
90.932617788016
 21
-40.8879674589595
 31
0.0
  0
LINE
  5
   433
  8
0
  6
CONTINUOUS
 62
   130
 10
89.707712155574
 20
-0.812963443995613
 30
0.0
 11
89.707712155574
 21
28.0619361263132
 31
0.0
  0
LINE
  5
   434
  8
0
  6
CONTINUOUS
 62
     1
 10
89.707712155574
 20
28.0619374752132
 30
0.0
 11
90.9326906681017
 21
28.0619374752132
 31
0.0
  0
LINE
  5
   435
  8
0
  6
CONTINUOUS
 62
   130
 10
104.057732051602
 20
-0.462979501485279
 30
0.0
 11
104.232577157028
 21
-0.462979501485279
 31
0.0
  0
LINE
  5
   436
  8
0
  6
CONTINUOUS
 62
     1
 10
99.8577217996044
 20
28.0619374752132
 30
0.0
 11
100.907732373467
 21
28.0619374752132
 31
0.0
  0
LINE
  5
   437
  8
0
  6
CONTINUOUS
 62
   130
 10
104.407731516508
 20
27.6244316638513
 30
0.0
 11
104.407752878809
 21
-0.462953314096936
 31
0.0
  0
LINE
  5
   438
  8
0
  6
CONTINUOUS
 62
   130
 10
103.357646673918
 20
-0.81296894359447
 30
0.0
 11
104.057727040331
 21
-0.81294758166932
 31
0.0
  0
LINE
  5
   439
  8
0
  6
CONTINUOUS
 62
   130
 10
102.202635042669
 20
-0.812963443995613
 30
0.0
 11
103.357646673918
 21
-0.812963443995613
 31
0.0
  0
LINE
  5
   43A
  8
0
  6
CONTINUOUS
 62
   130
 10
100.907732373467
 20
28.0619374752132
 30
0.0
 11
103.532668018339
 21
28.0619374752132
 31
0.0
  0
LINE
  5
   43B
  8
0
  6
CONTINUOUS
 62
   130
 10
90.9326906681017
 20
28.0619374752132
 30
0.0
 11
99.8577217996044
 21
28.0619374752132
 31
0.0
  0
LINE
  5
   43C
  8
0
  6
CONTINUOUS
 62
   130
 10
104.057732051602
 20
-0.462952798607148
 30
0.0
 11
104.407753378142
 21
-0.462952798607148
 31
0.0
  0
LINE
  5
   43D
  8
0
  6
CONTINUOUS
 62
   130
 10
104.057732051602
 20
-0.812947422268735
 30
0.0
 11
104.057732051602
 21
-0.462952798607148
 31
0.0
  0
LINE
  5
   43E
  8
0
  6
CONTINUOUS
 62
     1
 10
103.970181344668
 20
28.0618156308088
 30
0.0
 11
104.279539526435
 21
27.9336418285406
 31
0.0
  0
LINE
  5
   43F
  8
0
  6
CONTINUOUS
 62
     1
 10
104.279605874749
 20
27.9337134967669
 30
0.0
 11
104.407747645497
 21
27.6243873700673
 31
0.0
  0
LINE
  5
   440
  8
0
  6
CONTINUOUS
 62
   130
 10
90.0577334821137
 20
-0.462947458031522
 30
0.0
 11
90.0577334821137
 21
28.0619374752132
 31
0.0
  0
LINE
  5
   441
  8
0
  6
CONTINUOUS
 62
   130
 10
90.0577284753367
 20
-0.462949794558114
 30
0.0
 11
104.057727044825
 21
-0.462955135133427
 31
0.0
  0
LINE
  5
   442
  8
0
  6
CONTINUOUS
 62
   130
 10
104.057641261817
 20
-74.662963908911
 30
0.0
 11
104.057641261817
 21
-74.3129662811756
 31
0.0
  0
LINE
  5
   443
  8
0
  6
CONTINUOUS
 62
   130
 10
102.657636280978
 20
-0.987979048734445
 30
0.0
 11
102.65764162155
 21
-74.312966215855
 31
0.0
  0
LINE
  5
   444
  8
0
  6
CONTINUOUS
 62
   130
 10
102.307636341082
 20
-0.987976753770624
 30
0.0
 11
102.307641681654
 21
-74.6629638851284
 31
0.0
  0
LINE
  5
   445
  8
0
  6
CONTINUOUS
 62
   130
 10
102.307636100055
 20
-0.987974107265472
 30
0.0
 11
102.657636280978
 21
-0.987974107265472
 31
0.0
  0
LINE
  5
   446
  8
0
  6
CONTINUOUS
 62
   130
 10
102.307641440631
 20
-74.662963908911
 30
0.0
 11
103.007646709681
 21
-74.662963908911
 31
0.0
  0
LINE
  5
   447
  8
0
  6
CONTINUOUS
 62
   130
 10
102.657636280978
 20
-0.987974107265472
 30
0.0
 11
104.407641226054
 21
-0.987974107265472
 31
0.0
  0
LINE
  5
   448
  8
0
  6
CONTINUOUS
 62
   130
 10
104.407641226054
 20
-74.3129662811756
 30
0.0
 11
104.407641226054
 21
-66.262977784871
 31
0.0
  0
LINE
  5
   449
  8
0
  6
CONTINUOUS
 62
   130
 10
104.407641226054
 20
-29.5129925549008
 30
0.0
 11
104.407641226054
 21
-0.987979447841099
 31
0.0
  0
LINE
  5
   44A
  8
0
  6
CONTINUOUS
 62
   130
 10
105.020137523508
 20
-29.513000744914
 30
0.0
 11
105.107632171648
 21
-29.6005007328973
 31
0.0
  0
LINE
  5
   44B
  8
0
  6
CONTINUOUS
 62
   130
 10
105.02012969138
 20
-66.2629762061731
 30
0.0
 11
105.107629679444
 21
-66.175475886202
 31
0.0
  0
LINE
  5
   44C
  8
0
  6
CONTINUOUS
 62
   130
 10
105.107641154528
 20
-66.175472787022
 30
0.0
 11
105.107641154528
 21
-29.6004978865358
 31
0.0
  0
LINE
  5
   44D
  8
0
  6
CONTINUOUS
 62
   130
 10
102.657641404868
 20
-74.3129662811756
 30
0.0
 11
104.057641261817
 21
-74.3129662811756
 31
0.0
  0
LINE
  5
   44E
  8
0
  6
CONTINUOUS
 62
   130
 10
90.9326265811942
 20
-40.8879967331859
 30
0.0
 11
90.9326265811942
 21
-36.3380078792534
 31
0.0
  0
LINE
  5
   44F
  8
0
  6
CONTINUOUS
 62
   130
 10
90.9326265811942
 20
-34.5880133986429
 30
0.0
 11
90.9326265811942
 21
-34.2380080938301
 31
0.0
  0
LINE
  5
   450
  8
0
  6
CONTINUOUS
 62
   130
 10
90.9326265811942
 20
-71.3379669189451
 30
0.0
 11
102.307641440631
 21
-71.3379669189451
 31
0.0
  0
LINE
  5
   451
  8
0
  6
CONTINUOUS
 62
   130
 10
103.357646673918
 20
-0.987974107265472
 30
0.0
 11
103.357646673918
 21
-0.812979465722492
 31
0.0
  0
LINE
  5
   452
  8
0
  6
CONTINUOUS
 62
   130
 10
89.7076267063639
 20
-34.2379707098007
 30
0.0
 11
89.7076267063639
 21
-0.812974125146866
 31
0.0
  0
LINE
  5
   453
  8
0
  6
CONTINUOUS
 62
   130
 10
89.7076267063639
 20
-34.2379707098007
 30
0.0
 11
90.9326265811942
 21
-34.2379707098007
 31
0.0
  0
LINE
  5
   454
  8
0
  6
CONTINUOUS
 62
   130
 10
89.7076267063639
 20
-0.812974125146866
 30
0.0
 11
90.9326265811942
 21
-0.812974125146866
 31
0.0
  0
LINE
  5
   455
  8
0
  6
CONTINUOUS
 62
   130
 10
90.9326226171867
 20
-0.812974689015093
 30
0.0
 11
102.202636419237
 21
-0.812980029590221
 31
0.0
  0
LINE
  5
   456
  8
0
  6
CONTINUOUS
 62
   130
 10
102.202640383244
 20
-16.8254671484237
 30
0.0
 11
102.202640383244
 21
-0.812979465722492
 31
0.0
  0
LINE
  5
   457
  8
0
  6
CONTINUOUS
 62
   130
 10
102.202624361518
 20
-71.3379709211274
 30
0.0
 11
102.202640383244
 21
-20.8504707393338
 31
0.0
  0
LINE
  5
   458
  8
0
  6
CONTINUOUS
 62
   130
 10
102.202635042669
 20
-9.91297319531441
 30
0.0
 11
102.307636100055
 21
-9.91297319531441
 31
0.0
  0
LINE
  5
   459
  8
0
  6
CONTINUOUS
 62
   130
 10
102.202635042669
 20
-11.3129730522633
 30
0.0
 11
102.307636100055
 21
-11.3129730522633
 31
0.0
  0
LINE
  5
   45A
  8
0
  6
CONTINUOUS
 62
   130
 10
90.9326265811942
 20
-70.4629670083523
 30
0.0
 11
102.202640383244
 21
-70.4629670083523
 31
0.0
  0
LINE
  5
   45B
  8
0
  6
CONTINUOUS
 62
   130
 10
100.557625597718
 20
-16.8254671484237
 30
0.0
 11
102.307641440631
 21
-16.8254671484237
 31
0.0
  0
LINE
  5
   45C
  8
0
  6
CONTINUOUS
 62
   130
 10
100.557625597718
 20
-20.8504667371517
 30
0.0
 11
100.557625597718
 21
-16.8254671484237
 31
0.0
  0
LINE
  5
   45D
  8
0
  6
CONTINUOUS
 62
   130
 10
100.557625597718
 20
-20.8504667371517
 30
0.0
 11
102.307636100055
 21
-20.8504667371517
 31
0.0
  0
LINE
  5
   45E
  8
0
  6
CONTINUOUS
 62
   130
 10
105.107641154528
 20
-66.2629731118673
 30
0.0
 11
105.107641154528
 21
-66.175473120808
 31
0.0
  0
LINE
  5
   45F
  8
0
  6
CONTINUOUS
 62
   130
 10
105.107640621584
 20
-29.6005130197203
 30
0.0
 11
105.10764596216
 21
-29.5129916663585
 31
0.0
  0
LINE
  5
   460
  8
0
  6
CONTINUOUS
 62
   130
 10
109.482646048068
 20
-62.2379581386339
 30
0.0
 11
109.482646048068
 21
-59.1754744732851
 31
0.0
  0
LINE
  5
   461
  8
0
  6
CONTINUOUS
 62
   130
 10
109.482646048068
 20
-28.2004936600186
 30
0.0
 11
109.482646048068
 21
-27.6754937136628
 31
0.0
  0
LINE
  5
   462
  8
0
  6
CONTINUOUS
 62
   130
 10
105.020135822893
 20
-66.2629731118673
 30
0.0
 11
105.107641154528
 21
-66.2629731118673
 31
0.0
  0
LINE
  5
   463
  8
0
  6
CONTINUOUS
 62
   130
 10
55.9326515197754
 20
21.0619381904689
 30
0.0
 11
56.4576514661312
 21
21.0619381904689
 31
0.0
  0
LINE
  5
   464
  8
0
  6
CONTINUOUS
 62
   130
 10
55.9326515197754
 20
25.2619377613155
 30
0.0
 11
56.4576514661312
 21
25.2619377613155
 31
0.0
  0
LINE
  5
   465
  8
0
  6
CONTINUOUS
 62
   130
 10
58.0326263351755
 20
-40.3629556502053
 30
0.0
 11
59.0122878115727
 21
-40.6254609228744
 31
0.0
  0
LINE
  5
   466
  8
0
  6
CONTINUOUS
 62
   130
 10
58.0326194308897
 20
-40.3629520580573
 30
0.0
 11
58.0326334498995
 21
-38.2629736349366
 31
0.0
  0
LINE
  5
   467
  8
0
  6
CONTINUOUS
 62
   130
 10
58.0326228757162
 20
-36.8629516230838
 30
0.0
 11
58.0326342244392
 21
-37.0379729675049
 31
0.0
  0
LINE
  5
   468
  8
0
  6
CONTINUOUS
 62
   130
 10
58.0326136444041
 20
-36.8629639257846
 30
0.0
 11
59.0122771358777
 21
-36.6004693445969
 31
0.0
  0
LINE
  5
   469
  8
0
  6
CONTINUOUS
 62
     1
 10
103.532668018339
 20
28.0619374752132
 30
0.0
 11
103.970232060543
 21
28.0619374752132
 31
0.0
  0
LINE
  5
   46A
  8
0
  6
CONTINUOUS
 62
   130
 10
104.057641261817
 20
-74.3129662811756
 30
0.0
 11
104.407641226054
 21
-74.3129662811756
 31
0.0
  0
LINE
  5
   46B
  8
0
  6
CONTINUOUS
 62
   130
 10
104.407641226054
 20
-29.5129925549008
 30
0.0
 11
105.020146504045
 21
-29.5129925549008
 31
0.0
  0
LINE
  5
   46C
  8
0
  6
CONTINUOUS
 62
   130
 10
104.407641226054
 20
-66.2629731118673
 30
0.0
 11
105.020141163469
 21
-66.2629731118673
 31
0.0
  0
LINE
  5
   46D
  8
0
  6
CONTINUOUS
 62
   130
 10
103.007646709681
 20
-88.6629603284595
 30
0.0
 11
103.007646709681
 21
-88.4879624962809
 31
0.0
  0
LINE
  5
   46E
  8
0
  6
CONTINUOUS
 62
   130
 10
104.407646566629
 20
-114.037957735657
 30
0.0
 11
104.407646566629
 21
-89.0129602926967
 31
0.0
  0
LINE
  5
   46F
  8
0
  6
CONTINUOUS
 62
   130
 10
103.007646709681
 20
-114.037957735657
 30
0.0
 11
104.407646566629
 21
-114.037957735657
 31
0.0
  0
LINE
  5
   470
  8
0
  6
CONTINUOUS
 62
   130
 10
91.1076479256153
 20
-88.6629603284595
 30
0.0
 11
103.007646709681
 21
-88.6629603284595
 31
0.0
  0
LINE
  5
   471
  8
0
  6
CONTINUOUS
 62
   130
 10
104.407646566629
 20
-88.4879624962809
 30
0.0
 11
104.407646566629
 21
-74.8379638910296
 31
0.0
  0
LINE
  5
   472
  8
0
  6
CONTINUOUS
 62
   130
 10
91.1076479256153
 20
-114.037962486019
 30
0.0
 11
91.1076479256153
 21
-88.6629603284595
 31
0.0
  0
LINE
  5
   473
  8
0
  6
CONTINUOUS
 62
   130
 10
91.1076479256153
 20
-89.0129602926967
 30
0.0
 11
104.407646566629
 21
-89.0129602926967
 31
0.0
  0
LINE
  5
   474
  8
0
  6
CONTINUOUS
 62
   130
 10
104.057646602392
 20
-89.0129602926967
 30
0.0
 11
104.057646602392
 21
-88.6629603284595
 31
0.0
  0
LINE
  5
   475
  8
0
  6
CONTINUOUS
 62
   130
 10
102.307641440631
 20
-74.8379638910296
 30
0.0
 11
102.657641404868
 21
-74.8379638910296
 31
0.0
  0
LINE
  5
   476
  8
0
  6
CONTINUOUS
 62
   130
 10
102.30764144063
 20
-88.4879624962809
 30
0.0
 11
102.657641404868
 21
-88.4879624962809
 31
0.0
  0
LINE
  5
   477
  8
0
  6
CONTINUOUS
 62
   130
 10
102.30764144063
 20
-88.4879624962809
 30
0.0
 11
102.30764144063
 21
-74.8379638910296
 31
0.0
  0
LINE
  5
   478
  8
0
  6
CONTINUOUS
 62
   130
 10
102.657641404868
 20
-88.4879624962809
 30
0.0
 11
102.657641404868
 21
-74.8379638910296
 31
0.0
  0
LINE
  5
   479
  8
0
  6
CONTINUOUS
 62
   130
 10
103.007646709681
 20
-74.8379638910296
 30
0.0
 11
103.007646709681
 21
-74.662963908911
 31
0.0
  0
LINE
  5
   47A
  8
0
  6
CONTINUOUS
 62
   130
 10
91.2826479077339
 20
-114.037962486019
 30
0.0
 11
91.2826479077339
 21
-89.0129602926967
 31
0.0
  0
LINE
  5
   47B
  8
0
  6
CONTINUOUS
 62
   130
 10
55.9326515197754
 20
-121.087844737152
 30
0.0
 11
55.9326515197754
 21
34.2704366152974
 31
0.0
  0
LINE
  5
   47C
  8
0
  6
CONTINUOUS
 62
   130
 10
54.8826516270638
 20
-121.087844737152
 30
0.0
 11
54.8826516270638
 21
34.4765566363898
 31
0.0
  0
LINE
  5
   47D
  8
0
  6
CONTINUOUS
 62
   130
 10
103.007646709681
 20
-88.6629603284595
 30
0.0
 11
104.057646602392
 21
-88.6629603284595
 31
0.0
  0
LINE
  5
   47E
  8
0
  6
CONTINUOUS
 62
   130
 10
103.007646709681
 20
-74.662963908911
 30
0.0
 11
104.057641261817
 21
-74.662963908911
 31
0.0
  0
LINE
  5
   47F
  8
0
  6
CONTINUOUS
 62
   130
 10
102.657641404868
 20
-74.8379638910296
 30
0.0
 11
104.407646566629
 21
-74.8379638910296
 31
0.0
  0
LINE
  5
   480
  8
0
  6
CONTINUOUS
 62
   130
 10
102.657641404868
 20
-88.4879624962809
 30
0.0
 11
104.407646566629
 21
-88.4879624962809
 31
0.0
  0
LINE
  5
   481
  8
0
  6
CONTINUOUS
 62
   130
 10
56.8076510965825
 20
-36.009722188093
 30
0.0
 11
59.338841926401
 21
-36.6879530449023
 31
0.0
  0
LINE
  5
   482
  8
0
  6
CONTINUOUS
 62
   130
 10
56.8076510965824
 20
-41.2161820928975
 30
0.0
 11
59.3388324896636
 21
-40.5379532960787
 31
0.0
  0
LINE
  5
   483
  8
0
  6
CONTINUOUS
 62
   130
 10
55.9326515197754
 20
-114.037976527528
 30
0.0
 11
103.007646709681
 21
-114.037957735657
 31
0.0
  0
LINE
  5
   484
  8
0
  6
CONTINUOUS
 62
   130
 10
56.4576509000559
 20
28.0620215755569
 30
0.0
 11
89.7076902271962
 21
28.0619361263695
 31
0.0
  0
LINE
  5
   485
  8
0
  6
CONTINUOUS
 62
     1
 10
53.3108319872634
 20
34.7851123796408
 30
0.0
 11
57.3752549428025
 21
33.9872466359019
 31
0.0
  0
LINE
  5
   486
  8
0
  6
CONTINUOUS
 62
     1
 10
53.9305545216359
 20
-121.087844737152
 30
0.0
 11
56.9905565822816
 21
-121.087844737152
 31
0.0
  0
LINE
  5
   487
  8
0
  6
DASHDOT
 62
     2
 10
47.7279409750746
 20
-45.875323924792
 30
0.0
 11
149.572163782223
 21
-45.8756064741733
 31
0.0
  0
LINE
  5
   488
  8
0
  6
CONTINUOUS
 62
   212
 10
104.407641226054
 20
-21.3754836762214
 30
0.0
 11
119.632442343162
 21
-21.3755259148287
 31
0.0
  0
LINE
  5
   489
  8
0
  6
CONTINUOUS
 62
   212
 10
104.407641226054
 20
-70.3754786696198
 30
0.0
 11
119.632440401132
 21
-70.3755209082218
 31
0.0
  0
LINE
  5
   48A
  8
0
  6
CONTINUOUS
 62
     7
 10
109.482646048068
 20
-70.3754927493529
 30
0.0
 11
109.482646048068
 21
-21.3754977559545
 31
0.0
  0
LINE
  5
   48B
  8
0
  6
CONTINUOUS
 62
   253
 10
122.607438389993
 20
-41.6755017979792
 30
0.0
 11
122.607438389993
 21
-30.4755029423884
 31
0.0
  0
LINE
  5
   48C
  8
0
  6
CONTINUOUS
 62
   253
 10
134.33243719194
 20
-41.8477593945138
 30
0.0
 11
134.33243719194
 21
-30.3032480161417
 31
0.0
  0
LINE
  5
   48D
  8
0
  6
CONTINUOUS
 62
   253
 10
128.03243783567
 20
-30.4755029423884
 30
0.0
 11
128.03243783567
 21
-28.2005031748465
 31
0.0
  0
LINE
  5
   48E
  8
0
  6
CONTINUOUS
 62
   253
 10
122.607438389993
 20
-45.35050142247
 30
0.0
 11
122.607438389993
 21
-41.6755017979792
 31
0.0
  0
LINE
  5
   48F
  8
0
  6
CONTINUOUS
 62
   253
 10
122.607438389993
 20
-30.4755029423884
 30
0.0
 11
122.607438389993
 21
-26.8005033178977
 31
0.0
  0
LINE
  5
   490
  8
0
  6
CONTINUOUS
 62
   253
 10
128.03243783567
 20
-43.9505071501009
 30
0.0
 11
128.03243783567
 21
-30.4755029423884
 31
0.0
  0
LINE
  5
   491
  8
0
  6
CONTINUOUS
 62
   212
 10
119.982441336384
 20
-26.8027191712642
 30
0.0
 11
119.982441336384
 21
-21.7255258790646
 31
0.0
  0
LINE
  5
   492
  8
0
  6
CONTINUOUS
 62
   212
 10
119.982333516972
 20
-21.9005435901521
 30
0.0
 11
119.98244299877
 21
-22.4253352540519
 31
0.0
  0
LINE
  5
   493
  8
0
  6
CONTINUOUS
 62
   212
 10
122.43193122493
 20
-28.3753643020006
 30
0.0
 11
122.433249056478
 21
-26.8027303442253
 31
0.0
  0
LINE
  5
   494
  8
0
  6
CONTINUOUS
 62
   212
 10
122.43357061013
 20
-40.274214845687
 30
0.0
 11
122.433596585953
 21
-45.1022580708853
 31
0.0
  0
LINE
  5
   495
  8
0
  6
CONTINUOUS
 62
   212
 10
122.432397368445
 20
-26.8027521788762
 30
0.0
 11
122.432525197473
 21
-31.700476082575
 31
0.0
  0
LINE
  5
   496
  8
0
  6
CONTINUOUS
 62
   253
 10
128.03243783567
 20
-28.9032481591928
 30
0.0
 11
132.932437334991
 21
-28.9032481591928
 31
0.0
  0
LINE
  5
   497
  8
0
  6
CONTINUOUS
 62
   253
 10
128.03243783567
 20
-43.2477592514627
 30
0.0
 11
132.932437334991
 21
-43.2477592514627
 31
0.0
  0
LINE
  5
   498
  8
0
  6
CONTINUOUS
 62
   253
 10
122.607438389993
 20
-45.35050142247
 30
0.0
 11
126.632437978721
 21
-45.35050142247
 31
0.0
  0
LINE
  5
   499
  8
0
  6
CONTINUOUS
 62
   253
 10
122.607438389993
 20
-26.8005033178977
 30
0.0
 11
126.632437978721
 21
-26.8005033178977
 31
0.0
  0
LINE
  5
   49A
  8
0
  6
CONTINUOUS
 62
   212
 10
119.982441336384
 20
-26.8027147957187
 30
0.0
 11
122.432397368445
 21
-26.8027521789383
 31
0.0
  0
LINE
  5
   49B
  8
0
  6
CONTINUOUS
 62
   212
 10
119.982441336384
 20
-45.1022692685027
 30
0.0
 11
122.433596585712
 21
-45.102213203223
 31
0.0
  0
ARC
  5
   49C
  8
0
  6
CONTINUOUS
 62
   253
 10
126.632441787067
 20
-28.2004976939697
 30
0.0
 40
1.3999942695372
 50
359.999720152757
 51
450.000090729959
  0
ARC
  5
   49D
  8
0
  6
CONTINUOUS
 62
   253
 10
126.632443284475
 20
-43.9505071501009
 30
0.0
 40
1.39999270377277
 50
269.999805810039
 51
360.000186401615
  0
ARC
  5
   49E
  8
0
  6
CONTINUOUS
 62
   253
 10
132.932437334991
 20
-30.3032480161417
 30
0.0
 40
1.39999985694885
 50
7.01670929853487E-15
 51
90.0
  0
ARC
  5
   49F
  8
0
  6
CONTINUOUS
 62
   253
 10
132.932437334991
 20
-41.8477593945138
 30
0.0
 40
1.39999985694885
 50
270.0
 51
360.0
  0
LINE
  5
   4A0
  8
0
  6
CONTINUOUS
 62
     7
 10
102.202456596836
 20
-9.74011313218386
 30
0.0
 11
102.307456485971
 21
-9.74011313218386
 31
0.0
  0
LINE
  5
   4A1
  8
0
  6
CONTINUOUS
 62
     7
 10
104.669956122204
 20
-23.740111161128
 30
0.0
 11
104.731827952554
 21
-23.76574058369
 31
0.0
  0
LINE
  5
   4A2
  8
0
  6
CONTINUOUS
 62
     7
 10
104.731828443307
 20
-23.7657428483386
 30
0.0
 11
104.757456604476
 21
-23.8276134155388
 31
0.0
  0
LINE
  5
   4A3
  8
0
  6
CONTINUOUS
 62
     7
 10
104.731827730006
 20
-60.4644808157995
 30
0.0
 11
104.75745584927
 21
-60.4026089135271
 31
0.0
  0
LINE
  5
   4A4
  8
0
  6
DASHED
 62
     7
 10
134.33243719194
 20
-66.8754992230586
 30
0.0
 11
134.33243719194
 21
-28.2005031748465
 31
0.0
  0
LINE
  5
   4A5
  8
0
  6
DASHED
 62
     7
 10
129.432437692619
 20
-68.2754990800074
 30
0.0
 11
132.932437334991
 21
-68.2754990800074
 31
0.0
  0
LINE
  5
   4A6
  8
0
  6
DASHED
 62
     7
 10
122.607438389993
 20
-47.4416251712025
 30
0.0
 11
125.58243808601
 21
-47.4416251712025
 31
0.0
  0
LINE
  5
   4A7
  8
0
  6
DASHED
 62
     7
 10
126.632437978721
 20
-26.8005033178977
 30
0.0
 11
132.932437334991
 21
-26.8005033178977
 31
0.0
  0
ARC
  5
   4A8
  8
0
  6
DASHED
 62
     7
 10
129.432437692619
 20
-66.8754992230586
 30
0.0
 40
1.39999985694885
 50
180.0
 51
270.0
  0
ARC
  5
   4A9
  8
0
  6
DASHED
 62
     7
 10
132.932437334991
 20
-66.8754992230586
 30
0.0
 40
1.39999985694885
 50
270.0
 51
360.0
  0
ARC
  5
   4AA
  8
0
  6
DASHED
 62
     7
 10
125.58243808601
 20
-49.891624920863
 30
0.0
 40
2.44999974966049
 50
7.01670929853487E-15
 51
90.0
  0
ARC
  5
   4AB
  8
0
  6
DASHED
 62
     7
 10
125.58243808601
 20
-48.6611322640013
 30
0.0
 40
2.44999974966049
 50
7.01670929853487E-15
 51
90.0
  0
ARC
  5
   4AC
  8
0
  6
DASHED
 62
     7
 10
132.932437334991
 20
-28.2005031748465
 30
0.0
 40
1.39999985694885
 50
7.01670929853487E-15
 51
90.0
  0
LINE
  5
   4AD
  8
0
  6
DASHED
 62
     7
 10
128.03243783567
 20
-66.8754992230586
 30
0.0
 11
128.03243783567
 21
-48.6611322640013
 31
0.0
  0
LINE
  5
   4AE
  8
0
  6
DASHED
 62
     7
 10
137.132436905838
 20
-45.5255014045886
 30
0.0
 11
137.132436905838
 21
-39.9255019767932
 31
0.0
  0
ARC
  5
   4AF
  8
0
  6
DASHED
 62
     7
 10
135.732437048889
 20
-45.5255014045886
 30
0.0
 40
1.39999985694885
 50
180.0
 51
360.0
  0
ARC
  5
   4B0
  8
0
  6
DASHED
 62
     7
 10
135.732437048889
 20
-39.9255019767932
 30
0.0
 40
1.39999985694885
 50
7.01670929853487E-15
 51
180.0
  0
LINE
  5
   4B1
  8
0
  6
DASHDOT
 62
     7
 10
133.28243729923
 20
-45.5255004335735
 30
0.0
 11
137.482436870076
 21
-45.5255004335735
 31
0.0
  0
LINE
  5
   4B2
  8
0
  6
DASHDOT
 62
     7
 10
135.732437048889
 20
-47.6255011900119
 30
0.0
 11
135.732437048889
 21
-37.8255021913699
 31
0.0
  0
LINE
  5
   4B3
  8
0
  6
DASHDOT
 62
     7
 10
133.28243729923
 20
-39.9255010057781
 30
0.0
 11
137.482436870076
 21
-39.9255010057781
 31
0.0
  0
ARC
  5
   4B4
  8
0
  6
DASHED
 62
     7
 10
131.182437513805
 20
-33.2755026562861
 30
0.0
 40
14.4547866570591
 50
282.586944950844
 51
307.750050331541
  0
ARC
  5
   4B5
  8
0
  6
DASHED
 62
     7
 10
131.182437513805
 20
-33.2755026562861
 30
0.0
 40
15.5047865497708
 50
281.72198665881
 51
307.180704244992
  0
LINE
  5
   4B6
  8
0
  6
DASHED
 62
     7
 10
134.33243719194
 20
-34.5883601734753
 30
0.0
 11
141.112091593678
 21
-46.6220158077561
 31
0.0
  0
LINE
  5
   4B7
  8
0
  6
DASHED
 62
     7
 10
134.33243719194
 20
-32.4492178654198
 30
0.0
 11
142.026897279738
 21
-46.1066224323161
 31
0.0
  0
LINE
  5
   4B8
  8
0
  6
DASHED
 62
     7
 10
141.112091593678
 20
-46.622015807756
 30
0.0
 11
142.026897279738
 21
-46.1066224323163
 31
0.0
  0
LINE
  5
   4B9
  8
0
  6
DASHED
 62
     7
 10
122.607438389993
 20
-47.4416251712025
 30
0.0
 11
122.607438389993
 21
-45.35050142247
 31
0.0
  0
LINE
  5
   4BA
  8
0
  6
DASHED
 62
     7
 10
122.607438389993
 20
-46.2111325143408
 30
0.0
 11
125.58243808601
 21
-46.2111325143408
 31
0.0
  0
LINE
  5
   4BB
  8
0
  6
CONTINUOUS
 62
   212
 10
119.982441336384
 20
-70.0255209439859
 30
0.0
 11
119.982441336384
 21
-45.1022602919377
 31
0.0
  0
ARC
  5
   4BC
  8
0
  6
CONTINUOUS
 62
   212
 10
119.632441372147
 20
-70.0255209439859
 30
0.0
 40
0.349999964237213
 50
269.999841042657
 51
360.0
  0
ARC
  5
   4BD
  8
0
  6
CONTINUOUS
 62
   212
 10
119.632441372147
 20
-21.7255258790646
 30
0.0
 40
0.349999964237213
 50
0.0
 51
89.999841042657
  0
LINE
  5
   4BE
  8
0
  6
CONTINUOUS
 62
     7
 10
109.482646048068
 20
-70.3754927493529
 30
0.0
 11
109.482646048068
 21
-21.3754977559545
 31
0.0
  0
LINE
  5
   4BF
  8
0
  6
CONTINUOUS
 62
     1
 10
118.057441533079
 20
-62.2380334785536
 30
0.0
 11
118.057441533079
 21
-61.5380335500792
 31
0.0
  0
LINE
  5
   4C0
  8
0
  6
CONTINUOUS
 62
     1
 10
118.057441533079
 20
-73.8755161810289
 30
0.0
 11
118.757441461554
 21
-73.8755161810289
 31
0.0
  0
LINE
  5
   4C1
  8
0
  6
CONTINUOUS
 62
     1
 10
118.057441533079
 20
-24.4380386760785
 30
0.0
 11
118.057441533079
 21
-23.7380387476041
 31
0.0
  0
LINE
  5
   4C2
  8
0
  6
CONTINUOUS
 62
     1
 10
118.057441533079
 20
-17.8755238449163
 30
0.0
 11
118.757441461554
 21
-17.8755238449163
 31
0.0
  0
LINE
  5
   4C3
  8
0
  6
CONTINUOUS
 62
     1
 10
118.057441533079
 20
-61.5380335500792
 30
0.0
 11
118.057441533079
 21
-24.4380373409346
 31
0.0
  0
LINE
  5
   4C4
  8
0
  6
CONTINUOUS
 62
     1
 10
118.757441461554
 20
-71.1630339017465
 30
0.0
 11
118.757441461554
 21
-14.8130396595552
 31
0.0
  0
LINE
  5
   4C5
  8
0
  6
CONTINUOUS
 62
     1
 10
118.757441461554
 20
-82.8005152690778
 30
0.0
 11
119.982441336384
 21
-82.8005152690778
 31
0.0
  0
LINE
  5
   4C6
  8
0
  6
CONTINUOUS
 62
     1
 10
119.982441336384
 20
-82.8005152690778
 30
0.0
 11
119.982441336384
 21
-8.95052475686737
 31
0.0
  0
LINE
  5
   4C7
  8
0
  6
CONTINUOUS
 62
     1
 10
118.757441461554
 20
-8.95052475686737
 30
0.0
 11
119.28244140791
 21
-8.95052475686737
 31
0.0
  0
LINE
  5
   4C8
  8
0
  6
CONTINUOUS
 62
     1
 10
119.632441372147
 20
-8.95052475686737
 30
0.0
 11
119.982441336384
 21
-8.95052475686737
 31
0.0
  0
LINE
  5
   4C9
  8
0
  6
CONTINUOUS
 62
     1
 10
119.28244140791
 20
-8.95052475686737
 30
0.0
 11
119.632441372147
 21
-8.95052475686737
 31
0.0
  0
LINE
  5
   4CA
  8
0
  6
CONTINUOUS
 62
     7
 10
118.757441461554
 20
-14.8130396595552
 30
0.0
 11
118.757441461554
 21
10.6320593047555
 31
0.0
  0
LINE
  5
   4CB
  8
0
  6
CONTINUOUS
 62
     7
 10
118.757441461554
 20
-104.919599031692
 30
0.0
 11
118.757441461554
 21
-71.1630325666026
 31
0.0
  0
LINE
  5
   4CC
  8
0
  6
CONTINUOUS
 62
     7
 10
115.613304747926
 20
-105.833592262398
 30
0.0
 11
121.202088878643
 21
-104.208945712771
 31
0.0
  0
LINE
  5
   4CD
  8
0
  6
CONTINUOUS
 62
     7
 10
116.328149229762
 20
12.1807331025229
 30
0.0
 11
121.527018188569
 21
8.86645414128341
 31
0.0
  0
LINE
  5
   4CE
  8
0
  6
CONTINUOUS
 62
     7
 10
118.057441533079
 20
-74.2255161452661
 30
0.0
 11
118.757441461554
 21
-74.2255161452661
 31
0.0
  0
LINE
  5
   4CF
  8
0
  6
CONTINUOUS
 62
     7
 10
118.057441533079
 20
-17.5255238806791
 30
0.0
 11
118.757441461554
 21
-17.5255238806791
 31
0.0
  0
LINE
  5
   4D0
  8
0
  6
CONTINUOUS
 62
     7
 10
118.057441533079
 20
-23.7380387476041
 30
0.0
 11
118.057441533079
 21
11.0783092591579
 31
0.0
  0
LINE
  5
   4D1
  8
0
  6
CONTINUOUS
 62
     7
 10
118.057441533079
 20
-105.123087382993
 30
0.0
 11
118.057441533079
 21
-62.2380334785536
 31
0.0
  0
INSERT
  5
   4D2
  8
0
  6
CONTINUOUS
 62
     7
  2
*HATCH24
 10
55.9326515197754
 20
-71.3379669189453
 30
0.0
 41
0.349999964237213
 42
0.349999964237213
 43
0.349999964237213
  0
INSERT
  5
   4D3
  8
0
  6
CONTINUOUS
 62
     7
  2
*HATCH25
 10
55.9326515197754
 20
-71.3379669189453
 30
0.0
 41
0.349999964237213
 42
0.349999964237213
 43
0.349999964237213
  0
LINE
  5
   4D4
  8
0
  6
CONTINUOUS
 62
     7
 10
114.732442540398
 20
-20.8505215988833
 30
0.0
 11
115.607444453707
 21
-20.8505215988833
 31
0.0
  0
LINE
  5
   4D5
  8
0
  6
CONTINUOUS
 62
     7
 10
114.732442540398
 20
-20.8505215988833
 30
0.0
 11
114.732442540398
 21
-17.1755219743925
 31
0.0
  0
LINE
  5
   4D6
  8
0
  6
CONTINUOUS
 62
     7
 10
115.957444417944
 20
-15.9505220995623
 30
0.0
 11
116.832444328537
 21
-15.9505220995623
 31
0.0
  0
LINE
  5
   4D7
  8
0
  6
CONTINUOUS
 62
     7
 10
117.182444292774
 20
-15.6005221353251
 30
0.0
 11
117.182444292774
 21
-12.8005224214274
 31
0.0
  0
LINE
  5
   4D8
  8
0
  6
CONTINUOUS
 62
     7
 10
117.182444292774
 20
-12.8005224214274
 30
0.0
 11
118.057441533079
 21
-12.8005224214274
 31
0.0
  0
LINE
  5
   4D9
  8
0
  6
CONTINUOUS
 62
     7
 10
118.057441533079
 20
-15.6005221353251
 30
0.0
 11
118.057441533079
 21
-12.8005224214274
 31
0.0
  0
LINE
  5
   4DA
  8
0
  6
CONTINUOUS
 62
     7
 10
115.957444417944
 20
-16.8255220101553
 30
0.0
 11
116.832444328537
 21
-16.8255220101553
 31
0.0
  0
LINE
  5
   4DB
  8
0
  6
CONTINUOUS
 62
     7
 10
115.607444453707
 20
-20.8505215988833
 30
0.0
 11
115.607444453707
 21
-17.1755219743925
 31
0.0
  0
ARC
  5
   4DC
  8
0
  6
CONTINUOUS
 62
     7
 10
116.832445780085
 20
-15.6005223702936
 30
0.0
 40
0.349998906467009
 50
269.99984089121
 51
360.00025299209
  0
ARC
  5
   4DD
  8
0
  6
CONTINUOUS
 62
     7
 10
115.957449546671
 20
-17.1755264145987
 30
0.0
 40
1.22500633342002
 50
90.000186890172
 51
179.999680705376
  0
ARC
  5
   4DE
  8
0
  6
CONTINUOUS
 62
     7
 10
115.957428931093
 20
-17.1755076612202
 30
0.0
 40
0.349982401674234
 50
89.997764198722
 51
180.00116981594
  0
ARC
  5
   4DF
  8
0
  6
CONTINUOUS
 62
     7
 10
116.83245110187
 20
-15.6005333517509
 30
0.0
 40
1.22498974441176
 50
269.999653399338
 51
360.000420324806
  0
LINE
  5
   4E0
  8
0
  6
CONTINUOUS
 62
     7
 10
114.732442540398
 20
-17.7005219207484
 30
0.0
 11
115.607444453707
 21
-17.7005219207484
 31
0.0
  0
INSERT
  5
   4E1
  8
0
  6
CONTINUOUS
 62
     7
  2
*HATCH26
 10
55.9326515197754
 20
-71.3379669189453
 30
0.0
 41
0.349999964237213
 42
0.349999964237213
 43
0.349999964237213
  0
LINE
  5
   4E2
  8
0
  6
CONTINUOUS
 62
     7
 10
116.132441729775
 20
-18.9255164550056
 30
0.0
 11
116.832441658249
 21
-18.9255183970357
 31
0.0
  0
LINE
  5
   4E3
  8
0
  6
CONTINUOUS
 62
     7
 10
116.832441658249
 20
-21.3755181467056
 30
0.0
 11
116.832441658249
 21
-18.9255183970357
 31
0.0
  0
LINE
  5
   4E4
  8
0
  6
CONTINUOUS
 62
     7
 10
116.132441729775
 20
-21.3755181467056
 30
0.0
 11
116.132441729775
 21
-18.9255183970357
 31
0.0
  0
POINT
  5
   4E5
  8
0
  6
CONTINUOUS
 62
     7
 10
142.026897279738
 20
-46.1066224323163
 30
0.0
  0
LINE
  5
   4E6
  8
0
  6
DASHDOT
 62
     2
 10
49.9167411342109
 20
23.1621629488123
 30
0.0
 11
58.4767789341129
 21
23.1621392004511
 31
0.0
  0
LINE
  5
   4E7
  8
0
  6
CONTINUOUS
 62
     3
 10
53.4826517701149
 20
21.7621531988488
 30
0.0
 11
53.4826517701149
 21
24.5621529127572
 31
0.0
  0
LINE
  5
   4E8
  8
0
  6
CONTINUOUS
 62
     3
 10
52.0826519131661
 20
22.2871570292668
 30
0.0
 11
52.0826519131661
 21
24.0371568504596
 31
0.0
  0
LINE
  5
   4E9
  8
0
  6
CONTINUOUS
 62
     3
 10
53.4826517701149
 20
24.5621529127572
 30
0.0
 11
54.8826516270638
 21
24.562149028697
 31
0.0
  0
LINE
  5
   4EA
  8
0
  6
CONTINUOUS
 62
     3
 10
53.4826517701149
 20
21.7621531988488
 30
0.0
 11
54.8826516270638
 21
21.7621493147885
 31
0.0
  0
LINE
  5
   4EB
  8
0
  6
CONTINUOUS
 62
     3
 10
52.0826519131661
 20
24.0371568504596
 30
0.0
 11
54.8826516270638
 21
24.0371490823392
 31
0.0
  0
LINE
  5
   4EC
  8
0
  6
CONTINUOUS
 62
     3
 10
52.0826519131661
 20
22.2871570292668
 30
0.0
 11
54.8826516270638
 21
22.2871492611464
 31
0.0
  0
LINE
  5
   4ED
  8
0
  6
CONTINUOUS
 62
     3
 10
53.4826517701149
 20
-107.737833569418
 30
0.0
 11
54.8826516270638
 21
-107.737837453479
 31
0.0
  0
LINE
  5
   4EE
  8
0
  6
CONTINUOUS
 62
     3
 10
52.0826519131661
 20
-108.262829631716
 30
0.0
 11
54.8826516270638
 21
-108.262837399837
 31
0.0
  0
LINE
  5
   4EF
  8
0
  6
DASHDOT
 62
     2
 10
49.9167411342109
 20
-109.137823533363
 30
0.0
 11
58.4767789341129
 21
-109.137847281725
 31
0.0
  0
LINE
  5
   4F0
  8
0
  6
CONTINUOUS
 62
     3
 10
52.0826519131661
 20
-110.012829452909
 30
0.0
 11
54.8826516270638
 21
-110.012837221029
 31
0.0
  0
LINE
  5
   4F1
  8
0
  6
CONTINUOUS
 62
     3
 10
53.4826517701149
 20
-110.537833283327
 30
0.0
 11
54.8826516270638
 21
-110.537837167387
 31
0.0
  0
LINE
  5
   4F2
  8
0
  6
CONTINUOUS
 62
     3
 10
53.4826517701149
 20
-110.537833283327
 30
0.0
 11
53.4826517701149
 21
-107.737833569418
 31
0.0
  0
LINE
  5
   4F3
  8
0
  6
CONTINUOUS
 62
     3
 10
52.0826519131661
 20
-110.012829452909
 30
0.0
 11
52.0826519131661
 21
-108.262829631716
 31
0.0
  0
INSERT
  5
   4F4
  8
0
  6
CONTINUOUS
 62
     7
  2
*UDIM164
 10
0.0
 20
0.0
 30
0.0
  0
INSERT
  5
   4F5
  8
0
  6
CONTINUOUS
 62
     7
  2
*UDIM165
 10
0.0
 20
0.0
 30
0.0
  0
INSERT
  5
   4F6
  8
0
  6
CONTINUOUS
 62
     7
  2
*UDIM166
 10
0.0
 20
0.0
 30
0.0
  0
INSERT
  5
   4F7
  8
0
  6
CONTINUOUS
 62
     7
  2
*UDIM167
 10
0.0
 20
0.0
 30
0.0
  0
INSERT
  5
   4F8
  8
0
  6
CONTINUOUS
 62
     7
  2
*UDIM168
 10
0.0
 20
0.0
 30
0.0
  0
INSERT
  5
   4F9
  8
0
  6
CONTINUOUS
 62
     7
  2
*UDIM169
 10
0.0
 20
0.0
 30
0.0
  0
TEXT
  5
   4FA
  8
0
  6
CONTINUOUS
 62
     7
 10
154.315401959478
 20
-46.715557660057
 30
0.0
 40
3.00000001532688
  1
X
 41
0.916666616797451
 72
     2
 11
156.515401853893
 21
-46.715557660057
 31
0.0
  0
LINE
  5
   4FB
  8
0
  6
CONTINUOUS
 62
     7
 10
192.182830810547
 20
-64.2503471374512
 30
0.0
 11
228.932830810547
 21
-64.2503471374512
 31
0.0
  0
LINE
  5
   4FC
  8
0
  6
CONTINUOUS
 62
     7
 10
192.182830810547
 20
-27.5003471374512
 30
0.0
 11
228.932830810547
 21
-27.5003471374512
 31
0.0
  0
LINE
  5
   4FD
  8
0
  6
CONTINUOUS
 62
     7
 10
192.182830810547
 20
-27.5003471374512
 30
0.0
 11
192.182830810547
 21
-64.2503471374512
 31
0.0
  0
LINE
  5
   4FE
  8
0
  6
CONTINUOUS
 62
     7
 10
228.932830810547
 20
-27.5003471374512
 30
0.0
 11
228.932830810547
 21
-64.2503471374512
 31
0.0
  0
LINE
  5
   4FF
  8
0
  6
DASHDOT
 62
     7
 10
210.557830810547
 20
-6.98574349994148
 30
0.0
 11
210.557830810547
 21
-76.6912618672061
 31
0.0
  0
CIRCLE
  5
   500
  8
0
  6
CONTINUOUS
 62
     7
 10
196.182830810547
 20
-23.7503471374512
 30
0.0
 40
0.875
  0
CIRCLE
  5
   501
  8
0
  6
CONTINUOUS
 62
     7
 10
224.932830810547
 20
-23.7503471374512
 30
0.0
 40
0.875
  0
CIRCLE
  5
   502
  8
0
  6
CONTINUOUS
 62
     7
 10
224.932830810547
 20
-68.0003471374512
 30
0.0
 40
0.875
  0
CIRCLE
  5
   503
  8
0
  6
CONTINUOUS
 62
     7
 10
196.182830810547
 20
-68.0003471374512
 30
0.0
 40
0.875
  0
LINE
  5
   504
  8
0
  6
CONTINUOUS
 62
     3
 10
188.218335141132
 20
-21.4005468401599
 30
0.0
 11
262.422274843175
 21
-21.4005468401599
 31
0.0
  0
LINE
  5
   505
  8
0
  6
CONTINUOUS
 62
     3
 10
188.218335141132
 20
-71.3558279649152
 30
0.0
 11
262.422274843175
 21
-71.3558279649152
 31
0.0
  0
LINE
  5
   506
  8
0
  6
CONTINUOUS
 62
     3
 10
188.218335141132
 20
-21.4005468401599
 30
0.0
 11
188.218335141132
 21
-71.3558279649152
 31
0.0
  0
LINE
  5
   507
  8
0
  6
DASHDOT
 62
     7
 10
224.932830810547
 20
-22.1253471374512
 30
0.0
 11
224.932830810547
 21
-25.3753471374512
 31
0.0
  0
LINE
  5
   508
  8
0
  6
DASHDOT
 62
     7
 10
223.307830810547
 20
-23.7503471374512
 30
0.0
 11
226.557830810547
 21
-23.7503471374512
 31
0.0
  0
LINE
  5
   509
  8
0
  6
DASHDOT
 62
     7
 10
196.182830810547
 20
-22.1253471374512
 30
0.0
 11
196.182830810547
 21
-25.3753471374512
 31
0.0
  0
LINE
  5
   50A
  8
0
  6
DASHDOT
 62
     7
 10
194.557830810547
 20
-23.7503471374512
 30
0.0
 11
197.807830810547
 21
-23.7503471374512
 31
0.0
  0
LINE
  5
   50B
  8
0
  6
DASHDOT
 62
     7
 10
196.182830810547
 20
-66.3753471374512
 30
0.0
 11
196.182830810547
 21
-69.6253471374512
 31
0.0
  0
LINE
  5
   50C
  8
0
  6
DASHDOT
 62
     7
 10
194.557830810547
 20
-68.0003471374512
 30
0.0
 11
197.807830810547
 21
-68.0003471374512
 31
0.0
  0
LINE
  5
   50D
  8
0
  6
DASHDOT
 62
     7
 10
224.932830810547
 20
-66.3753471374512
 30
0.0
 11
224.932830810547
 21
-69.6253471374512
 31
0.0
  0
LINE
  5
   50E
  8
0
  6
DASHDOT
 62
     7
 10
223.307830810547
 20
-68.0003471374512
 30
0.0
 11
226.557830810547
 21
-68.0003471374512
 31
0.0
  0
LINE
  5
   50F
  8
0
  6
DASHDOT
 62
     7
 10
185.19197325719
 20
-45.8753471374512
 30
0.0
 11
264.412603951447
 21
-45.8753471374512
 31
0.0
  0
CIRCLE
  5
   510
  8
0
  6
CONTINUOUS
 62
     7
 10
221.120330810547
 20
-23.3753471374512
 30
0.0
 40
0.5
  0
CIRCLE
  5
   511
  8
0
  6
CONTINUOUS
 62
     7
 10
209.870330810547
 20
-23.3753471374512
 30
0.0
 40
0.5
  0
CIRCLE
  5
   512
  8
0
  6
CONTINUOUS
 62
     7
 10
209.870330810547
 20
-23.3753471374512
 30
0.0
 40
0.92
  0
CIRCLE
  5
   513
  8
0
  6
CONTINUOUS
 62
     7
 10
221.120330810547
 20
-23.3753471374512
 30
0.0
 40
0.92
  0
LINE
  5
   514
  8
0
  6
DASHDOT
 62
     7
 10
221.120330810547
 20
-21.7053471374512
 30
0.0
 11
221.120330810547
 21
-25.0453471374512
 31
0.0
  0
LINE
  5
   515
  8
0
  6
DASHDOT
 62
     7
 10
219.450330810547
 20
-23.3753471374512
 30
0.0
 11
222.790330810547
 21
-23.3753471374512
 31
0.0
  0
LINE
  5
   516
  8
0
  6
DASHDOT
 62
     7
 10
209.870330810547
 20
-21.7053471374512
 30
0.0
 11
209.870330810547
 21
-25.0453471374512
 31
0.0
  0
LINE
  5
   517
  8
0
  6
DASHDOT
 62
     7
 10
208.200330810547
 20
-23.3753471374512
 30
0.0
 11
211.540330810547
 21
-23.3753471374512
 31
0.0
  0
LINE
  5
   518
  8
0
  6
DASHDOT
 62
     7
 10
260.557830810547
 20
-15.1842979925067
 30
0.0
 11
260.557830810547
 21
-91.0033974607448
 31
0.0
  0
LINE
  5
   519
  8
0
  6
DOT
 62
     7
 10
258.379418841998
 20
-27.748250488474
 30
0.0
 11
262.422274843175
 21
-27.748250488474
 31
0.0
  0
LINE
  5
   51A
  8
0
  6
DOT
 62
     7
 10
258.379418841998
 20
-27.748250488474
 30
0.0
 11
258.379418841998
 21
-36.5803359064312
 31
0.0
  0
LINE
  5
   51B
  8
0
  6
DOT
 62
     7
 10
262.422274843175
 20
-27.748250488474
 30
0.0
 11
262.422274843175
 21
-36.5803359064312
 31
0.0
  0
LINE
  5
   51C
  8
0
  6
DOT
 62
     7
 10
258.379418841998
 20
-36.5803359064312
 30
0.0
 11
262.422274843175
 21
-36.5803359064312
 31
0.0
  0
LINE
  5
   51D
  8
0
  6
DOT
 62
     7
 10
258.379418841998
 20
-55.1703583684712
 30
0.0
 11
258.379418841998
 21
-64.0024437864284
 31
0.0
  0
LINE
  5
   51E
  8
0
  6
DOT
 62
     7
 10
258.379418841998
 20
-64.0024437864284
 30
0.0
 11
262.422274843175
 21
-64.0024437864284
 31
0.0
  0
LINE
  5
   51F
  8
0
  6
DOT
 62
     7
 10
258.379418841998
 20
-55.1703583684712
 30
0.0
 11
262.422274843175
 21
-55.1703583684712
 31
0.0
  0
LINE
  5
   520
  8
0
  6
DOT
 62
     7
 10
262.422274843175
 20
-55.1703583684712
 30
0.0
 11
262.422274843175
 21
-64.0024437864284
 31
0.0
  0
LINE
  5
   521
  8
0
  6
CONTINUOUS
 62
     3
 10
262.422274843175
 20
-21.4005468401599
 30
0.0
 11
262.422274843175
 21
-27.748250488474
 31
0.0
  0
LINE
  5
   522
  8
0
  6
CONTINUOUS
 62
     3
 10
262.422274843175
 20
-64.0024437864284
 30
0.0
 11
262.422274843175
 21
-71.3558279649152
 31
0.0
  0
LINE
  5
   523
  8
0
  6
CONTINUOUS
 62
     3
 10
262.422274843175
 20
-36.5803359064312
 30
0.0
 11
262.422274843175
 21
-55.1703583684712
 31
0.0
  0
TEXT
  5
   524
  8
0
  6
CONTINUOUS
 62
     1
 10
137.189866692092
 20
-207.072338120594
 30
0.0
 40
2.00000008940697
  1
M 3076 95-01-16
 50
359.999999844103
 41
0.749999861419206
 72
     1
 11
148.289865136147
 21
-206.072338106037
 31
0.0
 73
     2
  0
INSERT
  5
   525
  8
0
  6
CONTINUOUS
 62
     7
  2
*UDIM170
 10
0.0
 20
0.0
 30
0.0
  0
INSERT
  5
   526
  8
0
  6
CONTINUOUS
 62
     7
  2
*UDIM171
 10
0.0
 20
0.0
 30
0.0
  0
INSERT
  5
   527
  8
0
  6
CONTINUOUS
 62
     7
  2
*UDIM172
 10
0.0
 20
0.0
 30
0.0
  0
INSERT
  5
   528
  8
0
  6
CONTINUOUS
 62
     7
  2
*UDIM173
 10
0.0
 20
0.0
 30
0.0
  0
TEXT
  5
   529
  8
0
  6
CONTINUOUS
 62
     7
 10
203.834849623737
 20
-83.9065058793284
 30
0.0
 40
3.00000002980232
  1
=   =
 50
359.999999844103
 41
0.916666604744064
 72
     2
 11
217.034848858811
 21
-83.9065059151781
 31
0.0
  0
TEXT
  5
   52A
  8
0
  6
CONTINUOUS
 62
     7
 10
202.465157456594
 20
-95.5136340790077
 30
0.0
 40
3.00000002980232
  1
=    =
 50
359.999999844103
 41
0.916666604744064
 72
     2
 11
218.415156533219
 21
-95.5136341223261
 31
0.0
  0
TEXT
  5
   52B
  8
0
  6
CONTINUOUS
 62
     7
 10
183.999133172853
 20
-56.1392466377168
 30
0.0
 40
3.00000002980232
  1
=     =
 50
449.999999844103
 41
0.916666604744064
 72
     2
 11
183.999133223617
 21
-37.4392477195411
 31
0.0
  0
TEXT
  5
   52C
  8
0
  6
CONTINUOUS
 62
     7
 10
174.28601341814
 20
-58.2311337948788
 30
0.0
 40
3.00000002980232
  1
=       =
 50
449.999999844103
 41
0.916666604744064
 72
     2
 11
174.286013483834
 21
-34.0311351936012
 31
0.0
  0
INSERT
  5
   52D
  8
0
  6
CONTINUOUS
 62
     7
  2
*UDIM174
 10
0.0
 20
0.0
 30
0.0
  0
INSERT
  5
   52E
  8
0
  6
CONTINUOUS
 62
     7
  2
*UDIM175
 10
0.0
 20
0.0
 30
0.0
  0
INSERT
  5
   52F
  8
0
  6
CONTINUOUS
 62
     7
  2
*UDIM176
 10
0.0
 20
0.0
 30
0.0
  0
INSERT
  5
   530
  8
0
  6
CONTINUOUS
 62
     7
  2
*UDIM177
 10
0.0
 20
0.0
 30
0.0
  0
INSERT
  5
   531
  8
0
  6
CONTINUOUS
 62
     7
  2
*UDIM178
 10
0.0
 20
0.0
 30
0.0
  0
TEXT
  5
   532
  8
0
  6
CONTINUOUS
 62
     7
 10
209.727453937031
 20
-111.031086037154
 30
0.0
 40
3.00000002980232
  1
Y
 50
359.999999844103
 41
0.916666604744064
 72
     2
 11
211.927453805901
 21
-111.031086043129
 31
0.0
  0
TEXT
  5
   533
  8
0
  6
CONTINUOUS
 62
     7
 10
209.815549721218
 20
-5.85639960526913
 30
0.0
 40
3.00000002980232
  1
Y
 50
359.999999844103
 41
0.916666604744064
 72
     2
 11
212.015549590088
 21
-5.85639961124408
 31
0.0
  0
TEXT
  5
   534
  8
0
  6
CONTINUOUS
 62
     7
 10
265.643261064984
 20
-47.8381350731799
 30
0.0
 40
3.00000002980232
  1
X
 50
359.999999844103
 41
0.916666604744064
 72
     2
 11
267.843260933853
 21
-47.8381350791549
 31
0.0
  0
TEXT
  5
   535
  8
0
  6
CONTINUOUS
 62
     7
 10
161.141269793011
 20
-47.2839916443774
 30
0.0
 40
3.00000002980232
  1
X
 50
359.999999844103
 41
0.916666604744064
 72
     2
 11
163.341269661881
 21
-47.2839916503524
 31
0.0
  0
TEXT
  5
   536
  8
0
  6
CONTINUOUS
 62
     1
 10
130.243331918389
 20
-191.841884528951
 30
0.0
 40
2.00000008940697
  1
93-04-05 ROTA S.
 50
359.999999844103
 41
0.749999861419206
 72
     2
 11
153.943328590959
 21
-191.841884593318
 31
0.0
  0
TEXT
  5
   537
  8
0
  6
CONTINUOUS
 62
     1
 10
231.973709124863
 20
-218.083675294311
 30
0.0
 40
4.00000017881393
  1
601840/291
 50
359.999999844103
 41
0.937499973922969
 72
     2
 11
268.723709724635
 21
-218.08367539412
 31
0.0
  0
TEXT
  5
   538
  8
0
  6
CONTINUOUS
 62
     1
 10
249.059402479634
 20
-209.102092736486
 30
0.0
 40
3.00000002980232
  1
S7
 50
359.999999844103
 41
0.916666604744064
 72
     2
 11
254.009402190055
 21
-209.10209274993
 31
0.0
  0
TEXT
  5
   539
  8
0
  6
CONTINUOUS
 62
     1
 10
222.274982615819
 20
-190.79182049562
 30
0.0
 40
2.00000008940697
  1
4POLE LOW VOLTAGE FIXED M.C.C.B SERIES
 50
359.999999844103
 41
0.749999861419206
 72
     1
 11
250.62497864365
 21
-189.791820527912
 31
0.0
 73
     2
  0
TEXT
  5
   53A
  8
0
  6
CONTINUOUS
 62
     1
 10
220.7749828617
 20
-193.791820491546
 30
0.0
 40
2.00000008940697
  1
ISOMAX ROTARY HANDLE OPERATING MECHANISM
 50
359.999999844103
 41
0.749999861419206
 72
     1
 11
250.624978679425
 21
-192.791820527912
 31
0.0
 73
     2
  0
TEXT
  5
   53B
  8
0
  6
CONTINUOUS
 62
     1
 10
224.727374353518
 20
-198.862087235548
 30
0.0
 40
2.00000008940697
  1
INTERR.AUTOMATICO SERIE ISOMAX
 50
359.999999844103
 41
0.749999861419206
 72
     1
 11
247.077371221775
 21
-197.862087251545
 31
0.0
 73
     2
  0
TEXT
  5
   53C
  8
0
  6
CONTINUOUS
 62
     1
 10
217.977375334772
 20
-201.862087217216
 30
0.0
 40
2.00000008940697
  1
TETRAP.FISSO COMANDO A MANIGLIA ROTANTE
 50
359.999999844103
 41
0.749999861419206
 72
     1
 11
247.077371257549
 21
-200.862087251545
 31
0.0
 73
     2
  0
ENDSEC
  0
EOF
