  0
SECTION
  2
HEADER
  9
$ACADVER
  1
AC1009
  9
$DWGCODEPAGE
  3
iso8859-1
  9
$INSBASE
 10
0.0
 20
0.0
 30
0.0
  9
$EXTMIN
 10
1.0E20
 20
1.0E20
  9
$EXTMAX
 10
-1.0E20
 20
-1.0E20
  9
$LIMMIN
 10
0.0
 20
0.0
  9
$LIMMAX
 10
12.0
 20
9.0
  9
$ORTHOMODE
 70
     0
  9
$REGENMODE
 70
     1
  9
$FILLMODE
 70
     1
  9
$QTEXTMODE
 70
     0
  9
$MIRRTEXT
 70
     1
  9
$DRAGMODE
 70
     2
  9
$LTSCALE
 40
15.0
  9
$OSMODE
 70
     0
  9
$ATTMODE
 70
     1
  9
$TEXTSIZE
 40
0.2
  9
$TRACEWID
 40
0.05
  9
$TEXTSTYLE
  7
STANDARD
  9
$CLAYER
  8
0
  9
$CELTYPE
  6
DASHED
  9
$CECOLOR
 62
   256
  9
$DIMSCALE
 40
1.0
  9
$DIMASZ
 40
0.18
  9
$DIMEXO
 40
0.0625
  9
$DIMDLI
 40
0.38
  9
$DIMRND
 40
0.0
  9
$DIMDLE
 40
0.0
  9
$DIMEXE
 40
0.18
  9
$DIMTP
 40
0.0
  9
$DIMTM
 40
0.0
  9
$DIMTXT
 40
0.18
  9
$DIMCEN
 40
0.09
  9
$DIMTSZ
 40
0.0
  9
$DIMTOL
 70
     0
  9
$DIMLIM
 70
     0
  9
$DIMTIH
 70
     1
  9
$DIMTOH
 70
     1
  9
$DIMSE1
 70
     0
  9
$DIMSE2
 70
     0
  9
$DIMTAD
 70
     0
  9
$DIMZIN
 70
     0
  9
$DIMBLK
  1

  9
$DIMASO
 70
     1
  9
$DIMSHO
 70
     1
  9
$DIMPOST
  1

  9
$DIMAPOST
  1

  9
$DIMALT
 70
     0
  9
$DIMALTD
 70
     2
  9
$DIMALTF
 40
25.4
  9
$DIMLFAC
 40
1.0
  9
$DIMTOFL
 70
     0
  9
$DIMTVP
 40
0.0
  9
$DIMTIX
 70
     0
  9
$DIMSOXD
 70
     0
  9
$DIMSAH
 70
     0
  9
$DIMBLK1
  1

  9
$DIMBLK2
  1

  9
$DIMSTYLE
  2
STANDARD
  9
$DIMCLRD
 70
     0
  9
$DIMCLRE
 70
     0
  9
$DIMCLRT
 70
     0
  9
$DIMTFAC
 40
1.0
  9
$DIMGAP
 40
0.09
  9
$LUNITS
 70
     2
  9
$LUPREC
 70
     4
  9
$AXISMODE
 70
     0
  9
$AXISUNIT
 10
0.0
 20
0.0
  9
$SKETCHINC
 40
0.1
  9
$FILLETRAD
 40
0.0
  9
$AUNITS
 70
     0
  9
$AUPREC
 70
     0
  9
$MENU
  1
acad
  9
$ELEVATION
 40
0.0
  9
$PELEVATION
 40
0.0
  9
$THICKNESS
 40
0.0
  9
$LIMCHECK
 70
     0
  9
$BLIPMODE
 70
     1
  9
$CHAMFERA
 40
0.0
  9
$CHAMFERB
 40
0.0
  9
$SKPOLY
 70
     0
  9
$TDCREATE
 40
0.000000000
  9
$TDUPDATE
 40
0.000000000
  9
$TDINDWG
 40
0.0
  9
$TDUSRTIMER
 40
0.0
  9
$USRTIMER
 70
     1
  9
$ANGBASE
 50
0.0
  9
$ANGDIR
 70
     0
  9
$PDMODE
 70
     0
  9
$PDSIZE
 40
0.0
  9
$PLINEWID
 40
0.0
  9
$COORDS
 70
     1
  9
$SPLFRAME
 70
     0
  9
$SPLINETYPE
 70
     6
  9
$SPLINESEGS
 70
     8
  9
$ATTDIA
 70
     0
  9
$ATTREQ
 70
     1
  9
$HANDLING
 70
     1
  9
$HANDSEED
  5
   863
  9
$SURFTAB1
 70
     6
  9
$SURFTAB2
 70
     6
  9
$SURFTYPE
 70
     6
  9
$SURFU
 70
     6
  9
$SURFV
 70
     6
  9
$UCSNAME
  2

  9
$UCSORG
 10
0.0
 20
0.0
 30
0.0
  9
$UCSXDIR
 10
1.0
 20
0.0
 30
0.0
  9
$UCSYDIR
 10
0.0
 20
1.0
 30
0.0
  9
$PUCSNAME
  2

  9
$PUCSORG
 10
0.0
 20
0.0
 30
0.0
  9
$PUCSXDIR
 10
1.0
 20
0.0
 30
0.0
  9
$PUCSYDIR
 10
0.0
 20
1.0
 30
0.0
  9
$USERI1
 70
     0
  9
$USERI2
 70
     0
  9
$USERI3
 70
     0
  9
$USERI4
 70
     0
  9
$USERI5
 70
     0
  9
$USERR1
 40
0.0
  9
$USERR2
 40
0.0
  9
$USERR3
 40
0.0
  9
$USERR4
 40
0.0
  9
$USERR5
 40
0.0
  9
$WORLDVIEW
 70
     1
  9
$SHADEDGE
 70
     3
  9
$SHADEDIF
 70
    70
  9
$TILEMODE
 70
     1
  9
$MAXACTVP
 70
    16
  9
$PINSBASE
 10
0.0
 20
0.0
 30
0.0
  9
$PLIMCHECK
 70
     0
  9
$PEXTMIN
 10
1.0E20
 20
1.0E20
 30
1.0E20
  9
$PEXTMAX
 10
-1.0E20
 20
-1.0E20
 30
-1.0E20
  9
$PLIMMIN
 10
0.0
 20
0.0
  9
$PLIMMAX
 10
12.0
 20
9.0
  9
$UNITMODE
 70
     0
  9
$VISRETAIN
 70
     0
  0
ENDSEC
  0
SECTION
  2
TABLES
  0
TABLE
  2
VPORT
 70
     1
  0
VPORT
  2
*ACTIVE
 70
     0
 10
0.0
 20
0.0
 11
1.0
 21
1.0
 12
6.801242
 22
4.5
 13
0.0
 23
0.0
 14
1.0
 24
1.0
 15
0.0
 25
0.0
 16
0.0
 26
0.0
 36
1.0
 17
0.0
 27
0.0
 37
0.0
 40
9.0
 41
1.511387
 42
50.0
 43
0.0
 44
0.0
 50
0.0
 51
0.0
 71
     0
 72
   100
 73
     1
 74
     1
 75
     0
 76
     0
 77
     0
 78
     0
  0
ENDTAB
  0
TABLE
  2
LTYPE
 70
    41
  0
LTYPE
  2
BYBLOCK
 70
     0
  3

 72
    65
 73
     0
 40
0.0
  0
LTYPE
  2
BYLAYER
 70
     0
  3

 72
    65
 73
     0
 40
0.0
  0
LTYPE
  2
CONTINUOUS
 70
     0
  3
Solid line
 72
    65
 73
     0
 40
0.0
  0
LTYPE
  2
BORDER
 70
    64
  3
__ __ . __ __ . __ __ . __ __ . __ __ . __ __ .
 72
    65
 73
     6
 40
1.75
 49
0.5
 49
-0.25
 49
0.5
 49
-0.25
 49
0.0
 49
-0.25
  0
LTYPE
  2
BORDER2
 70
    64
  3
__.__.__.__.__.__.__.__.__.__.__.__.__.__.__.__
 72
    65
 73
     6
 40
0.875
 49
0.25
 49
-0.125
 49
0.25
 49
-0.125
 49
0.0
 49
-0.125
  0
LTYPE
  2
BORDERX2
 70
    64
  3
____  ____  .  ____  ____  .  ____  ____  .  __
 72
    65
 73
     6
 40
3.5
 49
1.0
 49
-0.5
 49
1.0
 49
-0.5
 49
0.0
 49
-0.5
  0
LTYPE
  2
CENTER
 70
    64
  3
____ _ ____ _ ____ _ ____ _ ____ _ ____ _ ____
 72
    65
 73
     4
 40
2.0
 49
1.25
 49
-0.25
 49
0.25
 49
-0.25
  0
LTYPE
  2
CENTER2
 70
    64
  3
___ _ ___ _ ___ _ ___ _ ___ _ ___ _ ___ _ ___ _
 72
    65
 73
     4
 40
1.125
 49
0.75
 49
-0.125
 49
0.125
 49
-0.125
  0
LTYPE
  2
CENTERX2
 70
    64
  3
________  __  ________  __  ________  __  _____
 72
    65
 73
     4
 40
4.0
 49
2.5
 49
-0.5
 49
0.5
 49
-0.5
  0
LTYPE
  2
DASHDOT
 70
    64
  3
__ . __ . __ . __ . __ . __ . __ . __ . __ . __
 72
    65
 73
     4
 40
1.0
 49
0.5
 49
-0.25
 49
0.0
 49
-0.25
  0
LTYPE
  2
DASHDOT2
 70
    64
  3
_._._._._._._._._._._._._._._._._._._._._._._._
 72
    65
 73
     4
 40
0.5
 49
0.25
 49
-0.125
 49
0.0
 49
-0.125
  0
LTYPE
  2
DASHDOTX2
 70
    64
  3
____  .  ____  .  ____  .  ____  .  ____  .  __
 72
    65
 73
     4
 40
2.0
 49
1.0
 49
-0.5
 49
0.0
 49
-0.5
  0
LTYPE
  2
DASHED
 70
    64
  3
__ __ __ __ __ __ __ __ __ __ __ __ __ __ __ __
 72
    65
 73
     2
 40
0.75
 49
0.5
 49
-0.25
  0
LTYPE
  2
DASHED2
 70
    64
  3
_ _ _ _ _ _ _ _ _ _ _ _ _ _ _ _ _ _ _ _ _ _ _ _
 72
    65
 73
     2
 40
0.375
 49
0.25
 49
-0.125
  0
LTYPE
  2
DASHEDX2
 70
    64
  3
____  ____  ____  ____  ____  ____  ____  ____
 72
    65
 73
     2
 40
1.5
 49
1.0
 49
-0.5
  0
LTYPE
  2
DIVIDE
 70
    64
  3
____ . . ____ . . ____ . . ____ . . ____ . . __
 72
    65
 73
     6
 40
1.25
 49
0.5
 49
-0.25
 49
0.0
 49
-0.25
 49
0.0
 49
-0.25
  0
LTYPE
  2
DIVIDE2
 70
    64
  3
__..__..__..__..__..__..__..__..__..__..__..__.
 72
    65
 73
     6
 40
0.625
 49
0.25
 49
-0.125
 49
0.0
 49
-0.125
 49
0.0
 49
-0.125
  0
LTYPE
  2
DIVIDEX2
 70
    64
  3
________  .  .  ________  .  .  ________  .  .
 72
    65
 73
     6
 40
2.5
 49
1.0
 49
-0.5
 49
0.0
 49
-0.5
 49
0.0
 49
-0.5
  0
LTYPE
  2
DOT
 70
    64
  3
. . . . . . . . . . . . . . . . . . . . . . . .
 72
    65
 73
     2
 40
0.25
 49
0.0
 49
-0.25
  0
LTYPE
  2
DOT2
 70
    64
  3
...............................................
 72
    65
 73
     2
 40
0.125
 49
0.0
 49
-0.125
  0
LTYPE
  2
DOTX2
 70
    64
  3
.  .  .  .  .  .  .  .  .  .  .  .  .  .  .  .
 72
    65
 73
     2
 40
0.5
 49
0.0
 49
-0.5
  0
LTYPE
  2
HIDDEN
 70
    64
  3
__ __ __ __ __ __ __ __ __ __ __ __ __ __ __ __
 72
    65
 73
     2
 40
0.375
 49
0.25
 49
-0.125
  0
LTYPE
  2
HIDDEN2
 70
    64
  3
_ _ _ _ _ _ _ _ _ _ _ _ _ _ _ _ _ _ _ _ _ _ _ _
 72
    65
 73
     2
 40
0.1875
 49
0.125
 49
-0.0625
  0
LTYPE
  2
HIDDENX2
 70
    64
  3
____ ____ ____ ____ ____ ____ ____ ____ ____ __
 72
    65
 73
     2
 40
0.75
 49
0.5
 49
-0.25
  0
LTYPE
  2
PHANTOM
 70
    64
  3
______  __  __  ______  __  __  ______  __  __
 72
    65
 73
     6
 40
2.5
 49
1.25
 49
-0.25
 49
0.25
 49
-0.25
 49
0.25
 49
-0.25
  0
LTYPE
  2
PHANTOM2
 70
    64
  3
___ _ _ ___ _ _ ___ _ _ ___ _ _ ___ _ _ ___ _ _
 72
    65
 73
     6
 40
1.25
 49
0.625
 49
-0.125
 49
0.125
 49
-0.125
 49
0.125
 49
-0.125
  0
LTYPE
  2
PHANTOMX2
 70
    64
  3
____________    ____    ____    ____________
 72
    65
 73
     6
 40
5.0
 49
2.5
 49
-0.5
 49
0.5
 49
-0.5
 49
0.5
 49
-0.5
  0
LTYPE
  2
ACAD_ISO02W100
 70
    64
  3
__ __ __ __ __ __ __ __ __ __ __ __ __ __ __ __
 72
    65
 73
     2
 40
15.0
 49
12.0
 49
-3.0
  0
LTYPE
  2
ACAD_ISO03W100
 70
    64
  3
__    __    __    __    __    __    __    __
 72
    65
 73
     2
 40
30.0
 49
12.0
 49
-18.0
  0
LTYPE
  2
ACAD_ISO04W100
 70
    64
  3
____ . ____ . ____ . ____ . ____ . ____ . ____
 72
    65
 73
     4
 40
30.5
 49
24.0
 49
-3.0
 49
0.5
 49
-3.0
  0
LTYPE
  2
ACAD_ISO05W100
 70
    64
  3
____ .. ____ .. ____ .. ____ .. ____ .. ____ ..
 72
    65
 73
     6
 40
34.0
 49
24.0
 49
-3.0
 49
0.5
 49
-3.0
 49
0.5
 49
-3.0
  0
LTYPE
  2
ACAD_ISO06W100
 70
    64
  3
____ ... ____ ... ____ ... ____ ... ____ ... __
 72
    65
 73
     8
 40
37.5
 49
24.0
 49
-3.0
 49
0.5
 49
-3.0
 49
0.5
 49
-3.0
 49
0.5
 49
-3.0
  0
LTYPE
  2
ACAD_ISO07W100
 70
    64
  3
. . . . . . . . . . . . . . . . . . . . . . . .
 72
    65
 73
     2
 40
3.5
 49
0.5
 49
-3.0
  0
LTYPE
  2
ACAD_ISO08W100
 70
    64
  3
____ __ ____ __ ____ __ ____ ____ __ __ ____ __
 72
    65
 73
     4
 40
36.0
 49
24.0
 49
-3.0
 49
6.0
 49
-3.0
  0
LTYPE
  2
ACAD_ISO09W100
 70
    64
  3
____ __ __ ____ __ __ ____ __ __ ____ __ __ ___
 72
    65
 73
     6
 40
45.0
 49
24.0
 49
-3.0
 49
6.0
 49
-3.0
 49
6.0
 49
-3.0
  0
LTYPE
  2
ACAD_ISO10W100
 70
    64
  3
__ . __ . __ . __ . __ . __ . __ . __ . __ . __
 72
    65
 73
     4
 40
18.5
 49
12.0
 49
-3.0
 49
0.5
 49
-3.0
  0
LTYPE
  2
ACAD_ISO11W100
 70
    64
  3
__ __ . __ __ . __ __ . __ __ . __ __ . __ __ .
 72
    65
 73
     6
 40
33.5
 49
12.0
 49
-3.0
 49
12.0
 49
-3.0
 49
0.5
 49
-3.0
  0
LTYPE
  2
ACAD_ISO12W100
 70
    64
  3
__ . . __ . . __ . . __ . . __ . . __ . . __ .
 72
    65
 73
     6
 40
22.0
 49
12.0
 49
-3.0
 49
0.5
 49
-3.0
 49
0.5
 49
-3.0
  0
LTYPE
  2
ACAD_ISO13W100
 70
    64
  3
__ __ . . __ __ . . __ __ . . __ __ . . __ __ .
 72
    65
 73
     8
 40
37.0
 49
12.0
 49
-3.0
 49
12.0
 49
-3.0
 49
0.5
 49
-3.0
 49
0.5
 49
-3.0
  0
LTYPE
  2
ACAD_ISO14W100
 70
    64
  3
__ . . . __ . . . __ . . . __ . . . __ . . . __
 72
    65
 73
     8
 40
25.5
 49
12.0
 49
-3.0
 49
0.5
 49
-3.0
 49
0.5
 49
-3.0
 49
0.5
 49
-3.0
  0
LTYPE
  2
ACAD_ISO15W100
 70
    64
  3
__ __ . . . __ __ . . . __ __ . . . __ __ . . .
 72
    65
 73
    10
 40
40.5
 49
12.0
 49
-3.0
 49
12.0
 49
-3.0
 49
0.5
 49
-3.0
 49
0.5
 49
-3.0
 49
0.5
 49
-3.0
  0
ENDTAB
  0
TABLE
  2
STYLE
 70
     4
  0
STYLE
  2
STANDARD
 70
    64
 40
0.0
 41
1.0
 50
0.0
 71
     0
 42
0.2
  3
txt
  4

  0
STYLE
  2
TOLERANCE
 70
    64
 40
0.0
 41
1.0
 50
0.0
 71
     0
 42
0.2
  3
../igesfont/iges1003.shx
  4

  0
STYLE
  2
ROMANS
 70
    64
 40
0.0
 41
1.0
 50
0.0
 71
     0
 42
0.2
  3
romans.shx
  4

  0
STYLE
  2
ROMANC
 70
    64
 40
0.0
 41
1.0
 50
0.0
 71
     0
 42
0.2
  3
romanc.shx
  4

  0
ENDTAB
  0
TABLE
  2
DIMSTYLE
 70
     2
  0
DIMSTYLE
  2
UNNAMED
 70
     0
  3

  4

  5

  6

  7

 40
1.0
 41
0.18
 42
0.0625
 43
0.38
 44
0.18
 45
0.0
 46
0.0
 47
0.0
 48
0.0
140
0.18
141
0.09
142
0.0
143
25.4
144
1.0
145
0.0
146
1.0
147
0.09
 71
     0
 72
     0
 73
     1
 74
     1
 75
     0
 76
     0
 77
     0
 78
     0
170
     0
171
     2
172
     0
173
     0
174
     0
175
     0
176
     0
177
     0
178
     0
  0
DIMSTYLE
  2
STANDARD
 70
     0
  3

  4

  5

  6

  7

 40
1.0
 41
0.18
 42
0.0625
 43
0.38
 44
0.18
 45
0.0
 46
0.0
 47
0.0
 48
0.0
140
0.18
141
0.09
142
0.0
143
25.4
144
1.0
145
0.0
146
1.0
147
0.09
 71
     0
 72
     0
 73
     1
 74
     1
 75
     0
 76
     0
 77
     0
 78
     0
170
     0
171
     2
172
     0
173
     0
174
     0
175
     0
176
     0
177
     0
178
     0
  0
ENDTAB
  0
TABLE
  2
LAYER
 70
     2
  0
LAYER
  2
0
 70
     0
 62
     7
  6
CONTINUOUS
  0
LAYER
  2
255
 70
     0
 62
     7
  6
CONTINUOUS
  0
ENDTAB
  0
ENDSEC
  0
SECTION
  2
BLOCKS
  0
BLOCK
  5
     B
  8
0
  6
CONTINUOUS
 62
     7
  2
*UDIM1945
 70
    65
 10
0.0
 20
0.0
 30
0.0
  3
*UDIM1945
  0
TEXT
  5
     C
  8
0
  6
CONTINUOUS
 62
     7
 10
86.3598758078976
 20
-160.788585725745
 30
0.0
 40
2.50000001341104
  1
210
 50
359.999999896069
 41
0.933333333333333
 72
     1
 11
89.6098758275931
 21
-159.538585724918
 31
0.0
 73
     2
  0
LINE
  5
     D
  8
0
  6
CONTINUOUS
 62
     7
 10
110.839043080807
 20
-124.932243351631
 30
0.0
 11
110.839043080807
 21
-163.788585731624
 31
0.0
  0
LINE
  5
     E
  8
0
  6
CONTINUOUS
 62
     7
 10
68.839042454958
 20
-131.105430841446
 30
0.0
 11
68.839042454958
 21
-163.788585731624
 31
0.0
  0
LINE
  5
     F
  8
0
  6
CONTINUOUS
 62
     7
 10
110.839043080807
 20
-161.788585731624
 30
0.0
 11
68.839042454958
 21
-161.788585731624
 31
0.0
  0
LINE
  5
    10
  8
0
  6
CONTINUOUS
 62
     7
 10
107.884619819125
 20
-162.309530249624
 30
0.0
 11
110.839043080807
 21
-161.788585731624
 31
0.0
  0
LINE
  5
    11
  8
0
  6
CONTINUOUS
 62
     7
 10
110.839043080807
 20
-161.788585731624
 30
0.0
 11
107.884619819125
 21
-161.267641213624
 31
0.0
  0
LINE
  5
    12
  8
0
  6
CONTINUOUS
 62
     7
 10
71.7934657166396
 20
-161.267641213624
 30
0.0
 11
68.839042454958
 21
-161.788585731624
 31
0.0
  0
LINE
  5
    13
  8
0
  6
CONTINUOUS
 62
     7
 10
68.839042454958
 20
-161.788585731624
 30
0.0
 11
71.7934657166396
 21
-162.309530249624
 31
0.0
  0
ENDBLK
  5
    14
  8
0
  6
CONTINUOUS
 62
     7
  0
BLOCK
  5
    15
  8
0
  6
CONTINUOUS
 62
     7
  2
*UDIM1946
 70
    65
 10
0.0
 20
0.0
 30
0.0
  3
*UDIM1946
  0
TEXT
  5
    16
  8
0
  6
CONTINUOUS
 62
     7
 10
86.3598758078976
 20
-71.2862644027598
 30
0.0
 40
2.50000001341104
  1
284
 50
359.999999896069
 41
0.933333333333333
 72
     1
 11
89.6098758275931
 21
-70.0362644019333
 31
0.0
 73
     2
  0
LINE
  5
    17
  8
0
  6
CONTINUOUS
 62
     7
 10
118.239043191075
 20
-84.7554301805794
 30
0.0
 11
118.239043191075
 21
-70.2862644086388
 31
0.0
  0
LINE
  5
    18
  8
0
  6
CONTINUOUS
 62
     7
 10
61.4390423446894
 20
-84.7554301805794
 30
0.0
 11
61.4390423446894
 21
-70.2862644086388
 31
0.0
  0
LINE
  5
    19
  8
0
  6
CONTINUOUS
 62
     7
 10
118.239043191075
 20
-72.2862644086388
 30
0.0
 11
61.4390423446894
 21
-72.2862644086388
 31
0.0
  0
LINE
  5
    1A
  8
0
  6
CONTINUOUS
 62
     7
 10
115.284619929394
 20
-72.8072089266391
 30
0.0
 11
118.239043191075
 21
-72.2862644086388
 31
0.0
  0
LINE
  5
    1B
  8
0
  6
CONTINUOUS
 62
     7
 10
118.239043191075
 20
-72.2862644086388
 30
0.0
 11
115.284619929394
 21
-71.7653198906385
 31
0.0
  0
LINE
  5
    1C
  8
0
  6
CONTINUOUS
 62
     7
 10
64.393465606371
 20
-71.7653198906385
 30
0.0
 11
61.4390423446894
 21
-72.2862644086388
 31
0.0
  0
LINE
  5
    1D
  8
0
  6
CONTINUOUS
 62
     7
 10
61.4390423446894
 20
-72.2862644086388
 30
0.0
 11
64.393465606371
 21
-72.8072089266391
 31
0.0
  0
ENDBLK
  5
    1E
  8
0
  6
CONTINUOUS
 62
     7
  0
BLOCK
  5
    1F
  8
0
  6
CONTINUOUS
 62
     7
  2
*UDIM1947
 70
    65
 10
0.0
 20
0.0
 30
0.0
  3
*UDIM1947
  0
TEXT
  5
    20
  8
0
  6
CONTINUOUS
 62
     7
 10
36.0422859917202
 20
-125.651263933442
 30
0.0
 40
2.50000001341104
  1
86,5
 50
449.999999896069
 41
0.933333333333333
 72
     1
 11
34.7922859929985
 21
-121.234597240823
 31
0.0
 73
     2
  0
LINE
  5
    21
  8
0
  6
CONTINUOUS
 62
     7
 10
60.8390423506498
 20
-129.65543083474
 30
0.0
 11
35.0422859997041
 21
-129.65543083474
 31
0.0
  0
LINE
  5
    22
  8
0
  6
CONTINUOUS
 62
     7
 10
37.0422859997041
 20
-112.35543057695
 30
0.0
 11
37.0422859997041
 21
-129.65543083474
 31
0.0
  0
LINE
  5
    23
  8
0
  6
CONTINUOUS
 62
     7
 10
37.5632305177044
 20
-115.309853838632
 30
0.0
 11
37.0422859997041
 21
-112.35543057695
 31
0.0
  0
LINE
  5
    24
  8
0
  6
CONTINUOUS
 62
     7
 10
37.0422859997041
 20
-112.35543057695
 30
0.0
 11
36.5213414817037
 21
-115.309853838632
 31
0.0
  0
LINE
  5
    25
  8
0
  6
CONTINUOUS
 62
     7
 10
36.5213414817037
 20
-126.701007573059
 30
0.0
 11
37.0422859997041
 21
-129.65543083474
 31
0.0
  0
LINE
  5
    26
  8
0
  6
CONTINUOUS
 62
     7
 10
37.0422859997041
 20
-129.65543083474
 30
0.0
 11
37.5632305177044
 21
-126.701007573059
 31
0.0
  0
ENDBLK
  5
    27
  8
0
  6
CONTINUOUS
 62
     7
  0
BLOCK
  5
    28
  8
0
  6
CONTINUOUS
 62
     7
  2
*UDIM1948
 70
    65
 10
0.0
 20
0.0
 30
0.0
  3
*UDIM1948
  0
TEXT
  5
    29
  8
0
  6
CONTINUOUS
 62
     7
 10
36.0422859917202
 20
-142.051262651942
 30
0.0
 40
2.50000001341104
  1
77,5
 50
449.999999896069
 41
0.933333333333333
 72
     1
 11
34.7922859929985
 21
-137.634595959323
 31
0.0
 73
     2
  0
LINE
  5
    2A
  8
0
  6
CONTINUOUS
 62
     7
 10
60.8390423506498
 20
-145.155431065708
 30
0.0
 11
35.0422859997041
 21
-145.155431065708
 31
0.0
  0
LINE
  5
    2B
  8
0
  6
CONTINUOUS
 62
     7
 10
37.0422859997041
 20
-129.65543083474
 30
0.0
 11
37.0422859997041
 21
-145.155431065708
 31
0.0
  0
LINE
  5
    2C
  8
0
  6
CONTINUOUS
 62
     7
 10
37.5632305177044
 20
-132.609854096422
 30
0.0
 11
37.0422859997041
 21
-129.65543083474
 31
0.0
  0
LINE
  5
    2D
  8
0
  6
CONTINUOUS
 62
     7
 10
37.0422859997041
 20
-129.65543083474
 30
0.0
 11
36.5213414817037
 21
-132.609854096422
 31
0.0
  0
LINE
  5
    2E
  8
0
  6
CONTINUOUS
 62
     7
 10
36.5213414817037
 20
-142.201007804027
 30
0.0
 11
37.0422859997041
 21
-145.155431065708
 31
0.0
  0
LINE
  5
    2F
  8
0
  6
CONTINUOUS
 62
     7
 10
37.0422859997041
 20
-145.155431065708
 30
0.0
 11
37.5632305177044
 21
-142.201007804027
 31
0.0
  0
ENDBLK
  5
    30
  8
0
  6
CONTINUOUS
 62
     7
  0
BLOCK
  5
    31
  8
0
  6
CONTINUOUS
 62
     7
  2
*UDIM1949
 70
    65
 10
0.0
 20
0.0
 30
0.0
  3
*UDIM1949
  0
TEXT
  5
    32
  8
0
  6
CONTINUOUS
 62
     7
 10
41.9367410356092
 20
-97.4157730832991
 30
0.0
 40
2.50000001341104
  1
77,5
 50
449.999999896069
 41
0.933333333333333
 72
     1
 11
40.6867410368875
 21
-92.99910639068
 31
0.0
 73
     2
  0
LINE
  5
    33
  8
0
  6
CONTINUOUS
 62
     7
 10
60.8390423506498
 20
-85.355430174619
 30
0.0
 11
40.936741043593
 21
-85.355430174619
 31
0.0
  0
LINE
  5
    34
  8
0
  6
CONTINUOUS
 62
     7
 10
60.8390423506498
 20
-100.855430405587
 30
0.0
 11
40.936741043593
 21
-100.855430405587
 31
0.0
  0
LINE
  5
    35
  8
0
  6
CONTINUOUS
 62
     7
 10
42.936741043593
 20
-85.355430174619
 30
0.0
 11
42.936741043593
 21
-100.855430405587
 31
0.0
  0
LINE
  5
    36
  8
0
  6
CONTINUOUS
 62
     7
 10
43.4576855615933
 20
-88.3098534363006
 30
0.0
 11
42.936741043593
 21
-85.355430174619
 31
0.0
  0
LINE
  5
    37
  8
0
  6
CONTINUOUS
 62
     7
 10
42.936741043593
 20
-85.355430174619
 30
0.0
 11
42.4157965255926
 21
-88.3098534363006
 31
0.0
  0
LINE
  5
    38
  8
0
  6
CONTINUOUS
 62
     7
 10
42.4157965255926
 20
-97.9010071439054
 30
0.0
 11
42.936741043593
 21
-100.855430405587
 31
0.0
  0
LINE
  5
    39
  8
0
  6
CONTINUOUS
 62
     7
 10
42.936741043593
 20
-100.855430405587
 30
0.0
 11
43.4576855615933
 21
-97.9010071439054
 31
0.0
  0
ENDBLK
  5
    3A
  8
0
  6
CONTINUOUS
 62
     7
  0
BLOCK
  5
    3B
  8
0
  6
CONTINUOUS
 62
     7
  2
*UDIM1950
 70
    65
 10
0.0
 20
0.0
 30
0.0
  3
*UDIM1950
  0
TEXT
  5
    3C
  8
0
  6
CONTINUOUS
 62
     7
 10
41.9367410356092
 20
-111.333232409052
 30
0.0
 40
2.50000001341104
  1
57,5
 50
449.999999896069
 41
0.933333333333333
 72
     1
 11
40.6867410368875
 21
-106.916565716433
 31
0.0
 73
     2
  0
LINE
  5
    3D
  8
0
  6
CONTINUOUS
 62
     7
 10
42.936741043593
 20
-100.855430405587
 30
0.0
 11
42.936741043593
 21
-112.35543057695
 31
0.0
  0
LINE
  5
    3E
  8
0
  6
CONTINUOUS
 62
     7
 10
42.4157965255926
 20
-97.9010071439054
 30
0.0
 11
42.936741043593
 21
-100.855430405587
 31
0.0
  0
LINE
  5
    3F
  8
0
  6
CONTINUOUS
 62
     7
 10
42.936741043593
 20
-100.855430405587
 30
0.0
 11
43.4576855615933
 21
-97.9010071439054
 31
0.0
  0
LINE
  5
    40
  8
0
  6
CONTINUOUS
 62
     7
 10
43.4576855615933
 20
-115.309853838632
 30
0.0
 11
42.936741043593
 21
-112.35543057695
 31
0.0
  0
LINE
  5
    41
  8
0
  6
CONTINUOUS
 62
     7
 10
42.936741043593
 20
-112.35543057695
 30
0.0
 11
42.4157965255926
 21
-115.309853838632
 31
0.0
  0
ENDBLK
  5
    42
  8
0
  6
CONTINUOUS
 62
     7
  0
BLOCK
  5
    43
  8
0
  6
CONTINUOUS
 62
     7
  2
*UDIM1951
 70
    65
 10
0.0
 20
0.0
 30
0.0
  3
*UDIM1951
  0
TEXT
  5
    44
  8
0
  6
CONTINUOUS
 62
     7
 10
104.059876071648
 20
-79.1635996470398
 30
0.0
 40
2.50000001341104
  1
107
 50
359.999999896069
 41
0.933333333333333
 72
     1
 11
107.309876091344
 21
-77.9135996462132
 31
0.0
 73
     2
  0
LINE
  5
    45
  8
0
  6
CONTINUOUS
 62
     7
 10
118.239043191075
 20
-84.7554301805794
 30
0.0
 11
118.239043191075
 21
-78.1635996529187
 31
0.0
  0
LINE
  5
    46
  8
0
  6
CONTINUOUS
 62
     7
 10
96.8390428721905
 20
-85.127822847841
 30
0.0
 11
96.8390428721905
 21
-78.1635996529187
 31
0.0
  0
LINE
  5
    47
  8
0
  6
CONTINUOUS
 62
     7
 10
118.239043191075
 20
-80.1635996529187
 30
0.0
 11
96.8390428721905
 21
-80.1635996529187
 31
0.0
  0
LINE
  5
    48
  8
0
  6
CONTINUOUS
 62
     7
 10
115.284619929394
 20
-80.6845441709191
 30
0.0
 11
118.239043191075
 21
-80.1635996529187
 31
0.0
  0
LINE
  5
    49
  8
0
  6
CONTINUOUS
 62
     7
 10
118.239043191075
 20
-80.1635996529187
 30
0.0
 11
115.284619929394
 21
-79.6426551349184
 31
0.0
  0
LINE
  5
    4A
  8
0
  6
CONTINUOUS
 62
     7
 10
99.7934661338721
 20
-79.6426551349184
 30
0.0
 11
96.8390428721905
 21
-80.1635996529187
 31
0.0
  0
LINE
  5
    4B
  8
0
  6
CONTINUOUS
 62
     7
 10
96.8390428721905
 20
-80.1635996529187
 30
0.0
 11
99.7934661338721
 21
-80.6845441709191
 31
0.0
  0
ENDBLK
  5
    4C
  8
0
  6
CONTINUOUS
 62
     7
  0
BLOCK
  5
    4D
  8
0
  6
CONTINUOUS
 62
     7
  2
*UDIM1952
 70
    65
 10
0.0
 20
0.0
 30
0.0
  3
*UDIM1952
  0
TEXT
  5
    4E
  8
0
  6
CONTINUOUS
 62
     7
 10
101.526543810006
 20
-151.370662492697
 30
0.0
 40
2.50000001341104
  1
70
 50
359.999999896069
 41
0.933333333333333
 72
     1
 11
103.609877156777
 21
-150.12066248976
 31
0.0
 73
     2
  0
LINE
  5
    4F
  8
0
  6
CONTINUOUS
 62
     7
 10
110.839043080807
 20
-124.932243351631
 30
0.0
 11
110.839043080807
 21
-154.370662496466
 31
0.0
  0
LINE
  5
    50
  8
0
  6
CONTINUOUS
 62
     7
 10
96.8390428721905
 20
-145.62494222576
 30
0.0
 11
96.8390428721905
 21
-154.370662496466
 31
0.0
  0
LINE
  5
    51
  8
0
  6
CONTINUOUS
 62
     7
 10
110.839043080807
 20
-152.370662496466
 30
0.0
 11
96.8390428721905
 21
-152.370662496466
 31
0.0
  0
LINE
  5
    52
  8
0
  6
CONTINUOUS
 62
     7
 10
107.884619819125
 20
-152.891607014466
 30
0.0
 11
110.839043080807
 21
-152.370662496466
 31
0.0
  0
LINE
  5
    53
  8
0
  6
CONTINUOUS
 62
     7
 10
110.839043080807
 20
-152.370662496466
 30
0.0
 11
107.884619819125
 21
-151.849717978466
 31
0.0
  0
LINE
  5
    54
  8
0
  6
CONTINUOUS
 62
     7
 10
99.7934661338721
 20
-151.849717978466
 30
0.0
 11
96.8390428721905
 21
-152.370662496466
 31
0.0
  0
LINE
  5
    55
  8
0
  6
CONTINUOUS
 62
     7
 10
96.8390428721905
 20
-152.370662496466
 30
0.0
 11
99.7934661338721
 21
-152.891607014466
 31
0.0
  0
ENDBLK
  5
    56
  8
0
  6
CONTINUOUS
 62
     7
  0
BLOCK
  5
    57
  8
0
  6
CONTINUOUS
 62
     7
  2
*UDIM1953
 70
    65
 10
0.0
 20
0.0
 30
0.0
  3
*UDIM1953
  0
TEXT
  5
    58
  8
0
  6
CONTINUOUS
 62
     7
 10
89.0284946222859
 20
-120.562794320754
 30
0.0
 40
2.50000001341104
  1
8,5
 50
345.45340549187
 41
0.933333333333333
 72
     1
 11
92.4882707368666
 21
-120.169158236199
 31
0.0
 73
     2
  0
TEXT
  5
    59
  8
0
  6
CONTINUOUS
 62
     7
 10
86.4876423673895
 20
-119.903480302453
 30
0.0
 40
2.50000001341104
  1
Ø
 50
345.45340549187
 41
0.933333333333333
 72
     1
 11
87.6888831597279
 21
-118.923787308511
 31
0.0
 73
     2
  0
TEXT
  5
    5A
  8
0
  6
CONTINUOUS
 62
     7
 10
95.7637695837268
 20
-122.310499725084
 30
0.0
 40
2.50000001341104
  1
 - M8
 50
345.45340549187
 41
0.933333333333333
 72
     1
 11
101.48208102055
 21
-122.502920549916
 31
0.0
 73
     2
  0
LINE
  5
    5B
  8
0
  6
CONTINUOUS
 62
     7
 10
111.661795242142
 20
-127.468922959373
 30
0.0
 11
86.2364751253802
 21
-120.871424009421
 31
0.0
  0
LINE
  5
    5C
  8
0
  6
CONTINUOUS
 62
     7
 10
114.652354838334
 20
-127.706732340229
 30
0.0
 11
111.661795242142
 21
-127.468922959373
 31
0.0
  0
LINE
  5
    5D
  8
0
  6
CONTINUOUS
 62
     7
 10
111.661795242142
 20
-127.468922959373
 30
0.0
 11
114.390666440835
 21
-128.71522227372
 31
0.0
  0
LINE
  5
    5E
  8
0
  6
CONTINUOUS
 62
     7
 10
107.02573132328
 20
-126.804129257726
 30
0.0
 11
110.016290919472
 21
-127.041938638582
 31
0.0
  0
LINE
  5
    5F
  8
0
  6
CONTINUOUS
 62
     7
 10
110.016290919472
 20
-127.041938638582
 30
0.0
 11
107.287419720778
 21
-125.795639324235
 31
0.0
  0
ENDBLK
  5
    60
  8
0
  6
CONTINUOUS
 62
     7
  0
BLOCK
  5
    61
  8
0
  6
CONTINUOUS
 62
     7
  2
*UDIM1954
 70
    65
 10
0.0
 20
0.0
 30
0.0
  3
*UDIM1954
  0
TEXT
  5
    62
  8
0
  6
CONTINUOUS
 62
     7
 10
47.9630655904079
 20
-118.734597580147
 30
0.0
 40
2.50000001341104
  1
120
 50
449.999999896069
 41
0.933333333333333
 72
     1
 11
46.7130655895773
 21
-115.484597560453
 31
0.0
 73
     2
  0
LINE
  5
    63
  8
0
  6
CONTINUOUS
 62
     7
 10
64.9890424124897
 20
-103.25543044135
 30
0.0
 11
46.9630655962828
 21
-103.25543044135
 31
0.0
  0
LINE
  5
    64
  8
0
  6
CONTINUOUS
 62
     7
 10
64.9890424124897
 20
-127.255430798978
 30
0.0
 11
46.9630655962828
 21
-127.255430798978
 31
0.0
  0
LINE
  5
    65
  8
0
  6
CONTINUOUS
 62
     7
 10
48.9630655962828
 20
-103.25543044135
 30
0.0
 11
48.9630655962828
 21
-127.255430798978
 31
0.0
  0
LINE
  5
    66
  8
0
  6
CONTINUOUS
 62
     7
 10
49.4840101142832
 20
-106.209853703031
 30
0.0
 11
48.9630655962828
 21
-103.25543044135
 31
0.0
  0
LINE
  5
    67
  8
0
  6
CONTINUOUS
 62
     7
 10
48.9630655962828
 20
-103.25543044135
 30
0.0
 11
48.4421210782825
 21
-106.209853703031
 31
0.0
  0
LINE
  5
    68
  8
0
  6
CONTINUOUS
 62
     7
 10
48.4421210782825
 20
-124.301007537296
 30
0.0
 11
48.9630655962828
 21
-127.255430798978
 31
0.0
  0
LINE
  5
    69
  8
0
  6
CONTINUOUS
 62
     7
 10
48.9630655962828
 20
-127.255430798978
 30
0.0
 11
49.4840101142832
 21
-124.301007537296
 31
0.0
  0
ENDBLK
  5
    6A
  8
0
  6
CONTINUOUS
 62
     7
  0
BLOCK
  5
    6B
  8
0
  6
CONTINUOUS
 62
     7
  2
*UDIM1955
 70
    65
 10
0.0
 20
0.0
 30
0.0
  3
*UDIM1955
  0
TEXT
  5
    6C
  8
0
  6
CONTINUOUS
 62
     7
 10
52.7212931982646
 20
-100.31793061203
 30
0.0
 40
2.50000001341104
  1
45,5
 50
449.999999896069
 41
0.933333333333333
 72
     1
 11
51.4712931995429
 21
-95.9012639194106
 31
0.0
 73
     2
  0
LINE
  5
    6D
  8
0
  6
CONTINUOUS
 62
     7
 10
72.5079581382176
 20
-103.25543044135
 30
0.0
 11
51.7212932062484
 21
-103.25543044135
 31
0.0
  0
LINE
  5
    6E
  8
0
  6
CONTINUOUS
 62
     7
 10
53.7212932062485
 20
-91.4845972290511
 30
0.0
 11
53.7212932062485
 21
-112.35543057695
 31
0.0
  0
LINE
  5
    6F
  8
0
  6
CONTINUOUS
 62
     7
 10
53.2003486882481
 20
-100.301007179668
 30
0.0
 11
53.7212932062485
 21
-103.25543044135
 31
0.0
  0
LINE
  5
    70
  8
0
  6
CONTINUOUS
 62
     7
 10
53.7212932062485
 20
-103.25543044135
 30
0.0
 11
54.2422377242488
 21
-100.301007179668
 31
0.0
  0
LINE
  5
    71
  8
0
  6
CONTINUOUS
 62
     7
 10
54.2422377242488
 20
-115.309853838632
 30
0.0
 11
53.7212932062485
 21
-112.35543057695
 31
0.0
  0
LINE
  5
    72
  8
0
  6
CONTINUOUS
 62
     7
 10
53.7212932062485
 20
-112.35543057695
 30
0.0
 11
53.2003486882481
 21
-115.309853838632
 31
0.0
  0
ENDBLK
  5
    73
  8
0
  6
CONTINUOUS
 62
     7
  0
BLOCK
  5
    74
  8
0
  6
CONTINUOUS
 62
     7
  2
*HATCH359
 70
    65
 10
0.0
 20
0.0
 30
0.0
  3
*HATCH359
  0
LINE
  5
    75
  8
0
  6
CONTINUOUS
 62
    52
 10
92.5330276489258
 20
39.5000114440918
 30
0.0
 11
90.5330276489258
 21
37.5000114440918
 31
0.0
  0
LINE
  5
    76
  8
0
  6
CONTINUOUS
 62
    52
 10
96.7756729125977
 20
39.5000114440918
 30
0.0
 11
94.7756729125977
 21
37.5000114440918
 31
0.0
  0
LINE
  5
    77
  8
0
  6
CONTINUOUS
 62
    52
 10
101.01831817627
 20
39.5000114440918
 30
0.0
 11
99.0183181762695
 21
37.5000114440918
 31
0.0
  0
LINE
  5
    78
  8
0
  6
CONTINUOUS
 62
    52
 10
105.260963439941
 20
39.5000114440918
 30
0.0
 11
103.260963439941
 21
37.5000114440918
 31
0.0
  0
LINE
  5
    79
  8
0
  6
CONTINUOUS
 62
    52
 10
109.503608703613
 20
39.5000114440918
 30
0.0
 11
107.503608703613
 21
37.5000114440918
 31
0.0
  0
LINE
  5
    7A
  8
0
  6
CONTINUOUS
 62
    52
 10
113.746253967285
 20
39.5000114440918
 30
0.0
 11
111.746253967285
 21
37.5000114440918
 31
0.0
  0
LINE
  5
    7B
  8
0
  6
CONTINUOUS
 62
    52
 10
117.988899230957
 20
39.5000114440918
 30
0.0
 11
115.988899230957
 21
37.5000114440918
 31
0.0
  0
ENDBLK
  5
    7C
  8
0
  6
CONTINUOUS
 62
     7
  0
BLOCK
  5
    7D
  8
0
  6
CONTINUOUS
 62
     7
  2
BASETT
 70
    64
 10
0.0
 20
0.0
 30
0.0
  3
BASETT
  0
LINE
  5
    7E
  8
0
  6
CONTINUOUS
 62
     1
 10
9.37916411203332E-13
 20
8.29115314964895E-16
 30
0.0
 11
48.5000000000009
 21
8.29115314964895E-16
 31
0.0
  0
LINE
  5
    7F
  8
0
  6
CONTINUOUS
 62
     1
 10
-2.00000000000001
 20
16.4999999606765
 30
0.0
 11
48.5000000000058
 21
16.4999900306657
 31
0.0
  0
LINE
  5
    80
  8
0
  6
CONTINUOUS
 62
     1
 10
-2.5
 20
278.499999567409
 30
0.0
 11
48.5
 21
278.499999567409
 31
0.0
  0
LINE
  5
    81
  8
0
  6
CONTINUOUS
 62
     1
 10
1.49317556230405E-11
 20
294.999952060667
 30
0.0
 11
48.5000000000149
 21
294.999952060667
 31
0.0
  0
LINE
  5
    82
  8
0
  6
CONTINUOUS
 62
     1
 10
0.0
 20
0.0
 30
0.0
 11
0.0
 21
16.4999995674088
 31
0.0
  0
LINE
  5
    83
  8
0
  6
CONTINUOUS
 62
     1
 10
0.0
 20
224.499952060667
 30
0.0
 11
0.0
 21
263.499999567409
 31
0.0
  0
LINE
  5
    84
  8
0
  6
CONTINUOUS
 62
     1
 10
48.5
 20
74.4999564682283
 30
0.0
 11
48.5
 21
81.4999995674093
 31
0.0
  0
LINE
  5
    85
  8
0
  6
CONTINUOUS
 62
     1
 10
45.5000901428785
 20
77.4999576057394
 30
0.0
 11
47.5
 21
77.4999576057394
 31
0.0
  0
LINE
  5
    86
  8
0
  6
CONTINUOUS
 62
     1
 10
49.5
 20
198.49998430862
 30
0.0
 11
49.5
 21
216.49998430862
 31
0.0
  0
LINE
  5
    87
  8
0
  6
CONTINUOUS
 62
     1
 10
49.5
 20
78.4999919380148
 30
0.0
 11
49.5
 21
96.4999919380148
 31
0.0
  0
LINE
  5
    88
  8
0
  6
CONTINUOUS
 62
     1
 10
48.5
 20
294.999999567409
 30
0.0
 11
61.0
 21
294.999999567409
 31
0.0
  0
LINE
  5
    89
  8
0
  6
CONTINUOUS
 62
     1
 10
48.5
 20
278.499999567409
 30
0.0
 11
63.0
 21
278.499999567409
 31
0.0
  0
LINE
  5
    8A
  8
0
  6
CONTINUOUS
 62
     1
 10
63.0
 20
223.499960071298
 30
0.0
 11
63.0
 21
293.000130967507
 31
0.0
  0
LINE
  5
    8B
  8
0
  6
CONTINUOUS
 62
     1
 10
48.5000000000152
 20
3.42048471119702E-5
 30
0.0
 11
61.0000000000152
 21
3.42048471119702E-5
 31
0.0
  0
LINE
  5
    8C
  8
0
  6
CONTINUOUS
 62
     1
 10
48.5000000000458
 20
16.499990030663
 30
0.0
 11
63.0000000000458
 21
16.4999824012685
 31
0.0
  0
LINE
  5
    8D
  8
0
  6
CONTINUOUS
 62
     1
 10
63.0
 20
1.99997801527987
 30
0.0
 11
63.0
 21
71.5000155985656
 31
0.0
  0
LINE
  5
    8E
  8
0
  6
CONTINUOUS
 62
     1
 10
47.5
 20
143.499991938015
 30
0.0
 11
47.5
 21
151.499991938015
 31
0.0
  0
LINE
  5
    8F
  8
0
  6
CONTINUOUS
 62
     1
 10
48.5
 20
216.49998430862
 30
0.0
 11
49.5
 21
216.49998430862
 31
0.0
  0
LINE
  5
    90
  8
0
  6
CONTINUOUS
 62
     1
 10
45.5
 20
198.49998430862
 30
0.0
 11
49.5
 21
198.49998430862
 31
0.0
  0
LINE
  5
    91
  8
0
  6
CONTINUOUS
 62
     1
 10
45.5
 20
96.4999919380148
 30
0.0
 11
49.5
 21
96.4999919380148
 31
0.0
  0
LINE
  5
    92
  8
0
  6
CONTINUOUS
 62
     1
 10
48.5
 20
78.4999919380148
 30
0.0
 11
49.5
 21
78.4999919380148
 31
0.0
  0
LINE
  5
    93
  8
0
  6
CONTINUOUS
 62
     1
 10
45.5
 20
151.499991938015
 30
0.0
 11
47.5
 21
151.499991938015
 31
0.0
  0
LINE
  5
    94
  8
0
  6
CONTINUOUS
 62
     1
 10
45.5
 20
143.499991938015
 30
0.0
 11
47.5
 21
143.499991938015
 31
0.0
  0
ARC
  5
    95
  8
0
  6
CONTINUOUS
 62
     1
 10
61.0001195664684
 20
293.000130967507
 30
0.0
 40
1.99983675500225
 50
359.996219692575
 51
450.003067297461
  0
ARC
  5
    96
  8
0
  6
CONTINUOUS
 62
     1
 10
60.999997541172
 20
1.99997801527987
 30
0.0
 40
1.99998559606681
 50
270.000149683848
 51
360.00043490088
  0
LINE
  5
    97
  8
0
  6
CONTINUOUS
 62
     1
 10
-2.5
 20
263.499999567409
 30
0.0
 11
-2.5
 21
278.499999567409
 31
0.0
  0
LINE
  5
    98
  8
0
  6
CONTINUOUS
 62
     1
 10
-2.0
 20
16.4999999606765
 30
0.0
 11
-2.0
 21
31.499999567409
 31
0.0
  0
LINE
  5
    99
  8
0
  6
CONTINUOUS
 62
     1
 10
-2.5
 20
263.499999567409
 30
0.0
 11
-1.92386683707583E-15
 21
263.499999567409
 31
0.0
  0
LINE
  5
    9A
  8
0
  6
CONTINUOUS
 62
     1
 10
-2.0
 20
31.499999567409
 30
0.0
 11
-1.92881868216852E-15
 21
31.499999567409
 31
0.0
  0
LINE
  5
    9B
  8
0
  6
CONTINUOUS
 62
     1
 10
0.0
 20
31.499999567409
 30
0.0
 11
0.0
 21
85.5
 31
0.0
  0
LINE
  5
    9C
  8
0
  6
CONTINUOUS
 62
     1
 10
0.0
 20
278.499999567409
 30
0.0
 11
0.0
 21
294.999952060667
 31
0.0
  0
LINE
  5
    9D
  8
0
  6
CONTINUOUS
 62
     1
 10
49.5
 20
73.499980493923
 30
0.0
 11
61.0
 21
73.499980493923
 31
0.0
  0
LINE
  5
    9E
  8
0
  6
CONTINUOUS
 62
     1
 10
48.7928895797786
 20
73.7928770569176
 30
0.0
 11
49.1173066946318
 21
73.5761030782846
 31
0.0
  0
LINE
  5
    9F
  8
0
  6
CONTINUOUS
 62
     1
 10
45.5
 20
217.499953791042
 30
0.0
 11
47.5
 21
217.499953791042
 31
0.0
  0
LINE
  5
    A0
  8
0
  6
CONTINUOUS
 62
     1
 10
48.5
 20
218.499953791042
 30
0.0
 11
48.5
 21
220.49998430862
 31
0.0
  0
LINE
  5
    A1
  8
0
  6
CONTINUOUS
 62
     1
 10
49.5
 20
221.49998430862
 30
0.0
 11
61.0
 21
221.49998430862
 31
0.0
  0
LINE
  5
    A2
  8
0
  6
CONTINUOUS
 62
     1
 10
48.5
 20
213.499999567409
 30
0.0
 11
48.5
 21
218.49998430862
 31
0.0
  0
LINE
  5
    A3
  8
0
  6
CONTINUOUS
 62
     1
 10
85.0
 20
20.4999995674093
 30
0.0
 11
85.0
 21
66.4999995674093
 31
0.0
  0
LINE
  5
    A4
  8
0
  6
CONTINUOUS
 62
     1
 10
85.0
 20
228.499999567409
 30
0.0
 11
85.0
 21
274.499999567409
 31
0.0
  0
LINE
  5
    A5
  8
0
  6
CONTINUOUS
 62
     1
 10
65.0
 20
18.4999995674093
 30
0.0
 11
83.0
 21
18.4999995674093
 31
0.0
  0
LINE
  5
    A6
  8
0
  6
CONTINUOUS
 62
     1
 10
65.0
 20
68.4999995674093
 30
0.0
 11
83.0
 21
68.4999995674093
 31
0.0
  0
LINE
  5
    A7
  8
0
  6
CONTINUOUS
 62
     1
 10
65.0
 20
276.499999567409
 30
0.0
 11
83.0
 21
276.499999567409
 31
0.0
  0
LINE
  5
    A8
  8
0
  6
CONTINUOUS
 62
     1
 10
65.0
 20
226.499999567409
 30
0.0
 11
83.0
 21
226.499999567409
 31
0.0
  0
ARC
  5
    A9
  8
0
  6
CONTINUOUS
 62
     1
 10
64.9999165137627
 20
278.499791758427
 30
0.0
 40
1.99978487451056
 50
179.993632987589
 51
270.002663206323
  0
ARC
  5
    AA
  8
0
  6
CONTINUOUS
 62
     1
 10
82.9999340347904
 20
274.4999314475
 30
0.0
 40
2.0000757729629
 50
0.002355312465183
 51
89.9978053040706
  0
ARC
  5
    AB
  8
0
  6
CONTINUOUS
 62
     1
 10
82.9999116167853
 20
228.500087346486
 30
0.0
 40
2.00011549437606
 50
270.002897544432
 51
359.997857039135
  0
ARC
  5
    AC
  8
0
  6
CONTINUOUS
 62
     1
 10
64.9999184375488
 20
224.50012847784
 30
0.0
 40
1.99984640930379
 50
89.9973313750434
 51
180.003331076003
  0
ARC
  5
    AD
  8
0
  6
CONTINUOUS
 62
     1
 10
61.0000256605929
 20
223.499960071298
 30
0.0
 40
1.99997025751221
 50
269.999590543356
 51
360.001042404463
  0
ARC
  5
    AE
  8
0
  6
CONTINUOUS
 62
     1
 10
49.4998375253428
 20
220.500158338518
 30
0.0
 40
0.999767477268007
 50
90.0
 51
180.0
  0
ARC
  5
    AF
  8
0
  6
CONTINUOUS
 62
     1
 10
47.4999789081749
 20
218.49996520695
 30
0.0
 40
1.00002296670393
 50
270.001612621459
 51
359.998496043313
  0
ARC
  5
    B0
  8
0
  6
CONTINUOUS
 62
     1
 10
61.0000128593571
 20
71.5000155985656
 30
0.0
 40
1.99996077363452
 50
359.998963444352
 51
450.00007365585
  0
ARC
  5
    B1
  8
0
  6
CONTINUOUS
 62
     1
 10
65.0000025173283
 20
70.5000043721036
 30
0.0
 40
2.00000239651892
 50
180.000166916245
 51
270.000162708079
  0
ARC
  5
    B2
  8
0
  6
CONTINUOUS
 62
     1
 10
83.0000105972873
 20
66.500007360899
 30
0.0
 40
1.99998409967202
 50
359.99975548358
 51
450.00004232059
  0
ARC
  5
    B3
  8
0
  6
CONTINUOUS
 62
     1
 10
82.9999123216256
 20
20.500063832728
 30
0.0
 40
2.00010029490385
 50
270.002773926169
 51
359.998166697101
  0
ARC
  5
    B4
  8
0
  6
CONTINUOUS
 62
     1
 10
64.9999636318814
 20
16.5000487387311
 30
0.0
 40
1.9999391421224
 50
89.9987223290514
 51
180.001392964213
  0
ARC
  5
    B5
  8
0
  6
CONTINUOUS
 62
     1
 10
49.4999889213575
 20
74.4999564682283
 30
0.0
 40
0.999975386078343
 50
180.0
 51
270.0
  0
ARC
  5
    B6
  8
0
  6
CONTINUOUS
 62
     1
 10
47.5
 20
76.4999576057394
 30
0.0
 40
1.0
 50
0.0
 51
90.0
  0
LINE
  5
    B7
  8
0
  6
DASHDOT
 62
     1
 10
-4.2589963029921
 20
251.499999567409
 30
0.0
 11
89.4453946237602
 21
251.499999567409
 31
0.0
  0
LINE
  5
    B8
  8
0
  6
CONTINUOUS
 62
     1
 10
47.5
 20
85.4999919380148
 30
0.0
 11
47.5
 21
89.4999919380148
 31
0.0
  0
LINE
  5
    B9
  8
0
  6
CONTINUOUS
 62
     1
 10
47.5
 20
205.49998430862
 30
0.0
 11
47.5
 21
209.49998430862
 31
0.0
  0
LINE
  5
    BA
  8
0
  6
CONTINUOUS
 62
     1
 10
45.5
 20
209.49998430862
 30
0.0
 11
47.5
 21
209.49998430862
 31
0.0
  0
LINE
  5
    BB
  8
0
  6
CONTINUOUS
 62
     1
 10
45.5
 20
205.49998430862
 30
0.0
 11
47.5
 21
205.49998430862
 31
0.0
  0
LINE
  5
    BC
  8
0
  6
CONTINUOUS
 62
     1
 10
45.5
 20
89.4999919380148
 30
0.0
 11
47.5
 21
89.4999919380148
 31
0.0
  0
LINE
  5
    BD
  8
0
  6
CONTINUOUS
 62
     1
 10
45.5
 20
85.4999919380148
 30
0.0
 11
47.5
 21
85.4999919380148
 31
0.0
  0
LINE
  5
    BE
  8
0
  6
DASHDOT
 62
     1
 10
-4.2589963029921
 20
43.4999995674093
 30
0.0
 11
99.2454243656788
 21
43.4999995674093
 31
0.0
  0
ENDBLK
  5
    BF
  8
0
  6
CONTINUOUS
 62
     7
  0
BLOCK
  5
    C0
  8
0
  6
CONTINUOUS
 62
     7
  2
*HATCH360
 70
    65
 10
0.0
 20
0.0
 30
0.0
  3
*HATCH360
  0
LINE
  5
    C1
  8
0
  6
CONTINUOUS
 62
    52
 10
41.621337890625
 20
39.5000152587891
 30
0.0
 11
39.621337890625
 21
37.5000152587891
 31
0.0
  0
LINE
  5
    C2
  8
0
  6
CONTINUOUS
 62
    52
 10
45.8639755249023
 20
39.5000152587891
 30
0.0
 11
43.8639755249023
 21
37.5000152587891
 31
0.0
  0
LINE
  5
    C3
  8
0
  6
CONTINUOUS
 62
    52
 10
50.1066131591797
 20
39.5000152587891
 30
0.0
 11
48.1066131591797
 21
37.5000152587891
 31
0.0
  0
LINE
  5
    C4
  8
0
  6
CONTINUOUS
 62
    52
 10
54.349250793457
 20
39.5000152587891
 30
0.0
 11
52.349250793457
 21
37.5000152587891
 31
0.0
  0
LINE
  5
    C5
  8
0
  6
CONTINUOUS
 62
    52
 10
58.5918884277344
 20
39.5000152587891
 30
0.0
 11
56.5918884277344
 21
37.5000152587891
 31
0.0
  0
LINE
  5
    C6
  8
0
  6
CONTINUOUS
 62
    52
 10
62.8345260620117
 20
39.5000152587891
 30
0.0
 11
60.8345260620117
 21
37.5000152587891
 31
0.0
  0
LINE
  5
    C7
  8
0
  6
CONTINUOUS
 62
    52
 10
67.0771713256836
 20
39.5000152587891
 30
0.0
 11
65.0771636962891
 21
37.5000152587891
 31
0.0
  0
LINE
  5
    C8
  8
0
  6
CONTINUOUS
 62
    52
 10
71.3198165893555
 20
39.5000152587891
 30
0.0
 11
69.3198089599609
 21
37.5000152587891
 31
0.0
  0
LINE
  5
    C9
  8
0
  6
CONTINUOUS
 62
    52
 10
75.2372512817383
 20
39.1748008728027
 30
0.0
 11
73.5624618530273
 21
37.5000152587891
 31
0.0
  0
ENDBLK
  5
    CA
  8
0
  6
CONTINUOUS
 62
     7
  0
BLOCK
  5
    CB
  8
0
  6
CONTINUOUS
 62
     7
  2
*HATCH361
 70
    65
 10
0.0
 20
0.0
 30
0.0
  3
*HATCH361
  0
LINE
  5
    CC
  8
0
  6
CONTINUOUS
 62
    52
 10
-22.018274307251
 20
39.5000152587891
 30
0.0
 11
-24.018274307251
 21
37.5000152587891
 31
0.0
  0
LINE
  5
    CD
  8
0
  6
CONTINUOUS
 62
    52
 10
-17.7756328582764
 20
39.5000152587891
 30
0.0
 11
-19.7756328582764
 21
37.5000152587891
 31
0.0
  0
LINE
  5
    CE
  8
0
  6
CONTINUOUS
 62
    52
 10
-13.5329914093018
 20
39.5000152587891
 30
0.0
 11
-15.5329914093018
 21
37.5000152587891
 31
0.0
  0
LINE
  5
    CF
  8
0
  6
CONTINUOUS
 62
    52
 10
-9.29034996032715
 20
39.5000152587891
 30
0.0
 11
-11.2903499603271
 21
37.5000152587891
 31
0.0
  0
LINE
  5
    D0
  8
0
  6
CONTINUOUS
 62
    52
 10
-5.04770851135254
 20
39.5000152587891
 30
0.0
 11
-7.04770851135254
 21
37.5000152587891
 31
0.0
  0
LINE
  5
    D1
  8
0
  6
CONTINUOUS
 62
    52
 10
-0.805067539215088
 20
39.5000152587891
 30
0.0
 11
-2.80506730079651
 21
37.5000152587891
 31
0.0
  0
LINE
  5
    D2
  8
0
  6
CONTINUOUS
 62
    52
 10
3.43757343292236
 20
39.5000152587891
 30
0.0
 11
1.43757367134094
 21
37.5000152587891
 31
0.0
  0
LINE
  5
    D3
  8
0
  6
CONTINUOUS
 62
    52
 10
7.68021488189697
 20
39.5000152587891
 30
0.0
 11
5.68021488189697
 21
37.5000152587891
 31
0.0
  0
LINE
  5
    D4
  8
0
  6
CONTINUOUS
 62
    52
 10
11.9228563308716
 20
39.5000152587891
 30
0.0
 11
9.92285633087158
 21
37.5000152587891
 31
0.0
  0
LINE
  5
    D5
  8
0
  6
CONTINUOUS
 62
    52
 10
16.1654968261719
 20
39.5000152587891
 30
0.0
 11
14.1654977798462
 21
37.5000152587891
 31
0.0
  0
LINE
  5
    D6
  8
0
  6
CONTINUOUS
 62
    52
 10
20.4081382751465
 20
39.5000152587891
 30
0.0
 11
18.4081382751465
 21
37.5000152587891
 31
0.0
  0
LINE
  5
    D7
  8
0
  6
CONTINUOUS
 62
    52
 10
24.6507797241211
 20
39.5000152587891
 30
0.0
 11
22.6507797241211
 21
37.5000152587891
 31
0.0
  0
LINE
  5
    D8
  8
0
  6
CONTINUOUS
 62
    52
 10
28.8934211730957
 20
39.5000152587891
 30
0.0
 11
26.8934211730957
 21
37.5000152587891
 31
0.0
  0
ENDBLK
  5
    D9
  8
0
  6
CONTINUOUS
 62
     7
  0
BLOCK
  5
    DA
  8
0
  6
CONTINUOUS
 62
     7
  2
*HATCH362
 70
    65
 10
0.0
 20
0.0
 30
0.0
  3
*HATCH362
  0
LINE
  5
    DB
  8
0
  6
CONTINUOUS
 62
    52
 10
128.595474243164
 20
39.5000152587891
 30
0.0
 11
126.595474243164
 21
37.5000114440918
 31
0.0
  0
LINE
  5
    DC
  8
0
  6
CONTINUOUS
 62
    52
 10
132.838119506836
 20
39.5000152587891
 30
0.0
 11
130.838119506836
 21
37.5000114440918
 31
0.0
  0
LINE
  5
    DD
  8
0
  6
CONTINUOUS
 62
    52
 10
137.080764770508
 20
39.5000152587891
 30
0.0
 11
135.080764770508
 21
37.5000114440918
 31
0.0
  0
LINE
  5
    DE
  8
0
  6
CONTINUOUS
 62
    52
 10
141.32341003418
 20
39.5000152587891
 30
0.0
 11
139.32341003418
 21
37.5000114440918
 31
0.0
  0
LINE
  5
    DF
  8
0
  6
CONTINUOUS
 62
    52
 10
145.566055297852
 20
39.5000152587891
 30
0.0
 11
143.566055297852
 21
37.5000114440918
 31
0.0
  0
LINE
  5
    E0
  8
0
  6
CONTINUOUS
 62
    52
 10
149.808700561523
 20
39.5000152587891
 30
0.0
 11
147.808700561523
 21
37.5000114440918
 31
0.0
  0
LINE
  5
    E1
  8
0
  6
CONTINUOUS
 62
    52
 10
154.051345825195
 20
39.5000152587891
 30
0.0
 11
152.051345825195
 21
37.5000114440918
 31
0.0
  0
LINE
  5
    E2
  8
0
  6
CONTINUOUS
 62
    52
 10
158.293991088867
 20
39.5000152587891
 30
0.0
 11
156.293991088867
 21
37.5000114440918
 31
0.0
  0
LINE
  5
    E3
  8
0
  6
CONTINUOUS
 62
    52
 10
162.536636352539
 20
39.5000152587891
 30
0.0
 11
160.536636352539
 21
37.5000114440918
 31
0.0
  0
LINE
  5
    E4
  8
0
  6
CONTINUOUS
 62
    52
 10
166.779281616211
 20
39.5000152587891
 30
0.0
 11
164.779281616211
 21
37.5000114440918
 31
0.0
  0
LINE
  5
    E5
  8
0
  6
CONTINUOUS
 62
    52
 10
171.021926879883
 20
39.5000152587891
 30
0.0
 11
169.021926879883
 21
37.5000114440918
 31
0.0
  0
LINE
  5
    E6
  8
0
  6
CONTINUOUS
 62
    52
 10
175.264572143555
 20
39.5000152587891
 30
0.0
 11
173.264572143555
 21
37.5000114440918
 31
0.0
  0
LINE
  5
    E7
  8
0
  6
CONTINUOUS
 62
    52
 10
179.507217407227
 20
39.5000152587891
 30
0.0
 11
177.507217407227
 21
37.5000114440918
 31
0.0
  0
LINE
  5
    E8
  8
0
  6
CONTINUOUS
 62
    52
 10
183.749862670898
 20
39.5000152587891
 30
0.0
 11
181.749862670898
 21
37.5000114440918
 31
0.0
  0
LINE
  5
    E9
  8
0
  6
CONTINUOUS
 62
    52
 10
187.99250793457
 20
39.5000152587891
 30
0.0
 11
185.99250793457
 21
37.5000114440918
 31
0.0
  0
LINE
  5
    EA
  8
0
  6
CONTINUOUS
 62
    52
 10
192.235153198242
 20
39.5000152587891
 30
0.0
 11
190.235153198242
 21
37.5000114440918
 31
0.0
  0
LINE
  5
    EB
  8
0
  6
CONTINUOUS
 62
    52
 10
196.477798461914
 20
39.5000152587891
 30
0.0
 11
194.477798461914
 21
37.5000114440918
 31
0.0
  0
LINE
  5
    EC
  8
0
  6
CONTINUOUS
 62
    52
 10
200.720443725586
 20
39.5000152587891
 30
0.0
 11
198.720443725586
 21
37.5000114440918
 31
0.0
  0
LINE
  5
    ED
  8
0
  6
CONTINUOUS
 62
    52
 10
204.963088989258
 20
39.5000152587891
 30
0.0
 11
202.963088989258
 21
37.5000114440918
 31
0.0
  0
LINE
  5
    EE
  8
0
  6
CONTINUOUS
 62
    52
 10
207.737045288086
 20
38.0314140319824
 30
0.0
 11
207.205642700195
 21
37.5000114440918
 31
0.0
  0
ENDBLK
  5
    EF
  8
0
  6
CONTINUOUS
 62
     7
  0
BLOCK
  5
    F0
  8
0
  6
CONTINUOUS
 62
     7
  2
*HATCH363
 70
    65
 10
0.0
 20
0.0
 30
0.0
  3
*HATCH363
  0
LINE
  5
    F1
  8
0
  6
CONTINUOUS
 62
    52
 10
217.691177368164
 20
39.5002555847168
 30
0.0
 11
215.694412231445
 21
37.503490447998
 31
0.0
  0
LINE
  5
    F2
  8
0
  6
CONTINUOUS
 62
    52
 10
221.934158325195
 20
39.5005989074707
 30
0.0
 11
219.952499389648
 21
37.5189399719238
 31
0.0
  0
LINE
  5
    F3
  8
0
  6
CONTINUOUS
 62
    52
 10
226.177139282227
 20
39.5009422302246
 30
0.0
 11
224.210586547852
 21
37.5343894958496
 31
0.0
  0
LINE
  5
    F4
  8
0
  6
CONTINUOUS
 62
    52
 10
230.420120239258
 20
39.5012855529785
 30
0.0
 11
228.468673706055
 21
37.5498390197754
 31
0.0
  0
LINE
  5
    F5
  8
0
  6
CONTINUOUS
 62
    52
 10
234.663101196289
 20
39.5016288757324
 30
0.0
 11
232.726760864258
 21
37.5652885437012
 31
0.0
  0
LINE
  5
    F6
  8
0
  6
CONTINUOUS
 62
    52
 10
238.90608215332
 20
39.5019721984863
 30
0.0
 11
236.984848022461
 21
37.580738067627
 31
0.0
  0
LINE
  5
    F7
  8
0
  6
CONTINUOUS
 62
    52
 10
243.149063110352
 20
39.5023155212402
 30
0.0
 11
241.242935180664
 21
37.5961875915527
 31
0.0
  0
LINE
  5
    F8
  8
0
  6
CONTINUOUS
 62
    52
 10
247.392044067383
 20
39.5026588439941
 30
0.0
 11
245.501022338867
 21
37.6116371154785
 31
0.0
  0
LINE
  5
    F9
  8
0
  6
CONTINUOUS
 62
    52
 10
251.635025024414
 20
39.503002166748
 30
0.0
 11
249.75910949707
 21
37.6270866394043
 31
0.0
  0
LINE
  5
    FA
  8
0
  6
CONTINUOUS
 62
    52
 10
255.878005981445
 20
39.503345489502
 30
0.0
 11
254.017196655273
 21
37.6425361633301
 31
0.0
  0
LINE
  5
    FB
  8
0
  6
CONTINUOUS
 62
    52
 10
260.121002197266
 20
39.5036888122559
 30
0.0
 11
258.275299072266
 21
37.6579856872559
 31
0.0
  0
LINE
  5
    FC
  8
0
  6
CONTINUOUS
 62
    52
 10
264.363983154297
 20
39.5040321350098
 30
0.0
 11
262.533416748047
 21
37.6734352111816
 31
0.0
  0
LINE
  5
    FD
  8
0
  6
CONTINUOUS
 62
    52
 10
268.606964111328
 20
39.5043754577637
 30
0.0
 11
266.791534423828
 21
37.6888847351074
 31
0.0
  0
LINE
  5
    FE
  8
0
  6
CONTINUOUS
 62
    52
 10
272.849945068359
 20
39.5047187805176
 30
0.0
 11
271.049652099609
 21
37.7043342590332
 31
0.0
  0
LINE
  5
    FF
  8
0
  6
CONTINUOUS
 62
    52
 10
277.092926025391
 20
39.5050621032715
 30
0.0
 11
275.307769775391
 21
37.719783782959
 31
0.0
  0
LINE
  5
   100
  8
0
  6
CONTINUOUS
 62
    52
 10
281.335906982422
 20
39.5054054260254
 30
0.0
 11
279.565887451172
 21
37.7352333068848
 31
0.0
  0
LINE
  5
   101
  8
0
  6
CONTINUOUS
 62
    52
 10
285.578887939453
 20
39.5057487487793
 30
0.0
 11
283.824005126953
 21
37.7506828308105
 31
0.0
  0
LINE
  5
   102
  8
0
  6
CONTINUOUS
 62
    52
 10
289.821868896484
 20
39.5060920715332
 30
0.0
 11
288.082122802734
 21
37.7661323547363
 31
0.0
  0
LINE
  5
   103
  8
0
  6
CONTINUOUS
 62
    52
 10
294.064849853516
 20
39.5064353942871
 30
0.0
 11
292.340240478516
 21
37.7815818786621
 31
0.0
  0
LINE
  5
   104
  8
0
  6
CONTINUOUS
 62
    52
 10
298.307830810547
 20
39.506778717041
 30
0.0
 11
296.598358154297
 21
37.7970314025879
 31
0.0
  0
LINE
  5
   105
  8
0
  6
CONTINUOUS
 62
    52
 10
302.550811767578
 20
39.5071220397949
 30
0.0
 11
300.856475830078
 21
37.8124809265137
 31
0.0
  0
LINE
  5
   106
  8
0
  6
CONTINUOUS
 62
    52
 10
306.793792724609
 20
39.5074653625488
 30
0.0
 11
305.114593505859
 21
37.8279304504395
 31
0.0
  0
LINE
  5
   107
  8
0
  6
CONTINUOUS
 62
    52
 10
311.036773681641
 20
39.5078086853027
 30
0.0
 11
309.372711181641
 21
37.8433799743652
 31
0.0
  0
LINE
  5
   108
  8
0
  6
CONTINUOUS
 62
    52
 10
315.279754638672
 20
39.5081520080566
 30
0.0
 11
313.630828857422
 21
37.858829498291
 31
0.0
  0
LINE
  5
   109
  8
0
  6
CONTINUOUS
 62
    52
 10
319.522735595703
 20
39.5084953308105
 30
0.0
 11
317.888946533203
 21
37.8742790222168
 31
0.0
  0
LINE
  5
   10A
  8
0
  6
CONTINUOUS
 62
    52
 10
323.765716552734
 20
39.5088386535645
 30
0.0
 11
322.147064208984
 21
37.8897285461426
 31
0.0
  0
LINE
  5
   10B
  8
0
  6
CONTINUOUS
 62
    52
 10
328.008697509766
 20
39.5091819763184
 30
0.0
 11
326.405181884766
 21
37.9051780700684
 31
0.0
  0
LINE
  5
   10C
  8
0
  6
CONTINUOUS
 62
    52
 10
332.251678466797
 20
39.5095252990723
 30
0.0
 11
330.663299560547
 21
37.9206275939941
 31
0.0
  0
LINE
  5
   10D
  8
0
  6
CONTINUOUS
 62
    52
 10
336.494659423828
 20
39.5098686218262
 30
0.0
 11
334.921417236328
 21
37.9360771179199
 31
0.0
  0
LINE
  5
   10E
  8
0
  6
CONTINUOUS
 62
    52
 10
340.737640380859
 20
39.5102119445801
 30
0.0
 11
339.179534912109
 21
37.9515266418457
 31
0.0
  0
LINE
  5
   10F
  8
0
  6
CONTINUOUS
 62
    52
 10
344.980621337891
 20
39.510555267334
 30
0.0
 11
343.437652587891
 21
37.9669761657715
 31
0.0
  0
LINE
  5
   110
  8
0
  6
CONTINUOUS
 62
    52
 10
349.223602294922
 20
39.5108985900879
 30
0.0
 11
347.695770263672
 21
37.9824256896973
 31
0.0
  0
LINE
  5
   111
  8
0
  6
CONTINUOUS
 62
    52
 10
353.466583251953
 20
39.5112419128418
 30
0.0
 11
351.953887939453
 21
37.997875213623
 31
0.0
  0
LINE
  5
   112
  8
0
  6
CONTINUOUS
 62
    52
 10
357.709564208984
 20
39.5115852355957
 30
0.0
 11
356.212005615234
 21
38.0133247375488
 31
0.0
  0
LINE
  5
   113
  8
0
  6
CONTINUOUS
 62
    52
 10
361.952545166016
 20
39.5119285583496
 30
0.0
 11
360.470123291016
 21
38.0287742614746
 31
0.0
  0
LINE
  5
   114
  8
0
  6
CONTINUOUS
 62
    52
 10
366.195526123047
 20
39.5122718811035
 30
0.0
 11
364.728240966797
 21
38.0442237854004
 31
0.0
  0
LINE
  5
   115
  8
0
  6
CONTINUOUS
 62
    52
 10
370.438507080078
 20
39.5126152038574
 30
0.0
 11
368.986358642578
 21
38.0596733093262
 31
0.0
  0
LINE
  5
   116
  8
0
  6
CONTINUOUS
 62
    52
 10
374.681488037109
 20
39.5129585266113
 30
0.0
 11
373.244476318359
 21
38.075122833252
 31
0.0
  0
LINE
  5
   117
  8
0
  6
CONTINUOUS
 62
    52
 10
378.924468994141
 20
39.5133018493652
 30
0.0
 11
377.502593994141
 21
38.0905723571777
 31
0.0
  0
LINE
  5
   118
  8
0
  6
CONTINUOUS
 62
    52
 10
382.896850585938
 20
39.2429428100586
 30
0.0
 11
381.760040283203
 21
38.1061325073242
 31
0.0
  0
ENDBLK
  5
   119
  8
0
  6
CONTINUOUS
 62
     7
  0
BLOCK
  5
   11A
  8
0
  6
CONTINUOUS
 62
     7
  2
*HATCH364
 70
    65
 10
0.0
 20
0.0
 30
0.0
  3
*HATCH364
  0
LINE
  5
   11B
  8
0
  6
CONTINUOUS
 62
    52
 10
198.084335327148
 20
30.5000228881836
 30
0.0
 11
195.584335327148
 21
28.0000171661377
 31
0.0
  0
LINE
  5
   11C
  8
0
  6
CONTINUOUS
 62
    52
 10
202.32698059082
 20
30.5000228881836
 30
0.0
 11
199.82698059082
 21
28.0000171661377
 31
0.0
  0
ENDBLK
  5
   11D
  8
0
  6
CONTINUOUS
 62
     7
  0
BLOCK
  5
   11E
  8
0
  6
CONTINUOUS
 62
     7
  2
*UDIM1956
 70
    65
 10
0.0
 20
0.0
 30
0.0
  3
*UDIM1956
  0
TEXT
  5
   11F
  8
0
  6
CONTINUOUS
 62
     7
 10
156.551127514088
 20
71.5105634546902
 30
0.0
 40
2.4999999335834
  1
295
 50
89.9999999480344
 41
0.933333333333333
 72
     1
 11
155.30112755024
 21
74.7605633694807
 31
0.0
 73
     2
  0
LINE
  5
   120
  8
0
  6
CONTINUOUS
 62
     7
 10
115.664875653387
 20
23.3647411386061
 30
0.0
 11
159.551127517032
 21
23.3647411386061
 31
0.0
  0
LINE
  5
   121
  8
0
  6
CONTINUOUS
 62
     7
 10
115.664875653392
 20
126.614722601503
 30
0.0
 11
159.551127517032
 21
126.614722601503
 31
0.0
  0
LINE
  5
   122
  8
0
  6
CONTINUOUS
 62
     7
 10
157.551127517032
 20
23.3647411386061
 30
0.0
 11
157.551127517032
 21
126.614722601503
 31
0.0
  0
LINE
  5
   123
  8
0
  6
CONTINUOUS
 62
     7
 10
157.030182999032
 20
26.3191644002878
 30
0.0
 11
157.551127517032
 21
23.3647411386061
 31
0.0
  0
LINE
  5
   124
  8
0
  6
CONTINUOUS
 62
     7
 10
157.551127517032
 20
23.3647411386061
 30
0.0
 11
158.072072035032
 21
26.3191644002878
 31
0.0
  0
LINE
  5
   125
  8
0
  6
CONTINUOUS
 62
     7
 10
158.072072035032
 20
123.660299339821
 30
0.0
 11
157.551127517032
 21
126.614722601503
 31
0.0
  0
LINE
  5
   126
  8
0
  6
CONTINUOUS
 62
     7
 10
157.551127517032
 20
126.614722601503
 30
0.0
 11
157.030182999032
 21
123.660299339821
 31
0.0
  0
ENDBLK
  5
   127
  8
0
  6
CONTINUOUS
 62
     7
  0
BLOCK
  5
   128
  8
0
  6
CONTINUOUS
 62
     7
  2
*UDIM1957
 70
    65
 10
0.0
 20
0.0
 30
0.0
  3
*UDIM1957
  0
TEXT
  5
   129
  8
0
  6
CONTINUOUS
 62
     7
 10
150.492938225169
 20
48.2355718518163
 30
0.0
 40
2.4999999335834
  1
162
 50
89.9999999480344
 41
0.933333333333333
 72
     1
 11
149.242938261321
 21
51.4855717666068
 31
0.0
 73
     2
  0
LINE
  5
   12A
  8
0
  6
CONTINUOUS
 62
     7
 10
115.664875653387
 20
23.3647411386061
 30
0.0
 11
153.492938228113
 21
23.3647411386061
 31
0.0
  0
LINE
  5
   12B
  8
0
  6
CONTINUOUS
 62
     7
 10
127.443258176704
 20
80.0647360161719
 30
0.0
 11
153.492938228113
 21
80.0647360161719
 31
0.0
  0
LINE
  5
   12C
  8
0
  6
CONTINUOUS
 62
     7
 10
151.492938228113
 20
23.3647411386061
 30
0.0
 11
151.492938228113
 21
80.0647360161719
 31
0.0
  0
LINE
  5
   12D
  8
0
  6
CONTINUOUS
 62
     7
 10
150.971993710112
 20
26.3191644002878
 30
0.0
 11
151.492938228113
 21
23.3647411386061
 31
0.0
  0
LINE
  5
   12E
  8
0
  6
CONTINUOUS
 62
     7
 10
151.492938228113
 20
23.3647411386061
 30
0.0
 11
152.013882746113
 21
26.3191644002878
 31
0.0
  0
LINE
  5
   12F
  8
0
  6
CONTINUOUS
 62
     7
 10
152.013882746113
 20
77.1103127544903
 30
0.0
 11
151.492938228113
 21
80.0647360161719
 31
0.0
  0
LINE
  5
   130
  8
0
  6
CONTINUOUS
 62
     7
 10
151.492938228113
 20
80.0647360161719
 30
0.0
 11
150.971993710112
 21
77.1103127544903
 31
0.0
  0
ENDBLK
  5
   131
  8
0
  6
CONTINUOUS
 62
     7
  0
BLOCK
  5
   132
  8
0
  6
CONTINUOUS
 62
     7
  2
*UDIM1958
 70
    65
 10
0.0
 20
0.0
 30
0.0
  3
*UDIM1958
  0
TEXT
  5
   133
  8
0
  6
CONTINUOUS
 62
     7
 10
61.0299785094067
 20
82.7432290212575
 30
0.0
 40
2.4999999335834
  1
5,5
 50
413.646022801847
 41
0.933333333333333
 72
     1
 11
61.9497752691294
 21
86.1016472913011
 31
0.0
 73
     2
  0
TEXT
  5
   134
  8
0
  6
CONTINUOUS
 62
     7
 10
59.4739515976298
 20
80.6291322641458
 30
0.0
 40
2.4999999335834
  1
Ø
 50
413.646022801847
 41
0.933333333333333
 72
     1
 11
59.0106133430138
 21
82.108353448391
 31
0.0
 73
     2
  0
LINE
  5
   135
  8
0
  6
CONTINUOUS
 62
     7
 10
55.9943269785676
 20
74.2145497105199
 30
0.0
 11
65.6883676777889
 21
87.3853630274577
 31
0.0
  0
LINE
  5
   136
  8
0
  6
CONTINUOUS
 62
     7
 10
54.6625802997588
 20
71.5263438434998
 30
0.0
 11
55.9943269785676
 21
74.2145497105199
 31
0.0
  0
LINE
  5
   137
  8
0
  6
CONTINUOUS
 62
     7
 10
55.9943269785676
 20
74.2145497105199
 30
0.0
 11
53.8234739168337
 21
72.1439466620433
 31
0.0
  0
LINE
  5
   138
  8
0
  6
CONTINUOUS
 62
     7
 10
58.467160681571
 20
78.4530940422067
 30
0.0
 11
57.1354140027621
 21
75.7648881751865
 31
0.0
  0
LINE
  5
   139
  8
0
  6
CONTINUOUS
 62
     7
 10
57.1354140027621
 20
75.7648881751865
 30
0.0
 11
59.306267064496
 21
77.8354912236631
 31
0.0
  0
ENDBLK
  5
   13A
  8
0
  6
CONTINUOUS
 62
     7
  0
BLOCK
  5
   13B
  8
0
  6
CONTINUOUS
 62
     7
  2
*UDIM1959
 70
    65
 10
0.0
 20
0.0
 30
0.0
  3
*UDIM1959
  0
TEXT
  5
   13C
  8
0
  6
CONTINUOUS
 62
     7
 10
26.6251937881282
 20
18.8701627232437
 30
0.0
 40
2.4999999335834
  1
27,5
 50
359.999999948034
 41
0.933333333333333
 72
     1
 11
31.0418603385863
 21
20.1201626860518
 31
0.0
 73
     2
  0
LINE
  5
   13D
  8
0
  6
CONTINUOUS
 62
     7
 10
46.5898888289929
 20
44.7647366002974
 30
0.0
 11
46.5898888289929
 21
15.8701627192601
 31
0.0
  0
LINE
  5
   13E
  8
0
  6
CONTINUOUS
 62
     7
 10
36.9648889929057
 20
54.5647364334044
 30
0.0
 11
36.9648889929057
 21
15.8701627192601
 31
0.0
  0
LINE
  5
   13F
  8
0
  6
CONTINUOUS
 62
     7
 10
46.5898888289929
 20
17.8701627192601
 30
0.0
 11
26.6251937892556
 21
17.8701627192601
 31
0.0
  0
LINE
  5
   140
  8
0
  6
CONTINUOUS
 62
     7
 10
49.5443120906745
 20
18.3911072372604
 30
0.0
 11
46.5898888289929
 21
17.8701627192601
 31
0.0
  0
LINE
  5
   141
  8
0
  6
CONTINUOUS
 62
     7
 10
46.5898888289929
 20
17.8701627192601
 30
0.0
 11
49.5443120906745
 21
17.3492182012597
 31
0.0
  0
LINE
  5
   142
  8
0
  6
CONTINUOUS
 62
     7
 10
34.0104657312241
 20
17.3492182012597
 30
0.0
 11
36.9648889929057
 21
17.8701627192601
 31
0.0
  0
LINE
  5
   143
  8
0
  6
CONTINUOUS
 62
     7
 10
36.9648889929057
 20
17.8701627192601
 30
0.0
 11
34.0104657312241
 21
18.3911072372604
 31
0.0
  0
ENDBLK
  5
   144
  8
0
  6
CONTINUOUS
 62
     7
  0
BLOCK
  5
   145
  8
0
  6
CONTINUOUS
 62
     7
  2
*UDIM1960
 70
    65
 10
0.0
 20
0.0
 30
0.0
  3
*UDIM1960
  0
TEXT
  5
   146
  8
0
  6
CONTINUOUS
 62
     7
 10
78.2857155796966
 20
182.853065317458
 30
0.0
 40
2.4999999335834
  1
190
 50
359.999999948034
 41
0.933333333333333
 72
     1
 11
81.5357154944825
 21
184.103065281318
 31
0.0
 73
     2
  0
LINE
  5
   147
  8
0
  6
CONTINUOUS
 62
     7
 10
115.014875647426
 20
172.120666506207
 30
0.0
 11
115.014875647426
 21
183.853065314526
 31
0.0
  0
LINE
  5
   148
  8
0
  6
CONTINUOUS
 62
     7
 10
48.5148874610663
 20
172.32422388407
 30
0.0
 11
48.5148874610663
 21
183.853065314526
 31
0.0
  0
LINE
  5
   149
  8
0
  6
CONTINUOUS
 62
     7
 10
115.014875647426
 20
181.853065314526
 30
0.0
 11
48.5148874610663
 21
181.853065314526
 31
0.0
  0
LINE
  5
   14A
  8
0
  6
CONTINUOUS
 62
     7
 10
112.060452385744
 20
181.332120796526
 30
0.0
 11
115.014875647426
 21
181.853065314526
 31
0.0
  0
LINE
  5
   14B
  8
0
  6
CONTINUOUS
 62
     7
 10
115.014875647426
 20
181.853065314526
 30
0.0
 11
112.060452385744
 21
182.374009832527
 31
0.0
  0
LINE
  5
   14C
  8
0
  6
CONTINUOUS
 62
     7
 10
51.469310722748
 20
182.374009832527
 30
0.0
 11
48.5148874610663
 21
181.853065314526
 31
0.0
  0
LINE
  5
   14D
  8
0
  6
CONTINUOUS
 62
     7
 10
48.5148874610663
 20
181.853065314526
 30
0.0
 11
51.469310722748
 21
181.332120796526
 31
0.0
  0
ENDBLK
  5
   14E
  8
0
  6
CONTINUOUS
 62
     7
  0
BLOCK
  5
   14F
  8
0
  6
CONTINUOUS
 62
     7
  2
*UDIM1961
 70
    65
 10
0.0
 20
0.0
 30
0.0
  3
*UDIM1961
  0
TEXT
  5
   150
  8
0
  6
CONTINUOUS
 62
     7
 10
42.5232202364797
 20
182.853065315353
 30
0.0
 40
2.4999999335834
  1
2
 50
359.999999948034
 41
0.933333333333333
 72
     1
 11
43.4398868799211
 21
184.103065281318
 31
0.0
 73
     2
  0
LINE
  5
   151
  8
0
  6
CONTINUOUS
 62
     7
 10
47.8148874729873
 20
172.516159364672
 30
0.0
 11
47.8148874729873
 21
183.853065314526
 31
0.0
  0
LINE
  5
   152
  8
0
  6
CONTINUOUS
 62
     7
 10
48.5148874610663
 20
181.853065314526
 30
0.0
 11
42.5232202376072
 21
181.853065314526
 31
0.0
  0
LINE
  5
   153
  8
0
  6
CONTINUOUS
 62
     7
 10
51.469310722748
 20
182.374009832527
 30
0.0
 11
48.5148874610663
 21
181.853065314526
 31
0.0
  0
LINE
  5
   154
  8
0
  6
CONTINUOUS
 62
     7
 10
48.5148874610663
 20
181.853065314526
 30
0.0
 11
51.469310722748
 21
181.332120796526
 31
0.0
  0
LINE
  5
   155
  8
0
  6
CONTINUOUS
 62
     7
 10
44.8604642113057
 20
181.332120796526
 30
0.0
 11
47.8148874729873
 21
181.853065314526
 31
0.0
  0
LINE
  5
   156
  8
0
  6
CONTINUOUS
 62
     7
 10
47.8148874729873
 20
181.853065314526
 30
0.0
 11
44.8604642113057
 21
182.374009832527
 31
0.0
  0
ENDBLK
  5
   157
  8
0
  6
CONTINUOUS
 62
     7
  0
BLOCK
  5
   158
  8
0
  6
CONTINUOUS
 62
     7
  2
*UDIM1962
 70
    65
 10
0.0
 20
0.0
 30
0.0
  3
*UDIM1962
  0
TEXT
  5
   159
  8
0
  6
CONTINUOUS
 62
     7
 10
82.3107048122882
 20
176.836468435056
 30
0.0
 40
2.4999999335834
  1
167
 50
359.999999948034
 41
0.933333333333333
 72
     1
 11
85.560704727074
 21
178.086468398917
 31
0.0
 73
     2
  0
LINE
  5
   15A
  8
0
  6
CONTINUOUS
 62
     7
 10
115.014875647426
 20
172.120666506207
 30
0.0
 11
115.014875647426
 21
177.836468432125
 31
0.0
  0
LINE
  5
   15B
  8
0
  6
CONTINUOUS
 62
     7
 10
56.5648706409768
 20
79.8397183950809
 30
0.0
 11
56.5648706409768
 21
177.836468432125
 31
0.0
  0
LINE
  5
   15C
  8
0
  6
CONTINUOUS
 62
     7
 10
115.014875647426
 20
175.836468432125
 30
0.0
 11
56.5648706409768
 21
175.836468432125
 31
0.0
  0
LINE
  5
   15D
  8
0
  6
CONTINUOUS
 62
     7
 10
112.060452385744
 20
175.315523914125
 30
0.0
 11
115.014875647426
 21
175.836468432125
 31
0.0
  0
LINE
  5
   15E
  8
0
  6
CONTINUOUS
 62
     7
 10
115.014875647426
 20
175.836468432125
 30
0.0
 11
112.060452385744
 21
176.357412950125
 31
0.0
  0
LINE
  5
   15F
  8
0
  6
CONTINUOUS
 62
     7
 10
59.5192939026584
 20
176.357412950125
 30
0.0
 11
56.5648706409768
 21
175.836468432125
 31
0.0
  0
LINE
  5
   160
  8
0
  6
CONTINUOUS
 62
     7
 10
56.5648706409768
 20
175.836468432125
 30
0.0
 11
59.5192939026584
 21
175.315523914125
 31
0.0
  0
ENDBLK
  5
   161
  8
0
  6
CONTINUOUS
 62
     7
  0
BLOCK
  5
   162
  8
0
  6
CONTINUOUS
 62
     7
  2
*UDIM1963
 70
    65
 10
0.0
 20
0.0
 30
0.0
  3
*UDIM1963
  0
TEXT
  5
   163
  8
0
  6
CONTINUOUS
 62
     7
 10
131.591475229188
 20
71.5105687929004
 30
0.0
 40
2.4999999335834
  1
145
 50
89.9999999480344
 41
0.933333333333333
 72
     1
 11
130.34147526534
 21
74.7605687076909
 31
0.0
 73
     2
  0
LINE
  5
   164
  8
0
  6
CONTINUOUS
 62
     7
 10
123.014875528217
 20
49.6147351995883
 30
0.0
 11
134.591475232131
 21
49.6147351995883
 31
0.0
  0
LINE
  5
   165
  8
0
  6
CONTINUOUS
 62
     7
 10
123.014875528217
 20
100.364734335321
 30
0.0
 11
134.591475232131
 21
100.364734335321
 31
0.0
  0
LINE
  5
   166
  8
0
  6
CONTINUOUS
 62
     7
 10
132.591475232131
 20
49.6147351995883
 30
0.0
 11
132.591475232131
 21
100.364734335321
 31
0.0
  0
LINE
  5
   167
  8
0
  6
CONTINUOUS
 62
     7
 10
132.070530714131
 20
52.5691584612699
 30
0.0
 11
132.591475232131
 21
49.6147351995883
 31
0.0
  0
LINE
  5
   168
  8
0
  6
CONTINUOUS
 62
     7
 10
132.591475232131
 20
49.6147351995883
 30
0.0
 11
133.112419750132
 21
52.5691584612699
 31
0.0
  0
LINE
  5
   169
  8
0
  6
CONTINUOUS
 62
     7
 10
133.112419750132
 20
97.4103110736393
 30
0.0
 11
132.591475232131
 21
100.364734335321
 31
0.0
  0
LINE
  5
   16A
  8
0
  6
CONTINUOUS
 62
     7
 10
132.591475232131
 20
100.364734335321
 30
0.0
 11
132.070530714131
 21
97.4103110736393
 31
0.0
  0
ENDBLK
  5
   16B
  8
0
  6
CONTINUOUS
 62
     7
  0
BLOCK
  5
   16C
  8
0
  6
CONTINUOUS
 62
     7
  2
*UDIM1964
 70
    65
 10
0.0
 20
0.0
 30
0.0
  3
*UDIM1964
  0
TEXT
  5
   16D
  8
0
  6
CONTINUOUS
 62
     7
 10
139.434299295089
 20
51.0559478142293
 30
0.0
 40
2.4999999335834
  1
14
 50
430.959572783171
 41
0.933333333333333
 72
     1
 11
138.932345237586
 21
53.4330930744732
 31
0.0
 73
     2
  0
TEXT
  5
   16E
  8
0
  6
CONTINUOUS
 62
     7
 10
138.57793185535
 20
48.5745652043204
 30
0.0
 40
2.4999999335834
  1
Ø
 50
430.959572783171
 41
0.933333333333333
 72
     1
 11
137.695370051347
 21
49.8488737667278
 31
0.0
 73
     2
  0
LINE
  5
   16F
  8
0
  6
CONTINUOUS
 62
     7
 10
135.390599013631
 20
36.2737796342236
 30
0.0
 11
141.738901297593
 21
54.6684150890781
 31
0.0
  0
LINE
  5
   170
  8
0
  6
CONTINUOUS
 62
     7
 10
134.919205019907
 20
33.3110464868274
 30
0.0
 11
135.390599013631
 21
36.2737796342236
 31
0.0
  0
LINE
  5
   171
  8
0
  6
CONTINUOUS
 62
     7
 10
135.390599013631
 20
36.2737796342236
 30
0.0
 11
133.934319167171
 21
33.6509473847662
 31
0.0
  0
LINE
  5
   172
  8
0
  6
CONTINUOUS
 62
     7
 10
137.460545553729
 20
43.8684269581465
 30
0.0
 11
136.989151560004
 21
40.9056938107503
 31
0.0
  0
LINE
  5
   173
  8
0
  6
CONTINUOUS
 62
     7
 10
136.989151560004
 20
40.9056938107503
 30
0.0
 11
138.445431406465
 21
43.5285260602076
 31
0.0
  0
ENDBLK
  5
   174
  8
0
  6
CONTINUOUS
 62
     7
  0
BLOCK
  5
   175
  8
0
  6
CONTINUOUS
 62
     7
  2
*UDIM1965
 70
    65
 10
0.0
 20
0.0
 30
0.0
  3
*UDIM1965
  0
TEXT
  5
   176
  8
0
  6
CONTINUOUS
 62
     7
 10
131.393537458957
 20
31.9725016860926
 30
0.0
 40
2.4999999335834
  1
40
 50
89.9999999480344
 41
0.933333333333333
 72
     1
 11
130.143537494052
 21
34.0558349652109
 31
0.0
 73
     2
  0
LINE
  5
   177
  8
0
  6
CONTINUOUS
 62
     7
 10
132.393537460844
 20
31.5897368416962
 30
0.0
 11
132.393537460844
 21
45.5897366032776
 31
0.0
  0
LINE
  5
   178
  8
0
  6
CONTINUOUS
 62
     7
 10
132.914481978844
 20
28.6353135800146
 30
0.0
 11
132.393537460844
 21
31.5897368416962
 31
0.0
  0
LINE
  5
   179
  8
0
  6
CONTINUOUS
 62
     7
 10
132.393537460844
 20
31.5897368416962
 30
0.0
 11
131.872592942844
 21
28.6353135800146
 31
0.0
  0
LINE
  5
   17A
  8
0
  6
CONTINUOUS
 62
     7
 10
131.872592942844
 20
48.5441598649592
 30
0.0
 11
132.393537460844
 21
45.5897366032776
 31
0.0
  0
LINE
  5
   17B
  8
0
  6
CONTINUOUS
 62
     7
 10
132.393537460844
 20
45.5897366032776
 30
0.0
 11
132.914481978844
 21
48.5441598649592
 31
0.0
  0
ENDBLK
  5
   17C
  8
0
  6
CONTINUOUS
 62
     7
  0
BLOCK
  5
   17D
  8
0
  6
CONTINUOUS
 62
     7
  2
*UDIM1966
 70
    65
 10
0.0
 20
0.0
 30
0.0
  3
*UDIM1966
  0
TEXT
  5
   17E
  8
0
  6
CONTINUOUS
 62
     7
 10
146.169040848607
 20
151.289032345637
 30
0.0
 40
2.4999999335834
  1
20
 50
359.999999948034
 41
0.933333333333333
 72
     1
 11
148.25237412772
 21
152.539032310549
 31
0.0
 73
     2
  0
LINE
  5
   17F
  8
0
  6
CONTINUOUS
 62
     7
 10
143.189875167609
 20
119.389735363501
 30
0.0
 11
143.189875167609
 21
152.289032343758
 31
0.0
  0
LINE
  5
   180
  8
0
  6
CONTINUOUS
 62
     7
 10
136.189875286818
 20
118.339735381382
 30
0.0
 11
136.189875286818
 21
152.289032343758
 31
0.0
  0
LINE
  5
   181
  8
0
  6
CONTINUOUS
 62
     7
 10
150.335707405707
 20
150.289032343758
 30
0.0
 11
136.189875286818
 21
150.289032343758
 31
0.0
  0
LINE
  5
   182
  8
0
  6
CONTINUOUS
 62
     7
 10
140.235451905927
 20
149.768087825757
 30
0.0
 11
143.189875167609
 21
150.289032343758
 31
0.0
  0
LINE
  5
   183
  8
0
  6
CONTINUOUS
 62
     7
 10
143.189875167609
 20
150.289032343758
 30
0.0
 11
140.235451905927
 21
150.809976861758
 31
0.0
  0
LINE
  5
   184
  8
0
  6
CONTINUOUS
 62
     7
 10
139.144298548499
 20
150.809976861758
 30
0.0
 11
136.189875286818
 21
150.289032343758
 31
0.0
  0
LINE
  5
   185
  8
0
  6
CONTINUOUS
 62
     7
 10
136.189875286818
 20
150.289032343758
 30
0.0
 11
139.144298548499
 21
149.768087825757
 31
0.0
  0
ENDBLK
  5
   186
  8
0
  6
CONTINUOUS
 62
     7
  0
BLOCK
  5
   187
  8
0
  6
CONTINUOUS
 62
     7
  2
*UDIM1967
 70
    65
 10
0.0
 20
0.0
 30
0.0
  3
*UDIM1967
  0
TEXT
  5
   188
  8
0
  6
CONTINUOUS
 62
     7
 10
120.956539477317
 20
151.289032347741
 30
0.0
 40
2.4999999335834
  1
60,5
 50
359.999999948034
 41
0.933333333333333
 72
     1
 11
125.373206027775
 21
152.539032310549
 31
0.0
 73
     2
  0
LINE
  5
   189
  8
0
  6
CONTINUOUS
 62
     7
 10
136.189875286818
 20
150.289032343758
 30
0.0
 11
115.014875647426
 21
150.289032343758
 31
0.0
  0
LINE
  5
   18A
  8
0
  6
CONTINUOUS
 62
     7
 10
133.235452025136
 20
149.768087825757
 30
0.0
 11
136.189875286818
 21
150.289032343758
 31
0.0
  0
LINE
  5
   18B
  8
0
  6
CONTINUOUS
 62
     7
 10
136.189875286818
 20
150.289032343758
 30
0.0
 11
133.235452025136
 21
150.809976861758
 31
0.0
  0
LINE
  5
   18C
  8
0
  6
CONTINUOUS
 62
     7
 10
117.969298909108
 20
150.809976861758
 30
0.0
 11
115.014875647426
 21
150.289032343758
 31
0.0
  0
LINE
  5
   18D
  8
0
  6
CONTINUOUS
 62
     7
 10
115.014875647426
 20
150.289032343758
 30
0.0
 11
117.969298909108
 21
149.768087825757
 31
0.0
  0
ENDBLK
  5
   18E
  8
0
  6
CONTINUOUS
 62
     7
  0
BLOCK
  5
   18F
  8
0
  6
CONTINUOUS
 62
     7
  2
*UDIM1968
 70
    65
 10
0.0
 20
0.0
 30
0.0
  3
*UDIM1968
  0
TEXT
  5
   190
  8
0
  6
CONTINUOUS
 62
     7
 10
122.41507144551
 20
144.809610457858
 30
0.0
 40
2.4999999335834
  1
3
 50
359.999999948034
 41
0.933333333333333
 72
     1
 11
123.331738088951
 21
146.059610423823
 31
0.0
 73
     2
  0
TEXT
  5
   191
  8
0
  6
CONTINUOUS
 62
     7
 10
120.123404847417
 20
144.809610457858
 30
0.0
 40
2.4999999335834
  1
_
 50
359.999999948034
 41
0.933333333333333
 72
     1
 11
121.040071490858
 21
146.059610423823
 31
0.0
 73
     2
  0
LINE
  5
   192
  8
0
  6
CONTINUOUS
 62
     7
 10
124.248404731265
 20
143.809610457031
 30
0.0
 11
115.014875647426
 21
143.809610457031
 31
0.0
  0
LINE
  5
   193
  8
0
  6
CONTINUOUS
 62
     7
 10
119.019298891226
 20
144.330554975032
 30
0.0
 11
116.064875629545
 21
143.809610457031
 31
0.0
  0
LINE
  5
   194
  8
0
  6
CONTINUOUS
 62
     7
 10
116.064875629545
 20
143.809610457031
 30
0.0
 11
119.019298891226
 21
143.288665939031
 31
0.0
  0
LINE
  5
   195
  8
0
  6
CONTINUOUS
 62
     7
 10
112.060452385744
 20
143.288665939031
 30
0.0
 11
115.014875647426
 21
143.809610457031
 31
0.0
  0
LINE
  5
   196
  8
0
  6
CONTINUOUS
 62
     7
 10
115.014875647426
 20
143.809610457031
 30
0.0
 11
112.060452385744
 21
144.330554975032
 31
0.0
  0
ENDBLK
  5
   197
  8
0
  6
CONTINUOUS
 62
     7
  0
BLOCK
  5
   198
  8
0
  6
CONTINUOUS
 62
     7
  2
*UDIM1969
 70
    65
 10
0.0
 20
0.0
 30
0.0
  3
*UDIM1969
  0
TEXT
  5
   199
  8
0
  6
CONTINUOUS
 62
     7
 10
125.917268020967
 20
87.902233187438
 30
0.0
 40
2.4999999335834
  1
58
 50
89.9999999480344
 41
0.933333333333333
 72
     1
 11
124.667268056063
 21
89.9855664665563
 31
0.0
 73
     2
  0
LINE
  5
   19A
  8
0
  6
CONTINUOUS
 62
     7
 10
123.014875528217
 20
100.364734335321
 30
0.0
 11
128.917268022854
 21
100.364734335321
 31
0.0
  0
LINE
  5
   19B
  8
0
  6
CONTINUOUS
 62
     7
 10
126.917268022854
 20
80.0647360161719
 30
0.0
 11
126.917268022854
 21
100.364734335321
 31
0.0
  0
LINE
  5
   19C
  8
0
  6
CONTINUOUS
 62
     7
 10
126.396323504854
 20
83.0191592778535
 30
0.0
 11
126.917268022854
 21
80.0647360161719
 31
0.0
  0
LINE
  5
   19D
  8
0
  6
CONTINUOUS
 62
     7
 10
126.917268022854
 20
80.0647360161719
 30
0.0
 11
127.438212540855
 21
83.0191592778535
 31
0.0
  0
LINE
  5
   19E
  8
0
  6
CONTINUOUS
 62
     7
 10
127.438212540855
 20
97.4103110736393
 30
0.0
 11
126.917268022854
 21
100.364734335321
 31
0.0
  0
LINE
  5
   19F
  8
0
  6
CONTINUOUS
 62
     7
 10
126.917268022854
 20
100.364734335321
 30
0.0
 11
126.396323504854
 21
97.4103110736393
 31
0.0
  0
ENDBLK
  5
   1A0
  8
0
  6
CONTINUOUS
 62
     7
  0
BLOCK
  5
   1A1
  8
0
  6
CONTINUOUS
 62
     7
  2
*UDIM1970
 70
    65
 10
0.0
 20
0.0
 30
0.0
  3
*UDIM1970
  0
TEXT
  5
   1A2
  8
0
  6
CONTINUOUS
 62
     7
 10
139.091326327216
 20
91.0814037650634
 30
0.0
 40
2.4999999335834
  1
89,5
 50
89.9999999480344
 41
0.933333333333333
 72
     1
 11
137.841326364425
 21
95.4980703155262
 31
0.0
 73
     2
  0
LINE
  5
   1A3
  8
0
  6
CONTINUOUS
 62
     7
 10
127.443258176704
 20
80.0647360161719
 30
0.0
 11
142.091326331216
 21
80.0647360161719
 31
0.0
  0
LINE
  5
   1A4
  8
0
  6
CONTINUOUS
 62
     7
 10
140.091326331216
 20
80.0647360161719
 30
0.0
 11
140.091326331216
 21
111.38973548271
 31
0.0
  0
LINE
  5
   1A5
  8
0
  6
CONTINUOUS
 62
     7
 10
139.570381813216
 20
83.0191592778535
 30
0.0
 11
140.091326331216
 21
80.0647360161719
 31
0.0
  0
LINE
  5
   1A6
  8
0
  6
CONTINUOUS
 62
     7
 10
140.091326331216
 20
80.0647360161719
 30
0.0
 11
140.612270849217
 21
83.0191592778535
 31
0.0
  0
LINE
  5
   1A7
  8
0
  6
CONTINUOUS
 62
     7
 10
140.612270849217
 20
108.435312221029
 30
0.0
 11
140.091326331216
 21
111.38973548271
 31
0.0
  0
LINE
  5
   1A8
  8
0
  6
CONTINUOUS
 62
     7
 10
140.091326331216
 20
111.38973548271
 30
0.0
 11
139.570381813216
 21
108.435312221029
 31
0.0
  0
ENDBLK
  5
   1A9
  8
0
  6
CONTINUOUS
 62
     7
  0
BLOCK
  5
   1AA
  8
0
  6
CONTINUOUS
 62
     7
  2
*UDIM1971
 70
    65
 10
0.0
 20
0.0
 30
0.0
  3
*UDIM1971
  0
TEXT
  5
   1AB
  8
0
  6
CONTINUOUS
 62
     7
 10
145.252503286337
 20
71.5105687929004
 30
0.0
 40
2.4999999335834
  1
208
 50
89.9999999480344
 41
0.933333333333333
 72
     1
 11
144.002503322489
 21
74.7605687076909
 31
0.0
 73
     2
  0
LINE
  5
   1AC
  8
0
  6
CONTINUOUS
 62
     7
 10
143.13987518549
 20
38.5897367224869
 30
0.0
 11
148.25250328928
 21
38.5897367224869
 31
0.0
  0
LINE
  5
   1AD
  8
0
  6
CONTINUOUS
 62
     7
 10
143.13987518549
 20
111.38973548271
 30
0.0
 11
148.25250328928
 21
111.38973548271
 31
0.0
  0
LINE
  5
   1AE
  8
0
  6
CONTINUOUS
 62
     7
 10
146.25250328928
 20
38.5897367224869
 30
0.0
 11
146.25250328928
 21
111.38973548271
 31
0.0
  0
LINE
  5
   1AF
  8
0
  6
CONTINUOUS
 62
     7
 10
145.73155877128
 20
41.5441599841685
 30
0.0
 11
146.25250328928
 21
38.5897367224869
 31
0.0
  0
LINE
  5
   1B0
  8
0
  6
CONTINUOUS
 62
     7
 10
146.25250328928
 20
38.5897367224869
 30
0.0
 11
146.773447807281
 21
41.5441599841685
 31
0.0
  0
LINE
  5
   1B1
  8
0
  6
CONTINUOUS
 62
     7
 10
146.773447807281
 20
108.435312221029
 30
0.0
 11
146.25250328928
 21
111.38973548271
 31
0.0
  0
LINE
  5
   1B2
  8
0
  6
CONTINUOUS
 62
     7
 10
146.25250328928
 20
111.38973548271
 30
0.0
 11
145.73155877128
 21
108.435312221029
 31
0.0
  0
ENDBLK
  5
   1B3
  8
0
  6
CONTINUOUS
 62
     7
  0
BLOCK
  5
   1B4
  8
0
  6
CONTINUOUS
 62
     7
  2
*UDIM1972
 70
    65
 10
0.0
 20
0.0
 30
0.0
  3
*UDIM1972
  0
TEXT
  5
   1B5
  8
0
  6
CONTINUOUS
 62
     7
 10
74.9898809270145
 20
9.06595318209314
 30
0.0
 40
2.4999999335834
  1
195,5
 50
359.999999948034
 41
0.933333333333333
 72
     1
 11
80.5732141131448
 21
10.315953143849
 31
0.0
 73
     2
  0
LINE
  5
   1B6
  8
0
  6
CONTINUOUS
 62
     7
 10
115.014875647426
 20
11.8280558142155
 30
0.0
 11
115.014875647426
 21
6.06595317705728
 31
0.0
  0
LINE
  5
   1B7
  8
0
  6
CONTINUOUS
 62
     7
 10
46.5898888289929
 20
44.7647366002974
 30
0.0
 11
46.5898888289929
 21
6.06595317705728
 31
0.0
  0
LINE
  5
   1B8
  8
0
  6
CONTINUOUS
 62
     7
 10
115.014875647426
 20
8.06595317705728
 30
0.0
 11
46.5898888289929
 21
8.06595317705728
 31
0.0
  0
LINE
  5
   1B9
  8
0
  6
CONTINUOUS
 62
     7
 10
112.060452385744
 20
7.54500865905694
 30
0.0
 11
115.014875647426
 21
8.06595317705728
 31
0.0
  0
LINE
  5
   1BA
  8
0
  6
CONTINUOUS
 62
     7
 10
115.014875647426
 20
8.06595317705728
 30
0.0
 11
112.060452385744
 21
8.58689769505762
 31
0.0
  0
LINE
  5
   1BB
  8
0
  6
CONTINUOUS
 62
     7
 10
49.5443120906745
 20
8.58689769505762
 30
0.0
 11
46.5898888289929
 21
8.06595317705728
 31
0.0
  0
LINE
  5
   1BC
  8
0
  6
CONTINUOUS
 62
     7
 10
46.5898888289929
 20
8.06595317705728
 30
0.0
 11
49.5443120906745
 21
7.54500865905694
 31
0.0
  0
ENDBLK
  5
   1BD
  8
0
  6
CONTINUOUS
 62
     7
  0
BLOCK
  5
   1BE
  8
0
  6
CONTINUOUS
 62
     7
  2
*UDIM1973
 70
    65
 10
0.0
 20
0.0
 30
0.0
  3
*UDIM1973
  0
TEXT
  5
   1BF
  8
0
  6
CONTINUOUS
 62
     7
 10
69.0467216927371
 20
75.8656592804553
 30
0.0
 40
2.4999999335834
  1
14,5
 50
89.9999999480344
 41
0.933333333333333
 72
     1
 11
67.7967217299456
 21
80.2823258309181
 31
0.0
 73
     2
  0
LINE
  5
   1C0
  8
0
  6
CONTINUOUS
 62
     7
 10
61.4148698392951
 20
74.9897191967626
 30
0.0
 11
72.0467216967373
 21
74.9897191967626
 31
0.0
  0
LINE
  5
   1C1
  8
0
  6
CONTINUOUS
 62
     7
 10
70.0467216967373
 20
74.9897191967626
 30
0.0
 11
70.0467216967373
 21
84.6989923802488
 31
0.0
  0
LINE
  5
   1C2
  8
0
  6
CONTINUOUS
 62
     7
 10
70.5676662147377
 20
72.035295935081
 30
0.0
 11
70.0467216967373
 21
74.9897191967626
 31
0.0
  0
LINE
  5
   1C3
  8
0
  6
CONTINUOUS
 62
     7
 10
70.0467216967373
 20
74.9897191967626
 30
0.0
 11
69.525777178737
 21
72.035295935081
 31
0.0
  0
LINE
  5
   1C4
  8
0
  6
CONTINUOUS
 62
     7
 10
69.525777178737
 20
83.0191592778535
 30
0.0
 11
70.0467216967373
 21
80.0647360161719
 31
0.0
  0
LINE
  5
   1C5
  8
0
  6
CONTINUOUS
 62
     7
 10
70.0467216967373
 20
80.0647360161719
 30
0.0
 11
70.5676662147377
 21
83.0191592778535
 31
0.0
  0
ENDBLK
  5
   1C6
  8
0
  6
CONTINUOUS
 62
     7
  0
BLOCK
  5
   1C7
  8
0
  6
CONTINUOUS
 62
     7
  2
*UDIM1974
 70
    65
 10
0.0
 20
0.0
 30
0.0
  3
*UDIM1974
  0
TEXT
  5
   1C8
  8
0
  6
CONTINUOUS
 62
     7
 10
31.387690848612
 20
76.5855687064736
 30
0.0
 40
2.4999999335834
  1
140
 50
89.9999999480344
 41
0.933333333333333
 72
     1
 11
30.1376908847639
 21
79.8355686212642
 31
0.0
 73
     2
  0
LINE
  5
   1C9
  8
0
  6
CONTINUOUS
 62
     7
 10
47.5148874610663
 20
55.5647364334044
 30
0.0
 11
30.3876908515556
 21
55.5647364334044
 31
0.0
  0
LINE
  5
   1CA
  8
0
  6
CONTINUOUS
 62
     7
 10
47.5148887962104
 20
104.564734263795
 30
0.0
 11
30.3876908515556
 21
104.564734263795
 31
0.0
  0
LINE
  5
   1CB
  8
0
  6
CONTINUOUS
 62
     7
 10
32.3876908515556
 20
55.5647364334044
 30
0.0
 11
32.3876908515556
 21
104.564734263795
 31
0.0
  0
LINE
  5
   1CC
  8
0
  6
CONTINUOUS
 62
     7
 10
31.8667463335553
 20
58.519159695086
 30
0.0
 11
32.3876908515556
 21
55.5647364334044
 31
0.0
  0
LINE
  5
   1CD
  8
0
  6
CONTINUOUS
 62
     7
 10
32.3876908515556
 20
55.5647364334044
 30
0.0
 11
32.9086353695559
 21
58.519159695086
 31
0.0
  0
LINE
  5
   1CE
  8
0
  6
CONTINUOUS
 62
     7
 10
32.9086353695559
 20
101.610311002114
 30
0.0
 11
32.3876908515556
 21
104.564734263795
 31
0.0
  0
LINE
  5
   1CF
  8
0
  6
CONTINUOUS
 62
     7
 10
32.3876908515556
 20
104.564734263795
 30
0.0
 11
31.8667463335553
 21
101.610311002114
 31
0.0
  0
ENDBLK
  5
   1D0
  8
0
  6
CONTINUOUS
 62
     7
  0
BLOCK
  5
   1D1
  8
0
  6
CONTINUOUS
 62
     0
  2
$1MOSTRA
 70
    64
 10
0.0
 20
0.0
 30
0.0
  3
$1MOSTRA
  0
LINE
  5
   1D2
  8
0
  6
CONTINUOUS
 62
     0
 10
131.0
 20
-24.0000152587891
 30
0.0
 11
131.0
 21
169.499984741211
 31
0.0
  0
LINE
  5
   1D3
  8
0
  6
CONTINUOUS
 62
     0
 10
-94.7500023146612
 20
-25.250020980835
 30
0.0
 11
129.75
 21
-25.250020980835
 31
0.0
  0
LINE
  5
   1D4
  8
0
  6
CONTINUOUS
 62
     0
 10
-96.0
 20
-24.000020980835
 30
0.0
 11
-96.0
 21
169.499979019165
 31
0.0
  0
LINE
  5
   1D5
  8
0
  6
CONTINUOUS
 62
     0
 10
-87.0
 20
170.749984741211
 30
0.0
 11
129.75
 21
170.749984741211
 31
0.0
  0
LINE
  5
   1D6
  8
0
  6
CONTINUOUS
 62
     0
 10
-94.7500138961029
 20
170.749984741211
 30
0.0
 11
-87.0
 21
170.749984741211
 31
0.0
  0
LINE
  5
   1D7
  8
0
  6
CONTINUOUS
 62
     0
 10
78.0
 20
-5.25002145767212
 30
0.0
 11
78.0
 21
-4.2500216960907
 31
0.0
  0
LINE
  5
   1D8
  8
0
  6
CONTINUOUS
 62
     0
 10
-87.0
 20
-5.25002145767211
 30
0.0
 11
-87.0
 21
-4.25002169609069
 31
0.0
  0
LINE
  5
   1D9
  8
0
  6
CONTINUOUS
 62
     0
 10
-86.0
 20
-5.25002145767211
 30
0.0
 11
77.0
 21
-5.25002145767212
 31
0.0
  0
LINE
  5
   1DA
  8
0
  6
CONTINUOUS
 62
     0
 10
78.0
 20
149.749984741211
 30
0.0
 11
78.0
 21
150.749984741211
 31
0.0
  0
LINE
  5
   1DB
  8
0
  6
CONTINUOUS
 62
     0
 10
-87.0
 20
149.749984741211
 30
0.0
 11
-87.0
 21
150.749984741211
 31
0.0
  0
LINE
  5
   1DC
  8
0
  6
CONTINUOUS
 62
     0
 10
-86.0
 20
-25.250020980835
 30
0.0
 11
-86.0
 21
-5.25002098083496
 31
0.0
  0
LINE
  5
   1DD
  8
0
  6
CONTINUOUS
 62
     0
 10
-87.0
 20
-25.250020980835
 30
0.0
 11
-87.0
 21
-5.25002098083496
 31
0.0
  0
LINE
  5
   1DE
  8
0
  6
CONTINUOUS
 62
     0
 10
-87.0
 20
-4.25002169609069
 30
0.0
 11
-87.0
 21
149.749978303909
 31
0.0
  0
LINE
  5
   1DF
  8
0
  6
CONTINUOUS
 62
     0
 10
-87.0
 20
150.749984741211
 30
0.0
 11
-87.0
 21
170.749984741211
 31
0.0
  0
LINE
  5
   1E0
  8
0
  6
CONTINUOUS
 62
     0
 10
78.0
 20
-25.250020980835
 30
0.0
 11
78.0
 21
-5.25002098083497
 31
0.0
  0
LINE
  5
   1E1
  8
0
  6
CONTINUOUS
 62
     0
 10
78.0
 20
-4.2500216960907
 30
0.0
 11
78.0
 21
22.6249783039093
 31
0.0
  0
LINE
  5
   1E2
  8
0
  6
CONTINUOUS
 62
     0
 10
78.0
 20
23.624979019165
 30
0.0
 11
78.0
 21
64.624979019165
 31
0.0
  0
LINE
  5
   1E3
  8
0
  6
CONTINUOUS
 62
     0
 10
78.0
 20
65.6249771118164
 30
0.0
 11
78.0
 21
149.749984741211
 31
0.0
  0
LINE
  5
   1E4
  8
0
  6
CONTINUOUS
 62
     0
 10
78.0
 20
150.749984741211
 30
0.0
 11
78.0
 21
170.749984741211
 31
0.0
  0
LINE
  5
   1E5
  8
0
  6
CONTINUOUS
 62
     0
 10
77.0
 20
-25.250020980835
 30
0.0
 11
77.0
 21
-5.25002098083497
 31
0.0
  0
LINE
  5
   1E6
  8
0
  6
CONTINUOUS
 62
     0
 10
112.0
 20
23.624979019165
 30
0.0
 11
112.0
 21
64.624979019165
 31
0.0
  0
LINE
  5
   1E7
  8
0
  6
CONTINUOUS
 62
     0
 10
-86.0
 20
150.749984741211
 30
0.0
 11
77.0
 21
150.749984741211
 31
0.0
  0
LINE
  5
   1E8
  8
0
  6
DOT
 62
     0
 10
78.0
 20
22.6249809265137
 30
0.0
 11
78.0
 21
23.6249809265137
 31
0.0
  0
LINE
  5
   1E9
  8
0
  6
DOT
 62
     0
 10
78.0
 20
64.6249847412109
 30
0.0
 11
78.0
 21
65.6249847412109
 31
0.0
  0
LINE
  5
   1EA
  8
0
  6
CONTINUOUS
 62
     0
 10
-95.2283575359481
 20
170.654833276614
 30
0.0
 11
-94.7500021275396
 21
170.749987082197
 31
0.0
  0
LINE
  5
   1EB
  8
0
  6
CONTINUOUS
 62
     0
 10
-95.6338828572815
 20
170.383870758251
 30
0.0
 11
-95.2283576589463
 21
170.654836342308
 31
0.0
  0
LINE
  5
   1EC
  8
0
  6
CONTINUOUS
 62
     0
 10
-95.9048442813714
 20
169.978321294716
 30
0.0
 11
-95.6338787006842
 21
170.38385412157
 31
0.0
  0
LINE
  5
   1ED
  8
0
  6
CONTINUOUS
 62
     0
 10
-96.0000009070014
 20
169.49998927381
 30
0.0
 11
-95.9048471000262
 21
169.978337054874
 31
0.0
  0
LINE
  5
   1EE
  8
0
  6
CONTINUOUS
 62
     0
 10
129.750003154688
 20
170.749986935154
 30
0.0
 11
130.228350935752
 21
170.654833128179
 31
0.0
  0
LINE
  5
   1EF
  8
0
  6
CONTINUOUS
 62
     0
 10
130.228341409222
 20
170.654823450862
 30
0.0
 11
130.633874236076
 21
170.383857870175
 31
0.0
  0
LINE
  5
   1F0
  8
0
  6
CONTINUOUS
 62
     0
 10
130.633876465973
 20
170.383854910394
 30
0.0
 11
130.90484204666
 21
169.97832208354
 31
0.0
  0
LINE
  5
   1F1
  8
0
  6
CONTINUOUS
 62
     0
 10
130.90484765696
 20
169.978336952213
 30
0.0
 11
131.000001463935
 21
169.499989171149
 31
0.0
  0
LINE
  5
   1F2
  8
0
  6
CONTINUOUS
 62
     0
 10
129.750001912704
 20
-25.2500209810903
 30
0.0
 11
130.228349689786
 21
-25.1548709896053
 31
0.0
  0
LINE
  5
   1F3
  8
0
  6
CONTINUOUS
 62
     0
 10
130.228338306514
 20
-25.1548722950462
 30
0.0
 11
130.633871133368
 21
-24.8839067143591
 31
0.0
  0
LINE
  5
   1F4
  8
0
  6
CONTINUOUS
 62
     0
 10
130.633879356188
 20
-24.8839055654524
 30
0.0
 11
130.904844938572
 21
-24.4783765528653
 31
0.0
  0
LINE
  5
   1F5
  8
0
  6
CONTINUOUS
 62
     0
 10
130.904848088874
 20
-24.4783766972257
 30
0.0
 11
131.000001894457
 21
-24.0000212888173
 31
0.0
  0
LINE
  5
   1F6
  8
0
  6
CONTINUOUS
 62
     0
 10
-95.2283572980338
 20
-25.1548710672825
 30
0.0
 11
-94.750001893597
 21
-25.2500210645891
 31
0.0
  0
LINE
  5
   1F7
  8
0
  6
CONTINUOUS
 62
     0
 10
-95.6338848795916
 20
-24.8839050834456
 30
0.0
 11
-95.2283596812563
 21
-25.1548706675021
 31
0.0
  0
LINE
  5
   1F8
  8
0
  6
CONTINUOUS
 62
     0
 10
-95.9048453281177
 20
-24.4783764153605
 30
0.0
 11
-95.6338797457343
 21
-24.8839054279476
 31
0.0
  0
LINE
  5
   1F9
  8
0
  6
CONTINUOUS
 62
     0
 10
-96.0000013278323
 20
-24.0000213932639
 30
0.0
 11
-95.9048475222492
 21
-24.4783768016722
 31
0.0
  0
LINE
  5
   1FA
  8
0
  6
CONTINUOUS
 62
     0
 10
71.0
 20
161.499984741211
 30
0.0
 11
71.5
 21
161.499984741211
 31
0.0
  0
LINE
  5
   1FB
  8
0
  6
CONTINUOUS
 62
     0
 10
70.6249985834239
 20
161.39948892087
 30
0.0
 11
70.9999985887286
 21
161.499983299907
 31
0.0
  0
LINE
  5
   1FC
  8
0
  6
CONTINUOUS
 62
     0
 10
70.3504841000321
 20
161.124991898345
 30
0.0
 11
70.6250049664647
 21
161.399497515692
 31
0.0
  0
LINE
  5
   1FD
  8
0
  6
CONTINUOUS
 62
     0
 10
70.2500005005121
 20
160.74998610992
 30
0.0
 11
70.3504796223163
 21
161.124986104743
 31
0.0
  0
LINE
  5
   1FE
  8
0
  6
CONTINUOUS
 62
     0
 10
70.2500001717027
 20
160.749985945318
 30
0.0
 11
70.3504792935069
 21
160.374985950495
 31
0.0
  0
LINE
  5
   1FF
  8
0
  6
CONTINUOUS
 62
     0
 10
70.3504785443499
 20
160.374981262897
 30
0.0
 11
70.6249994243228
 21
160.100460382924
 31
0.0
  0
LINE
  5
   200
  8
0
  6
CONTINUOUS
 62
     0
 10
70.6250004494111
 20
160.100464493128
 30
0.0
 11
71.000000444234
 21
159.999985371324
 31
0.0
  0
LINE
  5
   201
  8
0
  6
CONTINUOUS
 62
     0
 10
71.0
 20
159.999984741211
 30
0.0
 11
71.5
 21
159.999984741211
 31
0.0
  0
LINE
  5
   202
  8
0
  6
CONTINUOUS
 62
     0
 10
-71.0000005237262
 20
159.999985364975
 30
0.0
 11
-70.6250005289034
 21
160.100464486779
 31
0.0
  0
LINE
  5
   203
  8
0
  6
CONTINUOUS
 62
     0
 10
-70.6249991572831
 20
160.100460461707
 30
0.0
 11
-70.3504782773103
 21
160.37498134168
 31
0.0
  0
LINE
  5
   204
  8
0
  6
CONTINUOUS
 62
     0
 10
-70.3504793419514
 20
160.374985939145
 30
0.0
 11
-70.2500002201472
 21
160.749985933968
 31
0.0
  0
LINE
  5
   205
  8
0
  6
CONTINUOUS
 62
     0
 10
-70.3504796707608
 20
161.124986116093
 30
0.0
 11
-70.2500005489566
 21
160.74998612127
 31
0.0
  0
LINE
  5
   206
  8
0
  6
CONTINUOUS
 62
     0
 10
-70.625005364328
 20
161.399497643651
 30
0.0
 11
-70.3504844978953
 21
161.124992026304
 31
0.0
  0
LINE
  5
   207
  8
0
  6
CONTINUOUS
 62
     0
 10
-70.9999984404592
 20
161.499983275092
 30
0.0
 11
-70.6249984351544
 21
161.399488896056
 31
0.0
  0
LINE
  5
   208
  8
0
  6
CONTINUOUS
 62
     0
 10
-71.5
 20
161.499984741211
 30
0.0
 11
-71.0
 21
161.499984741211
 31
0.0
  0
LINE
  5
   209
  8
0
  6
CONTINUOUS
 62
     0
 10
-71.5
 20
159.999984741211
 30
0.0
 11
-71.0
 21
159.999984741211
 31
0.0
  0
LINE
  5
   20A
  8
0
  6
DOT
 62
     0
 10
129.207102522664
 20
93.2070806462287
 30
0.0
 11
129.423868885951
 21
92.8826559114065
 31
0.0
  0
LINE
  5
   20B
  8
0
  6
CONTINUOUS
 62
     0
 10
78.0
 20
64.6249771118164
 30
0.0
 11
112.0
 21
64.6249771118164
 31
0.0
  0
LINE
  5
   20C
  8
0
  6
CONTINUOUS
 62
     0
 10
78.0
 20
23.624979019165
 30
0.0
 11
112.0
 21
23.624979019165
 31
0.0
  0
LINE
  5
   20D
  8
0
  6
CONTINUOUS
 62
     0
 10
78.0
 20
22.624979019165
 30
0.0
 11
131.0
 21
22.624979019165
 31
0.0
  0
LINE
  5
   20E
  8
0
  6
CONTINUOUS
 62
     0
 10
113.0
 20
22.6249771118164
 30
0.0
 11
113.0
 21
65.6249771118164
 31
0.0
  0
LINE
  5
   20F
  8
0
  6
CONTINUOUS
 62
     0
 10
121.443762073863
 20
22.6249762341869
 30
0.0
 11
121.469671496571
 21
22.655306892856
 31
0.0
  0
LINE
  5
   210
  8
0
  6
CONTINUOUS
 62
     0
 10
122.530331822982
 20
22.6553070669901
 30
0.0
 11
122.556233618116
 21
22.6249802236221
 31
0.0
  0
LINE
  5
   211
  8
0
  6
CONTINUOUS
 62
     0
 10
77.0
 20
-4.2500216960907
 30
0.0
 11
77.0
 21
149.749978303909
 31
0.0
  0
LINE
  5
   212
  8
0
  6
CONTINUOUS
 62
     0
 10
-86.0
 20
149.749984741211
 30
0.0
 11
77.0
 21
149.749984741211
 31
0.0
  0
LINE
  5
   213
  8
0
  6
CONTINUOUS
 62
     0
 10
-86.0
 20
-4.25002169609069
 30
0.0
 11
77.0
 21
-4.2500216960907
 31
0.0
  0
LINE
  5
   214
  8
0
  6
CONTINUOUS
 62
     0
 10
-86.0
 20
-4.25002169609069
 30
0.0
 11
-86.0
 21
149.749978303909
 31
0.0
  0
LINE
  5
   215
  8
0
  6
CONTINUOUS
 62
     0
 10
70.0000086006236
 20
142.749981641769
 30
0.0
 11
77.0000047406314
 21
149.749991353068
 31
0.0
  0
LINE
  5
   216
  8
0
  6
CONTINUOUS
 62
     0
 10
70.0000002534282
 20
2.74998164176941
 30
0.0
 11
77.0000028943928
 21
-4.25002276936366
 31
0.0
  0
LINE
  5
   217
  8
0
  6
CONTINUOUS
 62
     0
 10
-86.0000010794079
 20
149.749986269664
 30
0.0
 11
-70.0
 21
142.220568727026
 31
0.0
  0
LINE
  5
   218
  8
0
  6
CONTINUOUS
 62
     0
 10
-86.0000042824209
 20
-4.25002269924179
 30
0.0
 11
-70.0
 21
3.27939166971828
 31
0.0
  0
LINE
  5
   219
  8
0
  6
CONTINUOUS
 62
     0
 10
71.5
 20
150.749984741211
 30
0.0
 11
71.5
 21
170.749984741211
 31
0.0
  0
LINE
  5
   21A
  8
0
  6
CONTINUOUS
 62
     0
 10
77.0
 20
150.749984741211
 30
0.0
 11
77.0
 21
170.749984741211
 31
0.0
  0
LINE
  5
   21B
  8
0
  6
CONTINUOUS
 62
     0
 10
-71.5
 20
150.749984741211
 30
0.0
 11
-71.5
 21
170.749984741211
 31
0.0
  0
LINE
  5
   21C
  8
0
  6
CONTINUOUS
 62
     0
 10
-86.0
 20
150.749984741211
 30
0.0
 11
-86.0
 21
170.749984741211
 31
0.0
  0
LINE
  5
   21D
  8
0
  6
CONTINUOUS
 62
     0
 10
78.0
 20
65.6249771118164
 30
0.0
 11
131.0
 21
65.6249771118164
 31
0.0
  0
POINT
  5
   21E
  8
0
  6
CONTINUOUS
 62
     0
 10
4.30031180087553E-6
 20
72.749980198372
 30
0.0
  0
ENDBLK
  5
   21F
  8
0
  6
CONTINUOUS
 62
     0
  0
BLOCK
  5
   220
  8
0
  6
CONTINUOUS
 62
     7
  2
*UDIM1975
 70
    65
 10
0.0
 20
0.0
 30
0.0
  3
*UDIM1975
  0
TEXT
  5
   221
  8
0
  6
CONTINUOUS
 62
     7
 10
293.19148203583
 20
76.5855686912558
 30
0.0
 40
2.4999999335834
  1
196
 50
90.0
 41
0.933333333333333
 72
     1
 11
291.941482069034
 21
79.8355686049127
 31
0.0
 73
     2
  0
LINE
  5
   222
  8
0
  6
CONTINUOUS
 62
     7
 10
287.785416623326
 20
45.764734852431
 30
0.0
 11
296.191482035826
 21
45.764734852431
 31
0.0
  0
LINE
  5
   223
  8
0
  6
CONTINUOUS
 62
     7
 10
287.785416623326
 20
114.364735686896
 30
0.0
 11
296.191482035826
 21
114.364735686896
 31
0.0
  0
LINE
  5
   224
  8
0
  6
CONTINUOUS
 62
     7
 10
294.191482035826
 20
45.764734852431
 30
0.0
 11
294.191482035826
 21
114.364735686896
 31
0.0
  0
LINE
  5
   225
  8
0
  6
CONTINUOUS
 62
     7
 10
293.670537517825
 20
48.7191581141126
 30
0.0
 11
294.191482035826
 21
45.764734852431
 31
0.0
  0
LINE
  5
   226
  8
0
  6
CONTINUOUS
 62
     7
 10
294.191482035826
 20
45.764734852431
 30
0.0
 11
294.712426553826
 21
48.7191581141126
 31
0.0
  0
LINE
  5
   227
  8
0
  6
CONTINUOUS
 62
     7
 10
294.712426553826
 20
111.410312425214
 30
0.0
 11
294.191482035826
 21
114.364735686896
 31
0.0
  0
LINE
  5
   228
  8
0
  6
CONTINUOUS
 62
     7
 10
294.191482035826
 20
114.364735686896
 30
0.0
 11
293.670537517825
 21
111.410312425214
 31
0.0
  0
ENDBLK
  5
   229
  8
0
  6
CONTINUOUS
 62
     7
  0
BLOCK
  5
   22A
  8
0
  6
CONTINUOUS
 62
     7
  2
*UDIM1976
 70
    65
 10
0.0
 20
0.0
 30
0.0
  3
*UDIM1976
  0
TEXT
  5
   22B
  8
0
  6
CONTINUOUS
 62
     7
 10
201.697936192949
 20
6.52026878742663
 30
0.0
 40
2.4999999335834
  1
193,5
 41
0.933333333333333
 72
     1
 11
207.281269377952
 21
7.77026875421832
 31
0.0
 73
     2
  0
LINE
  5
   22C
  8
0
  6
CONTINUOUS
 62
     7
 10
173.647960109483
 20
70.4896627292822
 30
0.0
 11
173.647960109483
 21
3.52026878742663
 31
0.0
  0
LINE
  5
   22D
  8
0
  6
CONTINUOUS
 62
     7
 10
241.372910014931
 20
11.6897420911558
 30
0.0
 11
241.372910014931
 21
3.52026878742663
 31
0.0
  0
LINE
  5
   22E
  8
0
  6
CONTINUOUS
 62
     7
 10
173.647960109483
 20
5.52026878742663
 30
0.0
 11
241.372910014931
 21
5.52026878742663
 31
0.0
  0
LINE
  5
   22F
  8
0
  6
CONTINUOUS
 62
     7
 10
176.602383371164
 20
6.04121330542697
 30
0.0
 11
173.647960109483
 21
5.52026878742663
 31
0.0
  0
LINE
  5
   230
  8
0
  6
CONTINUOUS
 62
     7
 10
173.647960109483
 20
5.52026878742663
 30
0.0
 11
176.602383371164
 21
4.99932426942629
 31
0.0
  0
LINE
  5
   231
  8
0
  6
CONTINUOUS
 62
     7
 10
238.418486753249
 20
4.99932426942629
 30
0.0
 11
241.372910014931
 21
5.52026878742663
 31
0.0
  0
LINE
  5
   232
  8
0
  6
CONTINUOUS
 62
     7
 10
241.372910014931
 20
5.52026878742663
 30
0.0
 11
238.418486753249
 21
6.04121330542697
 31
0.0
  0
ENDBLK
  5
   233
  8
0
  6
CONTINUOUS
 62
     7
  0
BLOCK
  5
   234
  8
0
  6
CONTINUOUS
 62
     7
  2
*UDIM1977
 70
    65
 10
0.0
 20
0.0
 30
0.0
  3
*UDIM1977
  0
TEXT
  5
   235
  8
0
  6
CONTINUOUS
 62
     7
 10
259.447937879761
 20
6.52026878742663
 30
0.0
 40
2.4999999335834
  1
136,5
 41
0.933333333333333
 72
     1
 11
265.031271064764
 21
7.77026875421832
 31
0.0
 73
     2
  0
LINE
  5
   236
  8
0
  6
CONTINUOUS
 62
     7
 10
289.147964818249
 20
70.489718805331
 30
0.0
 11
289.147964818249
 21
3.52026878742663
 31
0.0
  0
LINE
  5
   237
  8
0
  6
CONTINUOUS
 62
     7
 10
241.372910014931
 20
5.52026878742663
 30
0.0
 11
289.147964818249
 21
5.52026878742663
 31
0.0
  0
LINE
  5
   238
  8
0
  6
CONTINUOUS
 62
     7
 10
244.327333276612
 20
6.04121330542697
 30
0.0
 11
241.372910014931
 21
5.52026878742663
 31
0.0
  0
LINE
  5
   239
  8
0
  6
CONTINUOUS
 62
     7
 10
241.372910014931
 20
5.52026878742663
 30
0.0
 11
244.327333276612
 21
4.99932426942629
 31
0.0
  0
LINE
  5
   23A
  8
0
  6
CONTINUOUS
 62
     7
 10
286.193541556568
 20
4.99932426942629
 30
0.0
 11
289.147964818249
 21
5.52026878742663
 31
0.0
  0
LINE
  5
   23B
  8
0
  6
CONTINUOUS
 62
     7
 10
289.147964818249
 20
5.52026878742663
 30
0.0
 11
286.193541556568
 21
6.04121330542697
 31
0.0
  0
ENDBLK
  5
   23C
  8
0
  6
CONTINUOUS
 62
     7
  0
BLOCK
  5
   23D
  8
0
  6
CONTINUOUS
 62
     7
  2
*UDIM1978
 70
    65
 10
0.0
 20
0.0
 30
0.0
  3
*UDIM1978
  0
TEXT
  5
   23E
  8
0
  6
CONTINUOUS
 62
     7
 10
222.260413861424
 20
12.7220020802492
 30
0.0
 40
2.4999999335834
  1
96
 41
0.933333333333333
 72
     1
 11
224.34374713941
 21
13.9720020470409
 31
0.0
 73
     2
  0
LINE
  5
   23F
  8
0
  6
CONTINUOUS
 62
     7
 10
207.772917968901
 20
45.2022348449804
 30
0.0
 11
207.772917968901
 21
9.72200208024924
 31
0.0
  0
LINE
  5
   240
  8
0
  6
CONTINUOUS
 62
     7
 10
207.772917968901
 20
11.7220020802492
 30
0.0
 11
241.372910014931
 21
11.7220020802492
 31
0.0
  0
LINE
  5
   241
  8
0
  6
CONTINUOUS
 62
     7
 10
210.727341230583
 20
12.2429465982496
 30
0.0
 11
207.772917968901
 21
11.7220020802492
 31
0.0
  0
LINE
  5
   242
  8
0
  6
CONTINUOUS
 62
     7
 10
207.772917968901
 20
11.7220020802492
 30
0.0
 11
210.727341230583
 21
11.2010575622489
 31
0.0
  0
LINE
  5
   243
  8
0
  6
CONTINUOUS
 62
     7
 10
238.418486753249
 20
11.2010575622489
 30
0.0
 11
241.372910014931
 21
11.7220020802492
 31
0.0
  0
LINE
  5
   244
  8
0
  6
CONTINUOUS
 62
     7
 10
241.372910014931
 20
11.7220020802492
 30
0.0
 11
238.418486753249
 21
12.2429465982496
 31
0.0
  0
ENDBLK
  5
   245
  8
0
  6
CONTINUOUS
 62
     7
  0
BLOCK
  5
   246
  8
0
  6
CONTINUOUS
 62
     7
  2
*UDIM1979
 70
    65
 10
0.0
 20
0.0
 30
0.0
  3
*UDIM1979
  0
TEXT
  5
   247
  8
0
  6
CONTINUOUS
 62
     7
 10
260.818745860806
 20
12.7220020802492
 30
0.0
 40
2.4999999335834
  1
131
 41
0.933333333333333
 72
     1
 11
264.068745774464
 21
13.9720020470409
 31
0.0
 73
     2
  0
LINE
  5
   248
  8
0
  6
CONTINUOUS
 62
     7
 10
287.222916615876
 20
45.2022368476964
 30
0.0
 11
287.222916615876
 21
9.72200208024924
 31
0.0
  0
LINE
  5
   249
  8
0
  6
CONTINUOUS
 62
     7
 10
241.372910014931
 20
11.7220020802492
 30
0.0
 11
287.222916615876
 21
11.7220020802492
 31
0.0
  0
LINE
  5
   24A
  8
0
  6
CONTINUOUS
 62
     7
 10
244.327333276612
 20
12.2429465982496
 30
0.0
 11
241.372910014931
 21
11.7220020802492
 31
0.0
  0
LINE
  5
   24B
  8
0
  6
CONTINUOUS
 62
     7
 10
241.372910014931
 20
11.7220020802492
 30
0.0
 11
244.327333276612
 21
11.2010575622489
 31
0.0
  0
LINE
  5
   24C
  8
0
  6
CONTINUOUS
 62
     7
 10
284.268493354194
 20
11.2010575622489
 30
0.0
 11
287.222916615876
 21
11.7220020802492
 31
0.0
  0
LINE
  5
   24D
  8
0
  6
CONTINUOUS
 62
     7
 10
287.222916615876
 20
11.7220020802492
 30
0.0
 11
284.268493354194
 21
12.2429465982496
 31
0.0
  0
ENDBLK
  5
   24E
  8
0
  6
CONTINUOUS
 62
     7
  0
BLOCK
  5
   24F
  8
0
  6
CONTINUOUS
 62
     7
  2
*UDIM1980
 70
    65
 10
0.0
 20
0.0
 30
0.0
  3
*UDIM1980
  0
TEXT
  5
   250
  8
0
  6
CONTINUOUS
 62
     7
 10
237.893794317855
 20
18.2757899800536
 30
0.0
 40
2.4999999335834
  1
140
 41
0.933333333333333
 72
     1
 11
241.143794231513
 21
19.5257899468453
 31
0.0
 73
     2
  0
LINE
  5
   251
  8
0
  6
CONTINUOUS
 62
     7
 10
216.872960040937
 20
54.5647364334044
 30
0.0
 11
216.872960040937
 21
15.2757899800536
 31
0.0
  0
LINE
  5
   252
  8
0
  6
CONTINUOUS
 62
     7
 10
265.872959874044
 20
54.5647350982604
 30
0.0
 11
265.872959874044
 21
15.2757899800536
 31
0.0
  0
LINE
  5
   253
  8
0
  6
CONTINUOUS
 62
     7
 10
216.872960040937
 20
17.2757899800536
 30
0.0
 11
265.872959874044
 21
17.2757899800536
 31
0.0
  0
LINE
  5
   254
  8
0
  6
CONTINUOUS
 62
     7
 10
219.827383302619
 20
17.7967344980539
 30
0.0
 11
216.872960040937
 21
17.2757899800536
 31
0.0
  0
LINE
  5
   255
  8
0
  6
CONTINUOUS
 62
     7
 10
216.872960040937
 20
17.2757899800536
 30
0.0
 11
219.827383302619
 21
16.7548454620532
 31
0.0
  0
LINE
  5
   256
  8
0
  6
CONTINUOUS
 62
     7
 10
262.918536612363
 20
16.7548454620532
 30
0.0
 11
265.872959874044
 21
17.2757899800536
 31
0.0
  0
LINE
  5
   257
  8
0
  6
CONTINUOUS
 62
     7
 10
265.872959874044
 20
17.2757899800536
 30
0.0
 11
262.918536612363
 21
17.7967344980539
 31
0.0
  0
ENDBLK
  5
   258
  8
0
  6
CONTINUOUS
 62
     7
  0
BLOCK
  5
   259
  8
0
  6
CONTINUOUS
 62
     7
  2
*UDIM1981
 70
    65
 10
0.0
 20
0.0
 30
0.0
  3
*UDIM1981
  0
TEXT
  5
   25A
  8
0
  6
CONTINUOUS
 62
     7
 10
162.118113143728
 20
95.6605523528612
 30
0.0
 40
2.4999999335834
  1
411
 50
90.0
 41
0.933333333333333
 72
     1
 11
160.868113176933
 21
98.910552266518
 31
0.0
 73
     2
  0
LINE
  5
   25B
  8
0
  6
CONTINUOUS
 62
     7
 10
179.560464148268
 20
27.2147247301583
 30
0.0
 11
161.118113143724
 21
27.2147247301583
 31
0.0
  0
LINE
  5
   25C
  8
0
  6
CONTINUOUS
 62
     7
 10
179.560464148268
 20
171.064708584545
 30
0.0
 11
161.118113143724
 21
171.064708584545
 31
0.0
  0
LINE
  5
   25D
  8
0
  6
CONTINUOUS
 62
     7
 10
163.118113143724
 20
27.2147247301583
 30
0.0
 11
163.118113143724
 21
171.064708584545
 31
0.0
  0
LINE
  5
   25E
  8
0
  6
CONTINUOUS
 62
     7
 10
162.597168625724
 20
30.1691479918399
 30
0.0
 11
163.118113143724
 21
27.2147247301583
 31
0.0
  0
LINE
  5
   25F
  8
0
  6
CONTINUOUS
 62
     7
 10
163.118113143724
 20
27.2147247301583
 30
0.0
 11
163.639057661725
 21
30.1691479918399
 31
0.0
  0
LINE
  5
   260
  8
0
  6
CONTINUOUS
 62
     7
 10
163.639057661725
 20
168.110285322863
 30
0.0
 11
163.118113143724
 21
171.064708584545
 31
0.0
  0
LINE
  5
   261
  8
0
  6
CONTINUOUS
 62
     7
 10
163.118113143724
 20
171.064708584545
 30
0.0
 11
162.597168625724
 21
168.110285322863
 31
0.0
  0
ENDBLK
  5
   262
  8
0
  6
CONTINUOUS
 62
     7
  0
BLOCK
  5
   263
  8
0
  6
CONTINUOUS
 62
     7
  2
*UDIM1982
 70
    65
 10
0.0
 20
0.0
 30
0.0
  3
*UDIM1982
  0
TEXT
  5
   264
  8
0
  6
CONTINUOUS
 62
     7
 10
167.521360884964
 20
50.1605638156191
 30
0.0
 40
2.4999999335834
  1
151
 50
90.0
 41
0.933333333333333
 72
     1
 11
166.271360918168
 21
53.4105637292759
 31
0.0
 73
     2
  0
LINE
  5
   265
  8
0
  6
CONTINUOUS
 62
     7
 10
179.560464148268
 20
27.2147247301583
 30
0.0
 11
166.521360884959
 21
27.2147247301583
 31
0.0
  0
LINE
  5
   266
  8
0
  6
CONTINUOUS
 62
     7
 10
168.521360884959
 20
27.2147247301583
 30
0.0
 11
168.521360884959
 21
80.0647346810279
 31
0.0
  0
LINE
  5
   267
  8
0
  6
CONTINUOUS
 62
     7
 10
168.000416366959
 20
30.1691479918399
 30
0.0
 11
168.521360884959
 21
27.2147247301583
 31
0.0
  0
LINE
  5
   268
  8
0
  6
CONTINUOUS
 62
     7
 10
168.521360884959
 20
27.2147247301583
 30
0.0
 11
169.04230540296
 21
30.1691479918399
 31
0.0
  0
LINE
  5
   269
  8
0
  6
CONTINUOUS
 62
     7
 10
169.04230540296
 20
77.1103114193463
 30
0.0
 11
168.521360884959
 21
80.0647346810279
 31
0.0
  0
LINE
  5
   26A
  8
0
  6
CONTINUOUS
 62
     7
 10
168.521360884959
 20
80.0647346810279
 30
0.0
 11
168.000416366959
 21
77.1103114193463
 31
0.0
  0
ENDBLK
  5
   26B
  8
0
  6
CONTINUOUS
 62
     7
  0
BLOCK
  5
   26C
  8
0
  6
CONTINUOUS
 62
     7
  2
*HATCH365
 70
    65
 10
0.0
 20
0.0
 30
0.0
  3
*HATCH365
  0
LINE
  5
   26D
  8
0
  6
CONTINUOUS
 62
    52
 10
79.7483520507813
 20
-251.177612304688
 30
0.0
 11
72.7667999267578
 21
-258.1591796875
 31
0.0
  0
LINE
  5
   26E
  8
0
  6
CONTINUOUS
 62
    52
 10
88.233642578125
 20
-251.177612304688
 30
0.0
 11
80.233642578125
 21
-259.177612304688
 31
0.0
  0
LINE
  5
   26F
  8
0
  6
CONTINUOUS
 62
    52
 10
96.7189331054688
 20
-251.177612304688
 30
0.0
 11
88.7189331054688
 21
-259.177612304688
 31
0.0
  0
LINE
  5
   270
  8
0
  6
CONTINUOUS
 62
    52
 10
105.204223632812
 20
-251.177612304688
 30
0.0
 11
97.2042236328125
 21
-259.177612304688
 31
0.0
  0
LINE
  5
   271
  8
0
  6
CONTINUOUS
 62
    52
 10
109.486633300781
 20
-255.380462646484
 30
0.0
 11
105.689491271973
 21
-259.177612304688
 31
0.0
  0
ENDBLK
  5
   272
  8
0
  6
CONTINUOUS
 62
     7
  0
BLOCK
  5
   273
  8
0
  6
CONTINUOUS
 62
     7
  2
*HATCH366
 70
    65
 10
0.0
 20
0.0
 30
0.0
  3
*HATCH366
  0
LINE
  5
   274
  8
0
  6
CONTINUOUS
 62
    52
 10
143.387969970703
 20
-251.177612304688
 30
0.0
 11
135.387969970703
 21
-259.177612304688
 31
0.0
  0
LINE
  5
   275
  8
0
  6
CONTINUOUS
 62
    52
 10
151.873260498047
 20
-251.177612304688
 30
0.0
 11
143.873260498047
 21
-259.177612304688
 31
0.0
  0
LINE
  5
   276
  8
0
  6
CONTINUOUS
 62
    52
 10
158.672821044922
 20
-252.863327026367
 30
0.0
 11
152.358535766602
 21
-259.177612304688
 31
0.0
  0
ENDBLK
  5
   277
  8
0
  6
CONTINUOUS
 62
     7
  0
BLOCK
  5
   278
  8
0
  6
CONTINUOUS
 62
     7
  2
*UDIM1983
 70
    65
 10
0.0
 20
0.0
 30
0.0
  3
*UDIM1983
  0
TEXT
  5
   279
  8
0
  6
CONTINUOUS
 62
     7
 10
209.730422620106
 20
-105.667930399481
 30
0.0
 40
2.50000001341104
  1
90
 50
449.999999844103
 41
0.933333333333333
 72
     1
 11
208.480422619056
 21
-103.584597051578
 31
0.0
 73
     2
  0
LINE
  5
   27A
  8
0
  6
CONTINUOUS
 62
     7
 10
238.486955294162
 20
-94.3554303348064
 30
0.0
 11
208.730422625762
 21
-94.3554303348064
 31
0.0
  0
LINE
  5
   27B
  8
0
  6
CONTINUOUS
 62
     7
 10
210.730422625762
 20
-94.3554303348064
 30
0.0
 11
210.730422625762
 21
-112.355430603027
 31
0.0
  0
LINE
  5
   27C
  8
0
  6
CONTINUOUS
 62
     7
 10
211.251367143762
 20
-97.3098535964881
 30
0.0
 11
210.730422625762
 21
-94.3554303348064
 31
0.0
  0
LINE
  5
   27D
  8
0
  6
CONTINUOUS
 62
     7
 10
210.730422625762
 20
-94.3554303348064
 30
0.0
 11
210.209478107761
 21
-97.3098535964881
 31
0.0
  0
LINE
  5
   27E
  8
0
  6
CONTINUOUS
 62
     7
 10
210.209478107761
 20
-109.401007341346
 30
0.0
 11
210.730422625762
 21
-112.355430603027
 31
0.0
  0
LINE
  5
   27F
  8
0
  6
CONTINUOUS
 62
     7
 10
210.730422625762
 20
-112.355430603027
 30
0.0
 11
211.251367143762
 21
-109.401007341346
 31
0.0
  0
ENDBLK
  5
   280
  8
0
  6
CONTINUOUS
 62
     7
  0
BLOCK
  5
   281
  8
0
  6
CONTINUOUS
 62
     7
  2
*UDIM1984
 70
    65
 10
0.0
 20
0.0
 30
0.0
  3
*UDIM1984
  0
TEXT
  5
   282
  8
0
  6
CONTINUOUS
 62
     7
 10
215.199289532744
 20
-115.834597564144
 30
0.0
 40
2.50000001341104
  1
161
 50
449.999999844103
 41
0.933333333333333
 72
     1
 11
213.949289534861
 21
-112.584597543317
 31
0.0
 73
     2
  0
LINE
  5
   283
  8
0
  6
CONTINUOUS
 62
     7
 10
222.472955055535
 20
-96.2554303631187
 30
0.0
 11
214.199289541567
 21
-96.2554303631187
 31
0.0
  0
LINE
  5
   284
  8
0
  6
CONTINUOUS
 62
     7
 10
222.472955055535
 20
-128.455430842936
 30
0.0
 11
214.199289541567
 21
-128.455430842936
 31
0.0
  0
LINE
  5
   285
  8
0
  6
CONTINUOUS
 62
     7
 10
216.199289541567
 20
-96.2554303631187
 30
0.0
 11
216.199289541567
 21
-128.455430842936
 31
0.0
  0
LINE
  5
   286
  8
0
  6
CONTINUOUS
 62
     7
 10
216.720234059567
 20
-99.2098536248003
 30
0.0
 11
216.199289541567
 21
-96.2554303631187
 31
0.0
  0
LINE
  5
   287
  8
0
  6
CONTINUOUS
 62
     7
 10
216.199289541567
 20
-96.2554303631187
 30
0.0
 11
215.678345023567
 21
-99.2098536248003
 31
0.0
  0
LINE
  5
   288
  8
0
  6
CONTINUOUS
 62
     7
 10
215.678345023567
 20
-125.501007581254
 30
0.0
 11
216.199289541567
 21
-128.455430842936
 31
0.0
  0
LINE
  5
   289
  8
0
  6
CONTINUOUS
 62
     7
 10
216.199289541567
 20
-128.455430842936
 30
0.0
 11
216.720234059567
 21
-125.501007581254
 31
0.0
  0
ENDBLK
  5
   28A
  8
0
  6
CONTINUOUS
 62
     7
  0
BLOCK
  5
   28B
  8
0
  6
CONTINUOUS
 62
     7
  2
*UDIM1985
 70
    65
 10
0.0
 20
0.0
 30
0.0
  3
*UDIM1985
  0
TEXT
  5
   28C
  8
0
  6
CONTINUOUS
 62
     7
 10
219.103274290894
 20
-86.2738350992592
 30
0.0
 40
2.99999994933605
  1
7
 50
324.349254697673
 41
0.933333333333333
 72
     1
 11
220.871381944288
 21
-85.6960849723464
 31
0.0
 73
     2
  0
TEXT
  5
   28D
  8
0
  6
CONTINUOUS
 62
     7
 10
215.852934838985
 20
-83.9424636054714
 30
0.0
 40
2.99999994933605
  1
Ø
 50
324.349254697673
 41
1.2
 72
     1
 11
217.946076435627
 21
-83.5978506277477
 31
0.0
 73
     2
  0
LINE
  5
   28E
  8
0
  6
CONTINUOUS
 62
     7
 10
215.270091959312
 20
-84.7550484845851
 30
0.0
 11
233.704688925997
 21
-97.9776347648248
 31
0.0
  0
LINE
  5
   28F
  8
0
  6
CONTINUOUS
 62
     7
 10
225.696903052099
 20
-93.1894286870935
 30
0.0
 11
228.504145719106
 21
-94.2474403167713
 31
0.0
  0
LINE
  5
   290
  8
0
  6
CONTINUOUS
 62
     7
 10
228.504145719106
 20
-94.2474403167713
 30
0.0
 11
226.602008103531
 21
-91.9275540067522
 31
0.0
  0
LINE
  5
   291
  8
0
  6
CONTINUOUS
 62
     7
 10
232.449007225864
 20
-96.1214319914601
 30
0.0
 11
229.641764558857
 21
-95.0634203617823
 31
0.0
  0
LINE
  5
   292
  8
0
  6
CONTINUOUS
 62
     7
 10
229.641764558857
 20
-95.0634203617823
 30
0.0
 11
231.543902174432
 21
-97.3833066718014
 31
0.0
  0
ENDBLK
  5
   293
  8
0
  6
CONTINUOUS
 62
     7
  0
BLOCK
  5
   294
  8
0
  6
CONTINUOUS
 62
     7
  2
*UDIM1986
 70
    65
 10
0.0
 20
0.0
 30
0.0
  3
*UDIM1986
  0
TEXT
  5
   295
  8
0
  6
CONTINUOUS
 62
     7
 10
269.976879769472
 20
-146.020019535809
 30
0.0
 40
2.99999994933605
  1
7
 50
294.585367791096
 41
0.933333333333333
 72
     1
 11
271.798546758171
 21
-146.396223291
 31
0.0
 73
     2
  0
TEXT
  5
   296
  8
0
  6
CONTINUOUS
 62
     7
 10
268.312685470567
 20
-142.382650028846
 30
0.0
 40
2.99999994933605
  1
Ø
 50
294.585367791096
 41
1.2
 72
     1
 11
270.300771887564
 21
-143.122590733605
 31
0.0
 73
     2
  0
LINE
  5
   297
  8
0
  6
CONTINUOUS
 62
     7
 10
259.201478711545
 20
-124.872179244864
 30
0.0
 11
269.982844241381
 21
-148.436621341135
 31
0.0
  0
LINE
  5
   298
  8
0
  6
CONTINUOUS
 62
     7
 10
259.37004000426
 20
-127.106863195335
 30
0.0
 11
261.281721612759
 21
-129.418891185591
 31
0.0
  0
LINE
  5
   299
  8
0
  6
CONTINUOUS
 62
     7
 10
261.281721612759
 20
-129.418891185591
 30
0.0
 11
260.78217081408
 21
-126.46077540024
 31
0.0
  0
LINE
  5
   29A
  8
0
  6
CONTINUOUS
 62
     7
 10
263.775871242278
 20
-133.003998538221
 30
0.0
 11
261.864189633779
 21
-130.691970547965
 31
0.0
  0
LINE
  5
   29B
  8
0
  6
CONTINUOUS
 62
     7
 10
261.864189633779
 20
-130.691970547965
 30
0.0
 11
262.363740432458
 21
-133.650086333315
 31
0.0
  0
ENDBLK
  5
   29C
  8
0
  6
CONTINUOUS
 62
     7
  0
BLOCK
  5
   29D
  8
0
  6
CONTINUOUS
 62
     7
  2
*UDIM1987
 70
    65
 10
0.0
 20
0.0
 30
0.0
  3
*UDIM1987
  0
TEXT
  5
   29E
  8
0
  6
CONTINUOUS
 62
     7
 10
266.392791344105
 20
-87.8217187981502
 30
0.0
 40
2.50000001341104
  1
8
 50
407.936580148673
 41
0.933333333333333
 72
     1
 11
266.07891006752
 21
-86.3037410816582
 31
0.0
 73
     2
  0
TEXT
  5
   29F
  8
0
  6
CONTINUOUS
 62
     7
 10
264.634165302209
 20
-89.7705285889468
 30
0.0
 40
2.50000001341104
  1
Ø
 50
407.936580148673
 41
0.933333333333333
 72
     1
 11
264.320284025624
 21
-88.2525508724548
 31
0.0
 73
     2
  0
TEXT
  5
   2A0
  8
0
  6
CONTINUOUS
 62
     7
 10
267.928099752823
 20
-86.1203769291406
 30
0.0
 40
2.50000001341104
  1
(5 fori)
 50
407.936580148673
 41
0.933333333333333
 72
     1
 11
273.085499479374
 21
-78.5394354699956
 31
0.0
 73
     2
  0
LINE
  5
   2A1
  8
0
  6
CONTINUOUS
 62
     7
 10
280.841312220291
 20
-73.3033287018276
 30
0.0
 11
261.036993399055
 21
-95.2493533252683
 31
0.0
  0
LINE
  5
   2A2
  8
0
  6
CONTINUOUS
 62
     7
 10
263.701490747419
 20
-91.5191243061445
 30
0.0
 11
262.108917847483
 21
-94.0615073532853
 31
0.0
  0
LINE
  5
   2A3
  8
0
  6
CONTINUOUS
 62
     7
 10
262.108917847483
 20
-94.0615073532853
 30
0.0
 11
264.47499304506
 21
-92.2171407521422
 31
0.0
  0
LINE
  5
   2A4
  8
0
  6
CONTINUOUS
 62
     7
 10
259.444420499119
 20
-97.7917363724091
 30
0.0
 11
261.036993399055
 21
-95.2493533252683
 31
0.0
  0
LINE
  5
   2A5
  8
0
  6
CONTINUOUS
 62
     7
 10
261.036993399055
 20
-95.2493533252683
 30
0.0
 11
258.670918201478
 21
-97.0937199264114
 31
0.0
  0
ENDBLK
  5
   2A6
  8
0
  6
CONTINUOUS
 62
     7
  0
BLOCK
  5
   2A7
  8
0
  6
CONTINUOUS
 62
     7
  2
*UDIM1988
 70
    65
 10
0.0
 20
0.0
 30
0.0
  3
*UDIM1988
  0
TEXT
  5
   2A8
  8
0
  6
CONTINUOUS
 62
     7
 10
251.999017329348
 20
-107.267952621566
 30
0.0
 40
2.99999994933605
  1
9
 50
449.999999844103
 41
0.933333333333333
 72
     1
 11
250.499017357666
 21
-106.167952636071
 31
0.0
 73
     2
  0
LINE
  5
   2A9
  8
0
  6
CONTINUOUS
 62
     7
 10
264.572955682874
 20
-114.155430629849
 30
0.0
 11
250.999017332334
 21
-114.155430629849
 31
0.0
  0
LINE
  5
   2AA
  8
0
  6
CONTINUOUS
 62
     7
 10
252.999017332334
 20
-105.067952654648
 30
0.0
 11
252.999017332334
 21
-114.155430629849
 31
0.0
  0
LINE
  5
   2AB
  8
0
  6
CONTINUOUS
 62
     7
 10
252.222560175915
 20
-109.457653129817
 30
0.0
 11
252.999017332334
 21
-112.355430603027
 31
0.0
  0
LINE
  5
   2AC
  8
0
  6
CONTINUOUS
 62
     7
 10
252.999017332334
 20
-112.355430603027
 30
0.0
 11
253.775474488752
 21
-109.457653129817
 31
0.0
  0
CIRCLE
  5
   2AD
  8
0
  6
CONTINUOUS
 62
     7
 10
252.999017332334
 20
-114.155430629849
 30
0.0
 40
0.5
  0
ENDBLK
  5
   2AE
  8
0
  6
CONTINUOUS
 62
     7
  0
BLOCK
  5
   2AF
  8
0
  6
CONTINUOUS
 62
     7
  2
*UDIM1989
 70
    65
 10
0.0
 20
0.0
 30
0.0
  3
*UDIM1989
  0
TEXT
  5
   2B0
  8
0
  6
CONTINUOUS
 62
     7
 10
251.999017325547
 20
-120.555430649816
 30
0.0
 40
2.99999994933605
  1
39
 50
449.999999844103
 41
0.933333333333333
 72
     1
 11
250.499017357666
 21
-118.055430687964
 31
0.0
 73
     2
  0
LINE
  5
   2B1
  8
0
  6
CONTINUOUS
 62
     7
 10
264.572955682874
 20
-121.955430746079
 30
0.0
 11
250.999017332334
 21
-121.955430746079
 31
0.0
  0
LINE
  5
   2B2
  8
0
  6
CONTINUOUS
 62
     7
 10
252.999017332334
 20
-114.155430629849
 30
0.0
 11
252.999017332334
 21
-126.955430746079
 31
0.0
  0
CIRCLE
  5
   2B3
  8
0
  6
CONTINUOUS
 62
     7
 10
252.999017332334
 20
-114.155430629849
 30
0.0
 40
0.5
  0
LINE
  5
   2B4
  8
0
  6
CONTINUOUS
 62
     7
 10
253.775474488752
 20
-124.853208219289
 30
0.0
 11
252.999017332334
 21
-121.955430746079
 31
0.0
  0
LINE
  5
   2B5
  8
0
  6
CONTINUOUS
 62
     7
 10
252.999017332334
 20
-121.955430746079
 30
0.0
 11
252.222560175915
 21
-124.853208219289
 31
0.0
  0
ENDBLK
  5
   2B6
  8
0
  6
CONTINUOUS
 62
     7
  0
BLOCK
  5
   2B7
  8
0
  6
CONTINUOUS
 62
     7
  2
*UDIM1990
 70
    65
 10
0.0
 20
0.0
 30
0.0
  3
*UDIM1990
  0
TEXT
  5
   2B8
  8
0
  6
CONTINUOUS
 62
     7
 10
175.755986580305
 20
-143.294159888721
 30
0.0
 40
2.50000001341104
  1
Ø4
 50
449.999999844103
 41
0.933333333333333
 72
     1
 11
174.505986579255
 21
-141.210826540819
 31
0.0
 73
     2
  0
LINE
  5
   2B9
  8
0
  6
CONTINUOUS
 62
     7
 10
188.184708754305
 20
-134.889995147803
 30
0.0
 11
174.75598658596
 21
-134.889995147803
 31
0.0
  0
LINE
  5
   2BA
  8
0
  6
CONTINUOUS
 62
     7
 10
188.214886568671
 20
-138.089995195487
 30
0.0
 11
174.75598658596
 21
-138.089995195487
 31
0.0
  0
LINE
  5
   2BB
  8
0
  6
CONTINUOUS
 62
     7
 10
176.75598658596
 20
-134.889995147803
 30
0.0
 11
176.75598658596
 21
-143.294159885328
 31
0.0
  0
LINE
  5
   2BC
  8
0
  6
CONTINUOUS
 62
     7
 10
176.23504206796
 20
-131.935571886121
 30
0.0
 11
176.75598658596
 21
-134.889995147803
 31
0.0
  0
LINE
  5
   2BD
  8
0
  6
CONTINUOUS
 62
     7
 10
176.75598658596
 20
-134.889995147803
 30
0.0
 11
177.276931103961
 21
-131.935571886121
 31
0.0
  0
LINE
  5
   2BE
  8
0
  6
CONTINUOUS
 62
     7
 10
177.276931103961
 20
-141.044418457168
 30
0.0
 11
176.75598658596
 21
-138.089995195487
 31
0.0
  0
LINE
  5
   2BF
  8
0
  6
CONTINUOUS
 62
     7
 10
176.75598658596
 20
-138.089995195487
 30
0.0
 11
176.23504206796
 21
-141.044418457168
 31
0.0
  0
ENDBLK
  5
   2C0
  8
0
  6
CONTINUOUS
 62
     7
  0
BLOCK
  5
   2C1
  8
0
  6
CONTINUOUS
 62
     7
  2
*UDIM1991
 70
    65
 10
0.0
 20
0.0
 30
0.0
  3
*UDIM1991
  0
TEXT
  5
   2C2
  8
0
  6
CONTINUOUS
 62
     7
 10
204.068917320762
 20
-139.737595975935
 30
0.0
 40
2.50000001341104
  1
80
 50
449.138233404105
 41
0.933333333333333
 72
     1
 11
202.850392236293
 21
-137.635698152627
 31
0.0
 73
     2
  0
TEXT
  5
   2C3
  8
0
  6
CONTINUOUS
 62
     7
 10
203.631640927826
 20
-135.563880525367
 30
0.0
 40
2.50000001341104
  1
°
 50
449.138233404105
 41
0.933333333333333
 72
     1
 11
202.395569062968
 21
-134.628517414879
 31
0.0
 73
     2
  0
LINE
  5
   2C4
  8
0
  6
CONTINUOUS
 62
     7
 10
191.903476555879
 20
-140.075342235063
 30
0.0
 11
202.55721365751
 21
-149.0148891077
 31
0.0
  0
LINE
  5
   2C5
  8
0
  6
CONTINUOUS
 62
     7
 10
191.903476555879
 20
-132.904648108227
 30
0.0
 11
202.55721365751
 21
-123.965101235589
 31
0.0
  0
ARC
  5
   2C6
  8
0
  6
CONTINUOUS
 62
     7
 10
187.630626312354
 20
-136.489995171645
 30
0.0
 40
17.4852759252214
 50
319.999999815233
 51
399.999999769042
  0
LINE
  5
   2C7
  8
0
  6
CONTINUOUS
 62
     7
 10
202.525124784463
 20
-145.13123768459
 30
0.0
 11
201.025124771272
 21
-147.729313888327
 31
0.0
  0
LINE
  5
   2C8
  8
0
  6
CONTINUOUS
 62
     7
 10
201.025124771272
 20
-147.729313888327
 30
0.0
 11
203.323258090838
 21
-145.8009510476
 31
0.0
  0
LINE
  5
   2C9
  8
0
  6
CONTINUOUS
 62
     7
 10
203.323258090838
 20
-127.17903929569
 30
0.0
 11
201.025124771272
 21
-125.250676454962
 31
0.0
  0
LINE
  5
   2CA
  8
0
  6
CONTINUOUS
 62
     7
 10
201.025124771272
 20
-125.250676454962
 30
0.0
 11
202.525124784463
 21
-127.848752658699
 31
0.0
  0
ENDBLK
  5
   2CB
  8
0
  6
CONTINUOUS
 62
     7
  0
BLOCK
  5
   2CC
  8
0
  6
CONTINUOUS
 62
     7
  2
*UDIM1992
 70
    65
 10
0.0
 20
0.0
 30
0.0
  3
*UDIM1992
  0
TEXT
  5
   2CD
  8
0
  6
CONTINUOUS
 62
     7
 10
253.722964374456
 20
-158.403618532122
 30
0.0
 40
2.50000001341104
  1
R min.200
 50
359.999999844103
 41
0.933333333333333
 72
     1
 11
263.972964432836
 21
-157.153618553254
 31
0.0
 73
     2
  0
LINE
  5
   2CE
  8
0
  6
CONTINUOUS
 62
     7
 10
241.372955322266
 20
-137.092397896363
 30
0.0
 11
241.372955322266
 21
-161.403618559959
 31
0.0
  0
LINE
  5
   2CF
  8
0
  6
CONTINUOUS
 62
     7
 10
281.372955918312
 20
-156.514308693158
 30
0.0
 11
281.372955918312
 21
-161.403618559959
 31
0.0
  0
LINE
  5
   2D0
  8
0
  6
CONTINUOUS
 62
     7
 10
241.372955322266
 20
-159.403618559959
 30
0.0
 11
281.372955918312
 21
-159.403618559959
 31
0.0
  0
LINE
  5
   2D1
  8
0
  6
CONTINUOUS
 62
     7
 10
244.327378583947
 20
-158.882674041959
 30
0.0
 11
241.372955322266
 21
-159.403618559959
 31
0.0
  0
LINE
  5
   2D2
  8
0
  6
CONTINUOUS
 62
     7
 10
241.372955322266
 20
-159.403618559959
 30
0.0
 11
244.327378583947
 21
-159.92456307796
 31
0.0
  0
LINE
  5
   2D3
  8
0
  6
CONTINUOUS
 62
     7
 10
278.418532656631
 20
-159.92456307796
 30
0.0
 11
281.372955918312
 21
-159.403618559959
 31
0.0
  0
LINE
  5
   2D4
  8
0
  6
CONTINUOUS
 62
     7
 10
281.372955918312
 20
-159.403618559959
 30
0.0
 11
278.418532656631
 21
-158.882674041959
 31
0.0
  0
ENDBLK
  5
   2D5
  8
0
  6
CONTINUOUS
 62
     7
  0
BLOCK
  5
   2D6
  8
0
  6
CONTINUOUS
 62
     7
  2
*UDIM1993
 70
    65
 10
0.0
 20
0.0
 30
0.0
  3
*UDIM1993
  0
TEXT
  5
   2D7
  8
0
  6
CONTINUOUS
 62
     7
 10
273.88120776588
 20
-115.834597564144
 30
0.0
 40
2.50000001341104
  1
177
 50
449.999999844103
 41
0.933333333333333
 72
     1
 11
272.631207767997
 21
-112.584597543317
 31
0.0
 73
     2
  0
LINE
  5
   2D8
  8
0
  6
CONTINUOUS
 62
     7
 10
263.872955642641
 20
-94.6554303392768
 30
0.0
 11
276.881207774703
 21
-94.6554303392768
 31
0.0
  0
LINE
  5
   2D9
  8
0
  6
CONTINUOUS
 62
     7
 10
263.872955642641
 20
-130.055430866778
 30
0.0
 11
276.881207774703
 21
-130.055430866778
 31
0.0
  0
LINE
  5
   2DA
  8
0
  6
CONTINUOUS
 62
     7
 10
274.881207774703
 20
-94.6554303392768
 30
0.0
 11
274.881207774703
 21
-130.055430866778
 31
0.0
  0
LINE
  5
   2DB
  8
0
  6
CONTINUOUS
 62
     7
 10
275.402152292703
 20
-97.6098536009584
 30
0.0
 11
274.881207774703
 21
-94.6554303392768
 31
0.0
  0
LINE
  5
   2DC
  8
0
  6
CONTINUOUS
 62
     7
 10
274.881207774703
 20
-94.6554303392768
 30
0.0
 11
274.360263256702
 21
-97.6098536009584
 31
0.0
  0
LINE
  5
   2DD
  8
0
  6
CONTINUOUS
 62
     7
 10
274.360263256702
 20
-127.101007605096
 30
0.0
 11
274.881207774703
 21
-130.055430866778
 31
0.0
  0
LINE
  5
   2DE
  8
0
  6
CONTINUOUS
 62
     7
 10
274.881207774703
 20
-130.055430866778
 30
0.0
 11
275.402152292703
 21
-127.101007605096
 31
0.0
  0
ENDBLK
  5
   2DF
  8
0
  6
CONTINUOUS
 62
     7
  0
BLOCK
  5
   2E0
  8
0
  6
CONTINUOUS
 62
     7
  2
*UDIM1994
 70
    65
 10
0.0
 20
0.0
 30
0.0
  3
*UDIM1994
  0
TEXT
  5
   2E1
  8
0
  6
CONTINUOUS
 62
     7
 10
249.993788541451
 20
-151.577327555858
 30
0.0
 40
2.50000001341104
  1
121
 50
359.999999844103
 41
0.933333333333333
 72
     1
 11
253.24378856228
 21
-150.327327557979
 31
0.0
 73
     2
  0
LINE
  5
   2E2
  8
0
  6
CONTINUOUS
 62
     7
 10
241.372955322266
 20
-137.092397896363
 30
0.0
 11
241.372955322266
 21
-154.577327564685
 31
0.0
  0
LINE
  5
   2E3
  8
0
  6
CONTINUOUS
 62
     7
 10
265.572955682874
 20
-123.555430755019
 30
0.0
 11
265.572955682874
 21
-154.577327564685
 31
0.0
  0
LINE
  5
   2E4
  8
0
  6
CONTINUOUS
 62
     7
 10
241.372955322266
 20
-152.577327564685
 30
0.0
 11
265.572955682874
 21
-152.577327564685
 31
0.0
  0
LINE
  5
   2E5
  8
0
  6
CONTINUOUS
 62
     7
 10
244.327378583947
 20
-152.056383046685
 30
0.0
 11
241.372955322266
 21
-152.577327564685
 31
0.0
  0
LINE
  5
   2E6
  8
0
  6
CONTINUOUS
 62
     7
 10
241.372955322266
 20
-152.577327564685
 30
0.0
 11
244.327378583947
 21
-153.098272082685
 31
0.0
  0
LINE
  5
   2E7
  8
0
  6
CONTINUOUS
 62
     7
 10
262.618532421192
 20
-153.098272082685
 30
0.0
 11
265.572955682874
 21
-152.577327564685
 31
0.0
  0
LINE
  5
   2E8
  8
0
  6
CONTINUOUS
 62
     7
 10
265.572955682874
 20
-152.577327564685
 30
0.0
 11
262.618532421192
 21
-152.056383046685
 31
0.0
  0
ENDBLK
  5
   2E9
  8
0
  6
CONTINUOUS
 62
     7
  0
BLOCK
  5
   2EA
  8
0
  6
CONTINUOUS
 62
     7
  2
*UDIM1995
 70
    65
 10
0.0
 20
0.0
 30
0.0
  3
*UDIM1995
  0
TEXT
  5
   2EB
  8
0
  6
CONTINUOUS
 62
     7
 10
269.233079451804
 20
-136.62508276835
 30
0.0
 40
2.50000001341104
  1
16
 50
359.999999844103
 41
0.933333333333333
 72
     1
 11
271.316412799708
 21
-135.375082767303
 31
0.0
 73
     2
  0
LINE
  5
   2EC
  8
0
  6
CONTINUOUS
 62
     7
 10
263.972955659032
 20
-121.355430722237
 30
0.0
 11
263.972955659032
 21
-139.625082774008
 31
0.0
  0
LINE
  5
   2ED
  8
0
  6
CONTINUOUS
 62
     7
 10
267.172955706716
 20
-121.355430722237
 30
0.0
 11
267.172955706716
 21
-139.625082774008
 31
0.0
  0
LINE
  5
   2EE
  8
0
  6
CONTINUOUS
 62
     7
 10
263.972955659032
 20
-137.625082774008
 30
0.0
 11
273.399746144217
 21
-137.625082774008
 31
0.0
  0
LINE
  5
   2EF
  8
0
  6
CONTINUOUS
 62
     7
 10
261.01853239735
 20
-138.146027292008
 30
0.0
 11
263.972955659032
 21
-137.625082774008
 31
0.0
  0
LINE
  5
   2F0
  8
0
  6
CONTINUOUS
 62
     7
 10
263.972955659032
 20
-137.625082774008
 30
0.0
 11
261.01853239735
 21
-137.104138256008
 31
0.0
  0
LINE
  5
   2F1
  8
0
  6
CONTINUOUS
 62
     7
 10
270.127378968397
 20
-137.104138256008
 30
0.0
 11
267.172955706716
 21
-137.625082774008
 31
0.0
  0
LINE
  5
   2F2
  8
0
  6
CONTINUOUS
 62
     7
 10
267.172955706716
 20
-137.625082774008
 30
0.0
 11
270.127378968397
 21
-138.146027292008
 31
0.0
  0
ENDBLK
  5
   2F3
  8
0
  6
CONTINUOUS
 62
     7
  0
BLOCK
  5
   2F4
  8
0
  6
CONTINUOUS
 62
     7
  2
*UDIM1996
 70
    65
 10
0.0
 20
0.0
 30
0.0
  3
*UDIM1996
  0
TEXT
  5
   2F5
  8
0
  6
CONTINUOUS
 62
     7
 10
239.510455908622
 20
-146.831490076459
 30
0.0
 40
2.50000001341104
  1
162,5
 50
359.999999844103
 41
0.933333333333333
 72
     1
 11
245.093789275301
 21
-145.581490084917
 31
0.0
 73
     2
  0
LINE
  5
   2F6
  8
0
  6
CONTINUOUS
 62
     7
 10
229.072955138981
 20
-132.355430886149
 30
0.0
 11
229.072955138981
 21
-149.831490091623
 31
0.0
  0
LINE
  5
   2F7
  8
0
  6
CONTINUOUS
 62
     7
 10
261.572955623269
 20
-132.355430886149
 30
0.0
 11
261.572955623269
 21
-149.831490091623
 31
0.0
  0
LINE
  5
   2F8
  8
0
  6
CONTINUOUS
 62
     7
 10
229.072955138981
 20
-147.831490091623
 30
0.0
 11
261.572955623269
 21
-147.831490091623
 31
0.0
  0
LINE
  5
   2F9
  8
0
  6
CONTINUOUS
 62
     7
 10
232.027378400663
 20
-147.310545573622
 30
0.0
 11
229.072955138981
 21
-147.831490091623
 31
0.0
  0
LINE
  5
   2FA
  8
0
  6
CONTINUOUS
 62
     7
 10
229.072955138981
 20
-147.831490091623
 30
0.0
 11
232.027378400663
 21
-148.352434609623
 31
0.0
  0
LINE
  5
   2FB
  8
0
  6
CONTINUOUS
 62
     7
 10
258.618532361588
 20
-148.352434609623
 30
0.0
 11
261.572955623269
 21
-147.831490091623
 31
0.0
  0
LINE
  5
   2FC
  8
0
  6
CONTINUOUS
 62
     7
 10
261.572955623269
 20
-147.831490091623
 30
0.0
 11
258.618532361588
 21
-147.310545573622
 31
0.0
  0
ENDBLK
  5
   2FD
  8
0
  6
CONTINUOUS
 62
     7
  0
BLOCK
  5
   2FE
  8
0
  6
CONTINUOUS
 62
     7
  2
*UDIM1997
 70
    65
 10
0.0
 20
0.0
 30
0.0
  3
*UDIM1997
  0
TEXT
  5
   2FF
  8
0
  6
CONTINUOUS
 62
     7
 10
247.993788511649
 20
-141.51386610219
 30
0.0
 40
2.50000001341104
  1
101
 50
359.999999844103
 41
0.933333333333333
 72
     1
 11
251.243788532478
 21
-140.263866104311
 31
0.0
 73
     2
  0
LINE
  5
   300
  8
0
  6
CONTINUOUS
 62
     7
 10
241.372955322266
 20
-137.092397896363
 30
0.0
 11
241.372955322266
 21
-144.513866111017
 31
0.0
  0
LINE
  5
   301
  8
0
  6
CONTINUOUS
 62
     7
 10
261.572955623269
 20
-132.355430886149
 30
0.0
 11
261.572955623269
 21
-144.513866111017
 31
0.0
  0
LINE
  5
   302
  8
0
  6
CONTINUOUS
 62
     7
 10
241.372955322266
 20
-142.513866111017
 30
0.0
 11
261.572955623269
 21
-142.513866111017
 31
0.0
  0
LINE
  5
   303
  8
0
  6
CONTINUOUS
 62
     7
 10
244.327378583947
 20
-141.992921593016
 30
0.0
 11
241.372955322266
 21
-142.513866111017
 31
0.0
  0
LINE
  5
   304
  8
0
  6
CONTINUOUS
 62
     7
 10
241.372955322266
 20
-142.513866111017
 30
0.0
 11
244.327378583947
 21
-143.034810629017
 31
0.0
  0
LINE
  5
   305
  8
0
  6
CONTINUOUS
 62
     7
 10
258.618532361588
 20
-143.034810629017
 30
0.0
 11
261.572955623269
 21
-142.513866111017
 31
0.0
  0
LINE
  5
   306
  8
0
  6
CONTINUOUS
 62
     7
 10
261.572955623269
 20
-142.513866111017
 30
0.0
 11
258.618532361588
 21
-141.992921593016
 31
0.0
  0
ENDBLK
  5
   307
  8
0
  6
CONTINUOUS
 62
     7
  0
BLOCK
  5
   308
  8
0
  6
CONTINUOUS
 62
     7
  2
*UDIM1998
 70
    65
 10
0.0
 20
0.0
 30
0.0
  3
*UDIM1998
  0
TEXT
  5
   309
  8
0
  6
CONTINUOUS
 62
     7
 10
226.831289760329
 20
-136.081885118914
 30
0.0
 40
2.50000001341104
  1
19,75
 50
359.999999844103
 41
0.933333333333333
 72
     1
 11
232.414623127009
 21
-134.831885127372
 31
0.0
 73
     2
  0
LINE
  5
   30A
  8
0
  6
CONTINUOUS
 62
     7
 10
245.322955381125
 20
-132.355430886149
 30
0.0
 11
245.322955381125
 21
-139.081885134078
 31
0.0
  0
LINE
  5
   30B
  8
0
  6
CONTINUOUS
 62
     7
 10
226.831289763724
 20
-137.081885134078
 30
0.0
 11
245.322955381125
 21
-137.081885134078
 31
0.0
  0
LINE
  5
   30C
  8
0
  6
CONTINUOUS
 62
     7
 10
238.418532060584
 20
-137.602829652078
 30
0.0
 11
241.372955322266
 21
-137.081885134078
 31
0.0
  0
LINE
  5
   30D
  8
0
  6
CONTINUOUS
 62
     7
 10
241.372955322266
 20
-137.081885134078
 30
0.0
 11
238.418532060584
 21
-136.560940616078
 31
0.0
  0
LINE
  5
   30E
  8
0
  6
CONTINUOUS
 62
     7
 10
248.277378642807
 20
-136.560940616078
 30
0.0
 11
245.322955381125
 21
-137.081885134078
 31
0.0
  0
LINE
  5
   30F
  8
0
  6
CONTINUOUS
 62
     7
 10
245.322955381125
 20
-137.081885134078
 30
0.0
 11
248.277378642807
 21
-137.602829652078
 31
0.0
  0
ENDBLK
  5
   310
  8
0
  6
CONTINUOUS
 62
     7
  0
BLOCK
  5
   311
  8
0
  6
CONTINUOUS
 62
     7
  2
*UDIM1999
 70
    65
 10
0.0
 20
0.0
 30
0.0
  3
*UDIM1999
  0
TEXT
  5
   312
  8
0
  6
CONTINUOUS
 62
     7
 10
236.993788347736
 20
-74.9645120831838
 30
0.0
 40
2.50000001341104
  1
170
 50
359.999999844103
 41
0.933333333333333
 72
     1
 11
240.243788368565
 21
-73.7145120853049
 31
0.0
 73
     2
  0
LINE
  5
   313
  8
0
  6
CONTINUOUS
 62
     7
 10
223.472955055535
 20
-95.2554303631186
 30
0.0
 11
223.472955055535
 21
-73.9645120920104
 31
0.0
  0
LINE
  5
   314
  8
0
  6
CONTINUOUS
 62
     7
 10
257.472955562174
 20
-95.2554303631186
 30
0.0
 11
257.472955562174
 21
-73.9645120920104
 31
0.0
  0
LINE
  5
   315
  8
0
  6
CONTINUOUS
 62
     7
 10
223.472955055535
 20
-75.9645120920104
 30
0.0
 11
257.472955562174
 21
-75.9645120920104
 31
0.0
  0
LINE
  5
   316
  8
0
  6
CONTINUOUS
 62
     7
 10
226.427378317216
 20
-75.4435675740101
 30
0.0
 11
223.472955055535
 21
-75.9645120920104
 31
0.0
  0
LINE
  5
   317
  8
0
  6
CONTINUOUS
 62
     7
 10
223.472955055535
 20
-75.9645120920104
 30
0.0
 11
226.427378317216
 21
-76.4854566100107
 31
0.0
  0
LINE
  5
   318
  8
0
  6
CONTINUOUS
 62
     7
 10
254.518532300493
 20
-76.4854566100107
 30
0.0
 11
257.472955562174
 21
-75.9645120920104
 31
0.0
  0
LINE
  5
   319
  8
0
  6
CONTINUOUS
 62
     7
 10
257.472955562174
 20
-75.9645120920104
 30
0.0
 11
254.518532300493
 21
-75.4435675740101
 31
0.0
  0
ENDBLK
  5
   31A
  8
0
  6
CONTINUOUS
 62
     7
  0
BLOCK
  5
   31B
  8
0
  6
CONTINUOUS
 62
     7
  2
*UDIM2000
 70
    65
 10
0.0
 20
0.0
 30
0.0
  3
*UDIM2000
  0
TEXT
  5
   31C
  8
0
  6
CONTINUOUS
 62
     7
 10
244.777122213488
 20
-79.6800761151264
 30
0.0
 40
2.50000001341104
  1
80,5
 50
359.999999844103
 41
0.933333333333333
 72
     1
 11
249.193788907242
 21
-78.430076120416
 31
0.0
 73
     2
  0
LINE
  5
   31D
  8
0
  6
CONTINUOUS
 62
     7
 10
241.372955322266
 20
-86.4932719008565
 30
0.0
 11
241.372955322266
 21
-78.6800761271215
 31
0.0
  0
LINE
  5
   31E
  8
0
  6
CONTINUOUS
 62
     7
 10
257.472955562174
 20
-95.2554303631186
 30
0.0
 11
257.472955562174
 21
-78.6800761271215
 31
0.0
  0
LINE
  5
   31F
  8
0
  6
CONTINUOUS
 62
     7
 10
241.372955322266
 20
-80.6800761271215
 30
0.0
 11
257.472955562174
 21
-80.6800761271215
 31
0.0
  0
LINE
  5
   320
  8
0
  6
CONTINUOUS
 62
     7
 10
244.327378583947
 20
-80.1591316091212
 30
0.0
 11
241.372955322266
 21
-80.6800761271215
 31
0.0
  0
LINE
  5
   321
  8
0
  6
CONTINUOUS
 62
     7
 10
241.372955322266
 20
-80.6800761271215
 30
0.0
 11
244.327378583947
 21
-81.2010206451219
 31
0.0
  0
LINE
  5
   322
  8
0
  6
CONTINUOUS
 62
     7
 10
254.518532300493
 20
-81.2010206451219
 30
0.0
 11
257.472955562174
 21
-80.6800761271215
 31
0.0
  0
LINE
  5
   323
  8
0
  6
CONTINUOUS
 62
     7
 10
257.472955562174
 20
-80.6800761271215
 30
0.0
 11
254.518532300493
 21
-80.1591316091212
 31
0.0
  0
ENDBLK
  5
   324
  8
0
  6
CONTINUOUS
 62
     7
  0
BLOCK
  5
   325
  8
0
  6
CONTINUOUS
 62
     7
  2
*UDIM2001
 70
    65
 10
0.0
 20
0.0
 30
0.0
  3
*UDIM2001
  0
TEXT
  5
   326
  8
0
  6
CONTINUOUS
 62
     7
 10
243.655818099604
 20
-84.6576152581346
 30
0.0
 40
2.50000001341104
  1
45
 50
359.999999844103
 41
0.933333333333333
 72
     1
 11
245.739151447508
 21
-83.4076152570871
 31
0.0
 73
     2
  0
LINE
  5
   327
  8
0
  6
CONTINUOUS
 62
     7
 10
240.82295531407
 20
-92.0194303148985
 30
0.0
 11
240.82295531407
 21
-83.6576152637926
 31
0.0
  0
LINE
  5
   328
  8
0
  6
CONTINUOUS
 62
     7
 10
249.82295544818
 20
-92.0194303148985
 30
0.0
 11
249.82295544818
 21
-83.6576152637926
 31
0.0
  0
LINE
  5
   329
  8
0
  6
CONTINUOUS
 62
     7
 10
240.82295531407
 20
-85.6576152637927
 30
0.0
 11
249.82295544818
 21
-85.6576152637927
 31
0.0
  0
LINE
  5
   32A
  8
0
  6
CONTINUOUS
 62
     7
 10
243.777378575752
 20
-85.1366707457923
 30
0.0
 11
240.82295531407
 21
-85.6576152637927
 31
0.0
  0
LINE
  5
   32B
  8
0
  6
CONTINUOUS
 62
     7
 10
240.82295531407
 20
-85.6576152637927
 30
0.0
 11
243.777378575752
 21
-86.178559781793
 31
0.0
  0
LINE
  5
   32C
  8
0
  6
CONTINUOUS
 62
     7
 10
246.868532186499
 20
-86.178559781793
 30
0.0
 11
249.82295544818
 21
-85.6576152637927
 31
0.0
  0
LINE
  5
   32D
  8
0
  6
CONTINUOUS
 62
     7
 10
249.82295544818
 20
-85.6576152637927
 30
0.0
 11
246.868532186499
 21
-85.1366707457923
 31
0.0
  0
ENDBLK
  5
   32E
  8
0
  6
CONTINUOUS
 62
     7
  0
BLOCK
  5
   32F
  8
0
  6
CONTINUOUS
 62
     7
  2
BASETT_1
 70
    64
 10
0.0
 20
0.0
 30
0.0
  3
BASETT_1
  0
LINE
  5
   330
  8
0
  6
CONTINUOUS
 62
     1
 10
-70.0
 20
2.54761783868335
 30
0.0
 11
-70.0
 21
7.54761783868335
 31
0.0
  0
LINE
  5
   331
  8
0
  6
CONTINUOUS
 62
     1
 10
152.0
 20
44.0476178386834
 30
0.0
 11
198.0
 21
44.0476178386834
 31
0.0
  0
LINE
  5
   332
  8
0
  6
CONTINUOUS
 62
     1
 10
210.0
 20
-5.0
 30
0.0
 11
210.0
 21
22.0476178386834
 31
0.0
  0
LINE
  5
   333
  8
0
  6
CONTINUOUS
 62
     1
 10
82.0
 20
44.0476178386834
 30
0.0
 11
128.0
 21
44.0476178386834
 31
0.0
  0
LINE
  5
   334
  8
0
  6
CONTINUOUS
 62
     1
 10
12.0
 20
44.0476178386834
 30
0.0
 11
58.0
 21
44.0476178386834
 31
0.0
  0
LINE
  5
   335
  8
0
  6
CONTINUOUS
 62
     1
 10
-70.0
 20
-5.0
 30
0.0
 11
-70.0
 21
22.0476178386834
 31
0.0
  0
LINE
  5
   336
  8
0
  6
CONTINUOUS
 62
     1
 10
200.0
 20
24.0476178386834
 30
0.0
 11
200.0
 21
42.0476178386834
 31
0.0
  0
LINE
  5
   337
  8
0
  6
CONTINUOUS
 62
     1
 10
150.0
 20
24.0476178386834
 30
0.0
 11
150.0
 21
42.0476178386834
 31
0.0
  0
LINE
  5
   338
  8
0
  6
CONTINUOUS
 62
     1
 10
130.0
 20
24.0476178386834
 30
0.0
 11
130.0
 21
42.0476178386834
 31
0.0
  0
LINE
  5
   339
  8
0
  6
CONTINUOUS
 62
     1
 10
80.0
 20
24.0476178386834
 30
0.0
 11
80.0
 21
42.0476178386834
 31
0.0
  0
LINE
  5
   33A
  8
0
  6
CONTINUOUS
 62
     1
 10
60.0
 20
24.0476178386834
 30
0.0
 11
60.0
 21
42.0476178386834
 31
0.0
  0
LINE
  5
   33B
  8
0
  6
CONTINUOUS
 62
     1
 10
10.0
 20
24.0476178386834
 30
0.0
 11
10.0
 21
42.0476178386834
 31
0.0
  0
ARC
  5
   33C
  8
0
  6
CONTINUOUS
 62
     1
 10
12.0000111838347
 20
42.0475380330993
 30
0.0
 40
2.00007783126227
 50
90.0001807661626
 51
179.997830672605
  0
ARC
  5
   33D
  8
0
  6
CONTINUOUS
 62
     1
 10
58.0000129063801
 20
42.0476401501283
 30
0.0
 40
1.99997510265494
 50
359.999226374319
 51
450.000285340162
  0
ARC
  5
   33E
  8
0
  6
CONTINUOUS
 62
     1
 10
81.9999903249801
 20
42.0476447404943
 30
0.0
 40
1.99997081808889
 50
89.9996952185933
 51
180.000394138682
  0
ARC
  5
   33F
  8
0
  6
CONTINUOUS
 62
     1
 10
127.999995507033
 20
42.0476121773215
 30
0.0
 40
2.00000657851261
 50
5.38727676514194E-4
 51
89.9998988942161
  0
ARC
  5
   340
  8
0
  6
CONTINUOUS
 62
     1
 10
151.999999983491
 20
42.0476201025244
 30
0.0
 40
1.99999862788034
 50
90.0000839312064
 51
180.000255608246
  0
ARC
  5
   341
  8
0
  6
CONTINUOUS
 62
     1
 10
197.99998881617
 20
42.0475380331107
 30
0.0
 40
2.00007783125045
 50
2.16932706530805E-3
 51
89.9998192339624
  0
ARC
  5
   342
  8
0
  6
CONTINUOUS
 62
     1
 10
7.99999999999999
 20
24.0476178386834
 30
0.0
 40
2.0
 50
270.0
 51
360.0
  0
ARC
  5
   343
  8
0
  6
CONTINUOUS
 62
     1
 10
62.0
 20
24.0476178386834
 30
0.0
 40
2.0
 50
180.0
 51
270.0
  0
ARC
  5
   344
  8
0
  6
CONTINUOUS
 62
     1
 10
78.0
 20
24.0476178386834
 30
0.0
 40
2.0
 50
270.0
 51
360.0
  0
ARC
  5
   345
  8
0
  6
CONTINUOUS
 62
     1
 10
132.0
 20
24.0476178386834
 30
0.0
 40
2.0
 50
180.0
 51
270.0
  0
ARC
  5
   346
  8
0
  6
CONTINUOUS
 62
     1
 10
148.0
 20
24.0476178386834
 30
0.0
 40
2.0
 50
270.0
 51
360.0
  0
ARC
  5
   347
  8
0
  6
CONTINUOUS
 62
     1
 10
202.0
 20
24.0476178386834
 30
0.0
 40
2.0
 50
180.0
 51
270.0
  0
LINE
  5
   348
  8
0
  6
DASHDOT
 62
     1
 10
35.0
 20
-10.891941734382
 30
0.0
 11
35.0
 21
48.6276703687375
 31
0.0
  0
LINE
  5
   349
  8
0
  6
DASHDOT
 62
     1
 10
105.0
 20
-37.4343268674593
 30
0.0
 11
105.0
 21
111.20435677382
 31
0.0
  0
LINE
  5
   34A
  8
0
  6
DASHDOT
 62
     1
 10
175.0
 20
-11.8663007393746
 30
0.0
 11
175.0
 21
48.6276703687375
 31
0.0
  0
LINE
  5
   34B
  8
0
  6
CONTINUOUS
 62
     1
 10
-70.0
 20
22.0476178386834
 30
0.0
 11
210.0
 21
22.0476178386834
 31
0.0
  0
LINE
  5
   34C
  8
0
  6
CONTINUOUS
 62
     1
 10
-74.9474134042942
 20
-5.0
 30
0.0
 11
216.355314856302
 21
-5.0
 31
0.0
  0
LINE
  5
   34D
  8
0
  6
CONTINUOUS
 62
     1
 10
30.0
 20
44.0476178386834
 30
0.0
 11
30.0
 21
84.0476178386834
 31
0.0
  0
LINE
  5
   34E
  8
0
  6
CONTINUOUS
 62
     1
 10
40.0
 20
44.0476178386834
 30
0.0
 11
40.0
 21
84.0476178386834
 31
0.0
  0
LINE
  5
   34F
  8
0
  6
CONTINUOUS
 62
     1
 10
35.0
 20
44.0476178386834
 30
0.0
 11
35.0
 21
84.0476178386834
 31
0.0
  0
LINE
  5
   350
  8
0
  6
CONTINUOUS
 62
     1
 10
30.0
 20
84.0476178386834
 30
0.0
 11
40.0
 21
84.0476178386834
 31
0.0
  0
LINE
  5
   351
  8
0
  6
CONTINUOUS
 62
     1
 10
110.0
 20
44.0476178386834
 30
0.0
 11
110.0
 21
84.0476178386834
 31
0.0
  0
LINE
  5
   352
  8
0
  6
CONTINUOUS
 62
     1
 10
105.0
 20
44.0476178386834
 30
0.0
 11
105.0
 21
84.0476178386834
 31
0.0
  0
LINE
  5
   353
  8
0
  6
CONTINUOUS
 62
     1
 10
100.0
 20
44.0476178386834
 30
0.0
 11
100.0
 21
84.0476178386834
 31
0.0
  0
LINE
  5
   354
  8
0
  6
CONTINUOUS
 62
     1
 10
100.0
 20
84.0476178386834
 30
0.0
 11
110.0
 21
84.0476178386834
 31
0.0
  0
LINE
  5
   355
  8
0
  6
CONTINUOUS
 62
     1
 10
180.0
 20
44.0476178386834
 30
0.0
 11
180.0
 21
84.0476178386834
 31
0.0
  0
LINE
  5
   356
  8
0
  6
CONTINUOUS
 62
     1
 10
175.0
 20
44.0476178386834
 30
0.0
 11
175.0
 21
84.0476178386834
 31
0.0
  0
LINE
  5
   357
  8
0
  6
CONTINUOUS
 62
     1
 10
170.0
 20
44.0476178386834
 30
0.0
 11
170.0
 21
84.0476178386834
 31
0.0
  0
LINE
  5
   358
  8
0
  6
CONTINUOUS
 62
     1
 10
170.0
 20
84.0476178386834
 30
0.0
 11
180.0
 21
84.0476178386834
 31
0.0
  0
LINE
  5
   359
  8
0
  6
DASHDOT
 62
     1
 10
24.6373634119567
 20
64.0476178386834
 30
0.0
 11
45.2380966603725
 21
64.0476178386834
 31
0.0
  0
LINE
  5
   35A
  8
0
  6
DASHDOT
 62
     1
 10
164.805865987326
 20
64.0476178386834
 30
0.0
 11
184.849822661461
 21
64.0476178386834
 31
0.0
  0
LINE
  5
   35B
  8
0
  6
DASHDOT
 62
     1
 10
94.3040322689304
 20
64.0476178386834
 30
0.0
 11
114.626377230205
 21
64.0476178386834
 31
0.0
  0
LINE
  5
   35C
  8
0
  6
DOT
 62
     1
 10
170.0
 20
71.0476178386834
 30
0.0
 11
180.0
 21
71.0476178386834
 31
0.0
  0
LINE
  5
   35D
  8
0
  6
DOT
 62
     1
 10
170.0
 20
57.0476178386834
 30
0.0
 11
180.0
 21
57.0476178386834
 31
0.0
  0
LINE
  5
   35E
  8
0
  6
DOT
 62
     1
 10
100.0
 20
71.0476178386834
 30
0.0
 11
110.0
 21
71.0476178386834
 31
0.0
  0
LINE
  5
   35F
  8
0
  6
DOT
 62
     1
 10
100.0
 20
57.0476178386834
 30
0.0
 11
110.0
 21
57.0476178386834
 31
0.0
  0
LINE
  5
   360
  8
0
  6
DOT
 62
     1
 10
30.0
 20
71.0476178386833
 30
0.0
 11
40.0
 21
71.0476178386833
 31
0.0
  0
LINE
  5
   361
  8
0
  6
DOT
 62
     1
 10
30.0
 20
57.0476178386834
 30
0.0
 11
40.0
 21
57.0476178386834
 31
0.0
  0
LINE
  5
   362
  8
0
  6
CONTINUOUS
 62
     1
 10
-40.0
 20
44.0476178386834
 30
0.0
 11
-40.0
 21
84.0476178386834
 31
0.0
  0
LINE
  5
   363
  8
0
  6
CONTINUOUS
 62
     1
 10
-35.0
 20
44.0476178386834
 30
0.0
 11
-35.0
 21
84.0476178386834
 31
0.0
  0
LINE
  5
   364
  8
0
  6
CONTINUOUS
 62
     1
 10
-30.0
 20
44.0476178386834
 30
0.0
 11
-30.0
 21
84.0476178386834
 31
0.0
  0
LINE
  5
   365
  8
0
  6
CONTINUOUS
 62
     1
 10
-40.0
 20
84.0476178386834
 30
0.0
 11
-30.0
 21
84.0476178386834
 31
0.0
  0
LINE
  5
   366
  8
0
  6
DASHDOT
 62
     1
 10
-45.3626365880433
 20
64.0476178386834
 30
0.0
 11
-24.7619033396275
 21
64.0476178386834
 31
0.0
  0
LINE
  5
   367
  8
0
  6
DOT
 62
     1
 10
-40.0
 20
71.0476178386833
 30
0.0
 11
-30.0
 21
71.0476178386833
 31
0.0
  0
LINE
  5
   368
  8
0
  6
DOT
 62
     1
 10
-40.0
 20
57.0476178386834
 30
0.0
 11
-30.0
 21
57.0476178386834
 31
0.0
  0
LINE
  5
   369
  8
0
  6
CONTINUOUS
 62
     1
 10
-58.0
 20
44.0476178386834
 30
0.0
 11
-12.0
 21
44.0476178386834
 31
0.0
  0
ARC
  5
   36A
  8
0
  6
CONTINUOUS
 62
     1
 10
-57.9999888161653
 20
42.0475380330993
 30
0.0
 40
2.00007783126227
 50
90.0001807661626
 51
179.997830672605
  0
ARC
  5
   36B
  8
0
  6
CONTINUOUS
 62
     1
 10
-11.9999870936199
 20
42.0476401501283
 30
0.0
 40
1.99997510265494
 50
359.999226374319
 51
450.000285340162
  0
LINE
  5
   36C
  8
0
  6
CONTINUOUS
 62
     1
 10
-10.0
 20
24.0476178386834
 30
0.0
 11
-10.0
 21
42.0476178386834
 31
0.0
  0
LINE
  5
   36D
  8
0
  6
CONTINUOUS
 62
     1
 10
-60.0
 20
24.0476178386834
 30
0.0
 11
-60.0
 21
42.0476178386834
 31
0.0
  0
ARC
  5
   36E
  8
0
  6
CONTINUOUS
 62
     1
 10
-8.00000000000001
 20
24.0476178386834
 30
0.0
 40
2.0
 50
180.0
 51
270.0
  0
ARC
  5
   36F
  8
0
  6
CONTINUOUS
 62
     1
 10
-62.0
 20
24.0476178386834
 30
0.0
 40
2.0
 50
270.0
 51
360.0
  0
LINE
  5
   370
  8
0
  6
CONTINUOUS
 62
     1
 10
-67.5
 20
-5.0
 30
0.0
 11
-67.5
 21
22.0476178386834
 31
0.0
  0
LINE
  5
   371
  8
0
  6
CONTINUOUS
 62
     1
 10
207.5
 20
-5.0
 30
0.0
 11
207.5
 21
22.0476178386834
 31
0.0
  0
LINE
  5
   372
  8
0
  6
CONTINUOUS
 62
     1
 10
197.5
 20
-5.0
 30
0.0
 11
197.5
 21
4.76178386833652E-2
 31
0.0
  0
LINE
  5
   373
  8
0
  6
CONTINUOUS
 62
     1
 10
152.5
 20
-5.0
 30
0.0
 11
152.5
 21
4.76178386833652E-2
 31
0.0
  0
LINE
  5
   374
  8
0
  6
CONTINUOUS
 62
     1
 10
152.5
 20
4.76178386833652E-2
 30
0.0
 11
197.5
 21
4.76178386833652E-2
 31
0.0
  0
LINE
  5
   375
  8
0
  6
CONTINUOUS
 62
     1
 10
143.5
 20
-5.0
 30
0.0
 11
143.5
 21
22.0476178386834
 31
0.0
  0
LINE
  5
   376
  8
0
  6
CONTINUOUS
 62
     1
 10
136.5
 20
-5.0
 30
0.0
 11
136.5
 21
22.0476178386834
 31
0.0
  0
LINE
  5
   377
  8
0
  6
CONTINUOUS
 62
     1
 10
66.5
 20
-5.0
 30
0.0
 11
66.5
 21
22.0476178386834
 31
0.0
  0
LINE
  5
   378
  8
0
  6
CONTINUOUS
 62
     1
 10
73.5
 20
-5.0
 30
0.0
 11
73.5
 21
22.0476178386834
 31
0.0
  0
LINE
  5
   379
  8
0
  6
CONTINUOUS
 62
     1
 10
-3.5
 20
-5.0
 30
0.0
 11
-3.5
 21
22.0476178386834
 31
0.0
  0
LINE
  5
   37A
  8
0
  6
CONTINUOUS
 62
     1
 10
3.5
 20
-5.0
 30
0.0
 11
3.5
 21
22.0476178386834
 31
0.0
  0
LINE
  5
   37B
  8
0
  6
CONTINUOUS
 62
     1
 10
82.5
 20
-5.0
 30
0.0
 11
82.5
 21
4.76178386833652E-2
 31
0.0
  0
LINE
  5
   37C
  8
0
  6
CONTINUOUS
 62
     1
 10
82.5
 20
4.76178386833652E-2
 30
0.0
 11
127.5
 21
4.76178386833652E-2
 31
0.0
  0
LINE
  5
   37D
  8
0
  6
CONTINUOUS
 62
     1
 10
127.5
 20
-5.0
 30
0.0
 11
127.5
 21
4.76178386833652E-2
 31
0.0
  0
LINE
  5
   37E
  8
0
  6
CONTINUOUS
 62
     1
 10
12.5
 20
-5.0
 30
0.0
 11
12.5
 21
4.76178386833652E-2
 31
0.0
  0
LINE
  5
   37F
  8
0
  6
CONTINUOUS
 62
     1
 10
12.5
 20
4.76178386833652E-2
 30
0.0
 11
57.5
 21
4.76178386833652E-2
 31
0.0
  0
LINE
  5
   380
  8
0
  6
CONTINUOUS
 62
     1
 10
57.5
 20
-5.0
 30
0.0
 11
57.5
 21
4.76178386833652E-2
 31
0.0
  0
LINE
  5
   381
  8
0
  6
CONTINUOUS
 62
     1
 10
-57.5
 20
-5.0
 30
0.0
 11
-57.5
 21
4.76178386833652E-2
 31
0.0
  0
LINE
  5
   382
  8
0
  6
CONTINUOUS
 62
     1
 10
-57.5
 20
4.76178386833652E-2
 30
0.0
 11
-12.5
 21
4.76178386833652E-2
 31
0.0
  0
LINE
  5
   383
  8
0
  6
CONTINUOUS
 62
     1
 10
-12.5
 20
-5.0
 30
0.0
 11
-12.5
 21
4.76178386833652E-2
 31
0.0
  0
LINE
  5
   384
  8
0
  6
DASHDOT
 62
     1
 10
-35.0
 20
-10.891941734382
 30
0.0
 11
-35.0
 21
48.6276703687375
 31
0.0
  0
ENDBLK
  5
   385
  8
0
  6
CONTINUOUS
 62
     7
  0
BLOCK
  5
   386
  8
0
  6
CONTINUOUS
 62
     7
  2
*UDIM2002
 70
    65
 10
0.0
 20
0.0
 30
0.0
  3
*UDIM2002
  0
TEXT
  5
   387
  8
0
  6
CONTINUOUS
 62
     7
 10
251.310446538857
 20
-52.6805061859
 30
0.0
 40
2.4999999335834
  1
70
 50
359.999999896069
 41
0.933333333333333
 72
     1
 11
253.393779819104
 21
-51.4305062228769
 31
0.0
 73
     2
  0
LINE
  5
   388
  8
0
  6
CONTINUOUS
 62
     7
 10
265.87294898725
 20
-50.9006340820954
 30
0.0
 11
265.87294898725
 21
-55.6805061896686
 31
0.0
  0
LINE
  5
   389
  8
0
  6
CONTINUOUS
 62
     7
 10
265.87294898725
 20
-53.6805061896686
 30
0.0
 11
241.372949404482
 21
-53.6805061896686
 31
0.0
  0
LINE
  5
   38A
  8
0
  6
CONTINUOUS
 62
     7
 10
262.918525725568
 20
-54.2014507076689
 30
0.0
 11
265.87294898725
 21
-53.6805061896686
 31
0.0
  0
LINE
  5
   38B
  8
0
  6
CONTINUOUS
 62
     7
 10
265.87294898725
 20
-53.6805061896686
 30
0.0
 11
262.918525725568
 21
-53.1595616716682
 31
0.0
  0
LINE
  5
   38C
  8
0
  6
CONTINUOUS
 62
     7
 10
244.327372666164
 20
-53.1595616716682
 30
0.0
 11
241.372949404482
 21
-53.6805061896686
 31
0.0
  0
LINE
  5
   38D
  8
0
  6
CONTINUOUS
 62
     7
 10
241.372949404482
 20
-53.6805061896686
 30
0.0
 11
244.327372666164
 21
-54.2014507076689
 31
0.0
  0
ENDBLK
  5
   38E
  8
0
  6
CONTINUOUS
 62
     7
  0
BLOCK
  5
   38F
  8
0
  6
CONTINUOUS
 62
     7
  2
*UDIM2003
 70
    65
 10
0.0
 20
0.0
 30
0.0
  3
*UDIM2003
  0
TEXT
  5
   390
  8
0
  6
CONTINUOUS
 62
     7
 10
226.810449626377
 20
-52.6805061859
 30
0.0
 40
2.4999999335834
  1
70
 50
359.999999896069
 41
0.933333333333333
 72
     1
 11
228.893782906625
 21
-51.4305062228769
 31
0.0
 73
     2
  0
LINE
  5
   391
  8
0
  6
CONTINUOUS
 62
     7
 10
216.872949821715
 20
-50.5596084361556
 30
0.0
 11
216.872949821715
 21
-55.6805061896686
 31
0.0
  0
LINE
  5
   392
  8
0
  6
CONTINUOUS
 62
     7
 10
241.372949404482
 20
-53.6805061896686
 30
0.0
 11
216.872949821715
 21
-53.6805061896686
 31
0.0
  0
LINE
  5
   393
  8
0
  6
CONTINUOUS
 62
     7
 10
238.418526142801
 20
-54.2014507076689
 30
0.0
 11
241.372949404482
 21
-53.6805061896686
 31
0.0
  0
LINE
  5
   394
  8
0
  6
CONTINUOUS
 62
     7
 10
241.372949404482
 20
-53.6805061896686
 30
0.0
 11
238.418526142801
 21
-53.1595616716682
 31
0.0
  0
LINE
  5
   395
  8
0
  6
CONTINUOUS
 62
     7
 10
219.827373083397
 20
-53.1595616716682
 30
0.0
 11
216.872949821715
 21
-53.6805061896686
 31
0.0
  0
LINE
  5
   396
  8
0
  6
CONTINUOUS
 62
     7
 10
216.872949821715
 20
-53.6805061896686
 30
0.0
 11
219.827373083397
 21
-54.2014507076689
 31
0.0
  0
ENDBLK
  5
   397
  8
0
  6
CONTINUOUS
 62
     7
  0
BLOCK
  5
   398
  8
0
  6
CONTINUOUS
 62
     7
  2
*UDIM2004
 70
    65
 10
0.0
 20
0.0
 30
0.0
  3
*UDIM2004
  0
TEXT
  5
   399
  8
0
  6
CONTINUOUS
 62
     7
 10
202.310452713898
 20
-52.6805061859
 30
0.0
 40
2.4999999335834
  1
70
 50
359.999999896069
 41
0.933333333333333
 72
     1
 11
204.393785994145
 21
-51.4305062228769
 31
0.0
 73
     2
  0
LINE
  5
   39A
  8
0
  6
CONTINUOUS
 62
     7
 10
192.372950238947
 20
-50.5596084361556
 30
0.0
 11
192.372950238947
 21
-55.6805061896686
 31
0.0
  0
LINE
  5
   39B
  8
0
  6
CONTINUOUS
 62
     7
 10
216.872949821715
 20
-53.6805061896686
 30
0.0
 11
192.372950238947
 21
-53.6805061896686
 31
0.0
  0
LINE
  5
   39C
  8
0
  6
CONTINUOUS
 62
     7
 10
213.918526560033
 20
-54.2014507076689
 30
0.0
 11
216.872949821715
 21
-53.6805061896686
 31
0.0
  0
LINE
  5
   39D
  8
0
  6
CONTINUOUS
 62
     7
 10
216.872949821715
 20
-53.6805061896686
 30
0.0
 11
213.918526560033
 21
-53.1595616716682
 31
0.0
  0
LINE
  5
   39E
  8
0
  6
CONTINUOUS
 62
     7
 10
195.327373500629
 20
-53.1595616716682
 30
0.0
 11
192.372950238947
 21
-53.6805061896686
 31
0.0
  0
LINE
  5
   39F
  8
0
  6
CONTINUOUS
 62
     7
 10
192.372950238947
 20
-53.6805061896686
 30
0.0
 11
195.327373500629
 21
-54.2014507076689
 31
0.0
  0
ENDBLK
  5
   3A0
  8
0
  6
CONTINUOUS
 62
     7
  0
BLOCK
  5
   3A1
  8
0
  6
CONTINUOUS
 62
     7
  2
*UDIM2005
 70
    65
 10
0.0
 20
0.0
 30
0.0
  3
*UDIM2005
  0
TEXT
  5
   3A2
  8
0
  6
CONTINUOUS
 62
     7
 10
270.602113302168
 20
-11.1769227938859
 30
0.0
 40
2.4999999335834
  1
10
 50
359.999999896069
 41
0.933333333333333
 72
     1
 11
272.685446582415
 21
-9.92692283086277
 31
0.0
 73
     2
  0
LINE
  5
   3A3
  8
0
  6
CONTINUOUS
 62
     7
 10
267.622948957448
 20
-15.3307631514666
 30
0.0
 11
267.622948957448
 21
-10.1769227976545
 31
0.0
  0
LINE
  5
   3A4
  8
0
  6
CONTINUOUS
 62
     7
 10
264.122949017052
 20
-15.3307631514666
 30
0.0
 11
264.122949017052
 21
-10.1769227976545
 31
0.0
  0
LINE
  5
   3A5
  8
0
  6
CONTINUOUS
 62
     7
 10
274.768779860402
 20
-12.1769227976545
 30
0.0
 11
264.122949017052
 21
-12.1769227976545
 31
0.0
  0
LINE
  5
   3A6
  8
0
  6
CONTINUOUS
 62
     7
 10
270.577372219129
 20
-11.6559782796541
 30
0.0
 11
267.622948957448
 21
-12.1769227976545
 31
0.0
  0
LINE
  5
   3A7
  8
0
  6
CONTINUOUS
 62
     7
 10
267.622948957448
 20
-12.1769227976545
 30
0.0
 11
270.577372219129
 21
-12.6978673156548
 31
0.0
  0
LINE
  5
   3A8
  8
0
  6
CONTINUOUS
 62
     7
 10
261.168525755371
 20
-12.6978673156548
 30
0.0
 11
264.122949017052
 21
-12.1769227976545
 31
0.0
  0
LINE
  5
   3A9
  8
0
  6
CONTINUOUS
 62
     7
 10
264.122949017052
 20
-12.1769227976545
 30
0.0
 11
261.168525755371
 21
-11.6559782796541
 31
0.0
  0
ENDBLK
  5
   3AA
  8
0
  6
CONTINUOUS
 62
     7
  0
ENDSEC
  0
SECTION
  2
ENTITIES
  0
LINE
  5
   3AB
  8
0
  6
DASHDOT
 62
     7
 10
265.872954905033
 20
159.381129598077
 30
0.0
 11
265.872954905033
 21
170.961902603077
 31
0.0
  0
LINE
  5
   3AC
  8
0
  6
CONTINUOUS
 62
     1
 10
53.7779797285806
 20
35.3452325791122
 30
0.0
 11
53.7779797285806
 21
35.3715589489032
 31
0.0
  0
LINE
  5
   3AD
  8
0
  6
DASHDOT
 62
     2
 10
96.8390428721905
 20
-86.127822847841
 30
0.0
 11
96.8390428721905
 21
-144.62494222576
 31
0.0
  0
LINE
  5
   3AE
  8
0
  6
DASHDOT
 62
     2
 10
130.69861299276
 20
-112.35543057695
 30
0.0
 11
31.9665064635679
 21
-112.35543057695
 31
0.0
  0
CIRCLE
  5
   3AF
  8
0
  6
CONTINUOUS
 62
     7
 10
68.839042454958
 20
-103.25543044135
 30
0.0
 40
0.850000012665987
  0
CIRCLE
  5
   3B0
  8
0
  6
CONTINUOUS
 62
     7
 10
110.839043080807
 20
-103.25543044135
 30
0.0
 40
0.850000012665987
  0
CIRCLE
  5
   3B1
  8
0
  6
CONTINUOUS
 62
     7
 10
110.839043080807
 20
-127.255430798978
 30
0.0
 40
0.850000012665987
  0
CIRCLE
  5
   3B2
  8
0
  6
CONTINUOUS
 62
     7
 10
68.839042454958
 20
-127.255430798978
 30
0.0
 40
0.850000012665987
  0
LINE
  5
   3B3
  8
0
  6
DASHDOT
 62
     7
 10
68.839042454958
 20
-100.405430398881
 30
0.0
 11
68.839042454958
 21
-106.105430483818
 31
0.0
  0
LINE
  5
   3B4
  8
0
  6
DASHDOT
 62
     7
 10
71.6890424974263
 20
-103.25543044135
 30
0.0
 11
65.9890424124897
 21
-103.25543044135
 31
0.0
  0
LINE
  5
   3B5
  8
0
  6
DASHDOT
 62
     7
 10
110.839043080807
 20
-100.405430398881
 30
0.0
 11
110.839043080807
 21
-123.932243351631
 31
0.0
  0
LINE
  5
   3B6
  8
0
  6
DASHDOT
 62
     7
 10
113.178985466021
 20
-103.25543044135
 30
0.0
 11
73.5079581382176
 21
-103.25543044135
 31
0.0
  0
LINE
  5
   3B7
  8
0
  6
DASHDOT
 62
     7
 10
110.839043080807
 20
-124.405430756509
 30
0.0
 11
110.839043080807
 21
-130.105430841446
 31
0.0
  0
LINE
  5
   3B8
  8
0
  6
DASHDOT
 62
     7
 10
115.143803506403
 20
-127.255430798978
 30
0.0
 11
73.2140255725446
 21
-127.255430798978
 31
0.0
  0
LINE
  5
   3B9
  8
0
  6
DASHDOT
 62
     7
 10
68.839042454958
 20
-107.63419641842
 30
0.0
 11
68.839042454958
 21
-130.105430841446
 31
0.0
  0
LINE
  5
   3BA
  8
0
  6
DASHDOT
 62
     7
 10
71.6890424974263
 20
-127.255430798978
 30
0.0
 11
65.9890424124897
 21
-127.255430798978
 31
0.0
  0
LINE
  5
   3BB
  8
0
  6
CONTINUOUS
 62
     7
 10
119.839043214917
 20
-84.2554301582277
 30
0.0
 11
119.839043214917
 21
-146.2554310821
 31
0.0
  0
LINE
  5
   3BC
  8
0
  6
CONTINUOUS
 62
     7
 10
59.8390423208475
 20
-84.2554301582277
 30
0.0
 11
59.8390423208475
 21
-146.2554310821
 31
0.0
  0
LINE
  5
   3BD
  8
0
  6
CONTINUOUS
 62
     7
 10
119.839043214917
 20
-146.2554310821
 30
0.0
 11
59.8390423208475
 21
-146.2554310821
 31
0.0
  0
LINE
  5
   3BE
  8
0
  6
CONTINUOUS
 62
     7
 10
119.839043214917
 20
-84.2554301582277
 30
0.0
 11
59.8390423208475
 21
-84.2554301582277
 31
0.0
  0
LINE
  5
   3BF
  8
0
  6
CONTINUOUS
 62
     7
 10
117.839043185115
 20
-100.855430405587
 30
0.0
 11
61.8390423506498
 21
-100.855430405587
 31
0.0
  0
LINE
  5
   3C0
  8
0
  6
CONTINUOUS
 62
     7
 10
117.839043185115
 20
-129.65543083474
 30
0.0
 11
61.8390423506498
 21
-129.65543083474
 31
0.0
  0
LINE
  5
   3C1
  8
0
  6
CONTINUOUS
 62
     7
 10
117.839043185115
 20
-85.355430174619
 30
0.0
 11
61.8390423506498
 21
-85.355430174619
 31
0.0
  0
LINE
  5
   3C2
  8
0
  6
CONTINUOUS
 62
     7
 10
117.839043185115
 20
-145.155431065708
 30
0.0
 11
61.8390423506498
 21
-145.155431065708
 31
0.0
  0
LINE
  5
   3C3
  8
0
  6
CONTINUOUS
 62
     7
 10
118.239043191075
 20
-85.7554301805794
 30
0.0
 11
118.239043191075
 21
-100.455430399626
 31
0.0
  0
LINE
  5
   3C4
  8
0
  6
CONTINUOUS
 62
     7
 10
61.4390423446894
 20
-85.7554301805794
 30
0.0
 11
61.4390423446894
 21
-100.455430399626
 31
0.0
  0
LINE
  5
   3C5
  8
0
  6
CONTINUOUS
 62
     7
 10
118.239043191075
 20
-130.055430840701
 30
0.0
 11
118.239043191075
 21
-144.755431059748
 31
0.0
  0
LINE
  5
   3C6
  8
0
  6
CONTINUOUS
 62
     7
 10
61.4390423446894
 20
-130.055430840701
 30
0.0
 11
61.4390423446894
 21
-144.755431059748
 31
0.0
  0
ARC
  5
   3C7
  8
0
  6
CONTINUOUS
 62
     7
 10
61.8390423506498
 20
-85.7554301805794
 30
0.0
 40
0.400000005960464
 50
449.999999896069
 51
539.999999896069
  0
ARC
  5
   3C8
  8
0
  6
CONTINUOUS
 62
     7
 10
61.8390423506498
 20
-100.455430399626
 30
0.0
 40
0.400000005960464
 50
179.999999896069
 51
269.999999896069
  0
ARC
  5
   3C9
  8
0
  6
CONTINUOUS
 62
     7
 10
117.839043185115
 20
-100.455430399626
 30
0.0
 40
0.400000005960464
 50
269.999999896069
 51
359.999999896069
  0
ARC
  5
   3CA
  8
0
  6
CONTINUOUS
 62
     7
 10
117.839043185115
 20
-85.7554301805794
 30
0.0
 40
0.400000005960464
 50
359.999999896069
 51
449.999999896069
  0
ARC
  5
   3CB
  8
0
  6
CONTINUOUS
 62
     7
 10
117.839043185115
 20
-130.055430840701
 30
0.0
 40
0.400000005960464
 50
359.999999896069
 51
449.999999896069
  0
ARC
  5
   3CC
  8
0
  6
CONTINUOUS
 62
     7
 10
117.839043185115
 20
-144.755431059748
 30
0.0
 40
0.400000005960464
 50
269.999999896069
 51
359.999999896069
  0
ARC
  5
   3CD
  8
0
  6
CONTINUOUS
 62
     7
 10
61.8390423506498
 20
-144.755431059748
 30
0.0
 40
0.400000005960464
 50
179.999999896069
 51
269.999999896069
  0
ARC
  5
   3CE
  8
0
  6
CONTINUOUS
 62
     7
 10
61.8390423506498
 20
-130.055430840701
 30
0.0
 40
0.400000005960464
 50
449.999999896069
 51
539.999999896069
  0
TEXT
  5
   3CF
  8
0
  6
CONTINUOUS
 62
     7
 10
95.4614807246683
 20
-76.399470843302
 30
0.0
 40
2.99999994933605
  1
Y
 50
359.999999896069
 41
0.916666607525612
 72
     1
 11
96.5614806364845
 21
-74.8994708706237
 31
0.0
 73
     2
  0
TEXT
  5
   3D0
  8
0
  6
CONTINUOUS
 62
     7
 10
95.6792479298337
 20
-158.279939985498
 30
0.0
 40
2.99999994933605
  1
Y
 50
359.999999896069
 41
0.916666607525612
 72
     1
 11
96.77924784165
 21
-156.779940012819
 31
0.0
 73
     2
  0
INSERT
  5
   3D1
  8
0
  6
CONTINUOUS
 62
     7
  2
*UDIM1945
 10
0.0
 20
0.0
 30
0.0
  0
INSERT
  5
   3D2
  8
0
  6
CONTINUOUS
 62
     7
  2
*UDIM1946
 10
0.0
 20
0.0
 30
0.0
  0
TEXT
  5
   3D3
  8
0
  6
CONTINUOUS
 62
     7
 10
239.861664378587
 20
180.21529345283
 30
0.0
 40
2.99999994933605
  1
Y
 50
359.999999896069
 41
0.933333333333333
 72
     1
 11
240.961664362724
 21
181.715293425509
 31
0.0
 73
     2
  0
INSERT
  5
   3D4
  8
0
  6
CONTINUOUS
 62
     7
  2
*UDIM1947
 10
0.0
 20
0.0
 30
0.0
  0
INSERT
  5
   3D5
  8
0
  6
CONTINUOUS
 62
     7
  2
*UDIM1948
 10
0.0
 20
0.0
 30
0.0
  0
INSERT
  5
   3D6
  8
0
  6
CONTINUOUS
 62
     7
  2
*UDIM1949
 10
0.0
 20
0.0
 30
0.0
  0
INSERT
  5
   3D7
  8
0
  6
CONTINUOUS
 62
     7
  2
*UDIM1950
 10
0.0
 20
0.0
 30
0.0
  0
INSERT
  5
   3D8
  8
0
  6
CONTINUOUS
 62
     7
  2
*UDIM1951
 10
0.0
 20
0.0
 30
0.0
  0
INSERT
  5
   3D9
  8
0
  6
CONTINUOUS
 62
     7
  2
*UDIM1952
 10
0.0
 20
0.0
 30
0.0
  0
INSERT
  5
   3DA
  8
0
  6
CONTINUOUS
 62
     7
  2
*UDIM1953
 10
0.0
 20
0.0
 30
0.0
  0
INSERT
  5
   3DB
  8
0
  6
CONTINUOUS
 62
     7
  2
*UDIM1954
 10
0.0
 20
0.0
 30
0.0
  0
INSERT
  5
   3DC
  8
0
  6
CONTINUOUS
 62
     7
  2
*UDIM1955
 10
0.0
 20
0.0
 30
0.0
  0
TEXT
  5
   3DD
  8
0
  6
CONTINUOUS
 62
     7
 10
29.5229224816231
 20
-113.754491703444
 30
0.0
 40
2.99999994933605
  1
X
 50
359.999999896069
 41
0.916666607525612
 72
     2
 11
31.722922299829
 21
-113.754491707423
 31
0.0
  0
TEXT
  5
   3DE
  8
0
  6
CONTINUOUS
 62
     7
 10
131.704265556978
 20
-114.269546413877
 30
0.0
 40
2.99999994933605
  1
X
 50
359.999999896069
 41
0.916666607525612
 72
     2
 11
133.904265375184
 21
-114.269546417857
 31
0.0
  0
LINE
  5
   3DF
  8
0
  6
CONTINUOUS
 62
     3
 10
97.1648706108323
 20
52.4147348181186
 30
0.0
 11
96.8148706376543
 21
52.4147348181186
 31
0.0
  0
LINE
  5
   3E0
  8
0
  6
CONTINUOUS
 62
     3
 10
96.8148706376543
 20
52.4147348181186
 30
0.0
 11
81.2524426189895
 21
52.4147348181186
 31
0.0
  0
LINE
  5
   3E1
  8
0
  6
CONTINUOUS
 62
     3
 10
97.6898704906298
 20
52.4147345955944
 30
0.0
 11
97.1648704995705
 21
52.4147345955944
 31
0.0
  0
LINE
  5
   3E2
  8
0
  6
CONTINUOUS
 62
     3
 10
81.0648900232439
 20
51.7147336017326
 30
0.0
 11
81.2524510402195
 21
52.4147332250802
 31
0.0
  0
LINE
  5
   3E3
  8
0
  6
CONTINUOUS
 62
     3
 10
81.2398762226095
 20
51.7147351638255
 30
0.0
 11
69.8648924380528
 21
51.7147351638255
 31
0.0
  0
LINE
  5
   3E4
  8
0
  6
CONTINUOUS
 62
     3
 10
62.1648925691843
 20
51.7147191420973
 30
0.0
 11
62.1648925691843
 21
52.9397276460464
 31
0.0
  0
LINE
  5
   3E5
  8
0
  6
CONTINUOUS
 62
     3
 10
62.1648925691843
 20
101.939734308499
 30
0.0
 11
62.1648925691843
 21
113.314712752479
 31
0.0
  0
LINE
  5
   3E6
  8
0
  6
CONTINUOUS
 62
     3
 10
63.914892539382
 20
113.314712752479
 30
0.0
 11
62.1648925691843
 21
113.314712752479
 31
0.0
  0
LINE
  5
   3E7
  8
0
  6
CONTINUOUS
 62
     3
 10
64.9648975282907
 20
51.7147191420973
 30
0.0
 11
62.1648925691843
 21
51.7147191420973
 31
0.0
  0
LINE
  5
   3E8
  8
0
  6
CONTINUOUS
 62
     3
 10
70.9148924201727
 20
101.939734308499
 30
0.0
 11
70.9148924201727
 21
112.508381560843
 31
0.0
  0
LINE
  5
   3E9
  8
0
  6
CONTINUOUS
 62
     3
 10
70.9148927539171
 20
110.86472252828
 30
0.0
 11
70.9148930877031
 21
111.0397225253
 31
0.0
  0
LINE
  5
   3EA
  8
0
  6
CONTINUOUS
 62
     3
 10
69.8648924380541
 20
51.7147351638255
 30
0.0
 11
63.9148978799581
 21
51.7147351638255
 31
0.0
  0
LINE
  5
   3EB
  8
0
  6
CONTINUOUS
 62
     3
 10
69.8648924380541
 20
112.789719094385
 30
0.0
 11
69.8648924380541
 21
121.889728628176
 31
0.0
  0
LINE
  5
   3EC
  8
0
  6
CONTINUOUS
 62
     3
 10
63.214897891879
 20
113.314723433632
 30
0.0
 11
62.5148901760589
 21
113.314723433632
 31
0.0
  0
LINE
  5
   3ED
  8
0
  6
CONTINUOUS
 62
     3
 10
63.914892539382
 20
101.939734308499
 30
0.0
 11
63.914892539382
 21
113.314712752479
 31
0.0
  0
LINE
  5
   3EE
  8
0
  6
CONTINUOUS
 62
     3
 10
70.914893151785
 20
112.50837727838
 30
0.0
 11
69.864893522386
 21
112.789718803844
 31
0.0
  0
LINE
  5
   3EF
  8
0
  6
CONTINUOUS
 62
     3
 10
63.9148993411803
 20
110.407647295419
 30
0.0
 11
64.019895061043
 21
110.452347911122
 31
0.0
  0
LINE
  5
   3F0
  8
0
  6
CONTINUOUS
 62
     3
 10
64.0198893524702
 20
111.977109440561
 30
0.0
 11
63.9148936271877
 21
112.021804715977
 31
0.0
  0
LINE
  5
   3F1
  8
0
  6
CONTINUOUS
 62
     3
 10
96.9898759543899
 20
29.0697299418624
 30
0.0
 11
64.0198775839795
 21
29.0697299418624
 31
0.0
  0
LINE
  5
   3F2
  8
0
  6
CONTINUOUS
 62
     2
 10
96.9898759543886
 20
28.0897302255808
 30
0.0
 11
81.0692928820086
 21
28.0897302255808
 31
0.0
  0
LINE
  5
   3F3
  8
0
  6
CONTINUOUS
 62
     2
 10
81.0692822008565
 20
28.0897302255816
 30
0.0
 11
63.0398765325536
 21
28.0897302255816
 31
0.0
  0
LINE
  5
   3F4
  8
0
  6
CONTINUOUS
 62
     3
 10
97.6898759424676
 20
52.2397298143085
 30
0.0
 11
81.2398762226095
 21
52.2397298143085
 31
0.0
  0
LINE
  5
   3F5
  8
0
  6
CONTINUOUS
 62
     2
 10
63.0398765325536
 20
28.0897302255805
 30
0.0
 11
63.0398765325536
 21
36.4897247419533
 31
0.0
  0
LINE
  5
   3F6
  8
0
  6
CONTINUOUS
 62
     2
 10
64.0198762488355
 20
36.4897247419533
 30
0.0
 11
62.5148765414943
 21
36.4897247419533
 31
0.0
  0
LINE
  5
   3F7
  8
0
  6
CONTINUOUS
 62
     3
 10
64.0198762488355
 20
29.0697312770065
 30
0.0
 11
64.0198762488355
 21
36.4897247419533
 31
0.0
  0
LINE
  5
   3F8
  8
0
  6
CONTINUOUS
 62
     3
 10
81.2398762226095
 20
51.7147244826731
 30
0.0
 11
81.2398762226095
 21
52.2397298143085
 31
0.0
  0
LINE
  5
   3F9
  8
0
  6
CONTINUOUS
 62
     2
 10
64.0198762488355
 20
37.8897247181115
 30
0.0
 11
64.0198762488355
 21
51.5397298262296
 31
0.0
  0
LINE
  5
   3FA
  8
0
  6
CONTINUOUS
 62
     3
 10
77.4773762866845
 20
28.0897302255813
 30
0.0
 11
77.4773762866845
 21
29.0697299418632
 31
0.0
  0
LINE
  5
   3FB
  8
0
  6
CONTINUOUS
 62
     2
 10
96.9898759543886
 20
27.2147302404819
 30
0.0
 11
96.9898759543886
 21
31.7647301629957
 31
0.0
  0
LINE
  5
   3FC
  8
0
  6
CONTINUOUS
 62
     3
 10
77.5604542881993
 20
28.0897302255812
 30
0.0
 11
77.5604542881993
 21
29.069728940505
 31
0.0
  0
LINE
  5
   3FD
  8
0
  6
CONTINUOUS
 62
     7
 10
62.164876280426
 20
37.8897245483807
 30
0.0
 11
62.164876280426
 21
51.5397243159226
 31
0.0
  0
LINE
  5
   3FE
  8
0
  6
CONTINUOUS
 62
     7
 10
64.0198762488355
 20
51.5397243159226
 30
0.0
 11
62.164876280426
 21
51.5397243159226
 31
0.0
  0
LINE
  5
   3FF
  8
0
  6
CONTINUOUS
 62
     7
 10
64.0198762488355
 20
37.8897245483807
 30
0.0
 11
62.164876280426
 21
37.8897245483807
 31
0.0
  0
LINE
  5
   400
  8
0
  6
CONTINUOUS
 62
     7
 10
63.0398762655248
 20
37.8897245483807
 30
0.0
 11
63.0398762655248
 21
51.5397243159226
 31
0.0
  0
LINE
  5
   401
  8
0
  6
CONTINUOUS
 62
     2
 10
64.0198762488355
 20
36.4897247419533
 30
0.0
 11
64.0198762488355
 21
37.8897247181115
 31
0.0
  0
LINE
  5
   402
  8
0
  6
CONTINUOUS
 62
     7
 10
64.9648975282907
 20
51.5397298262296
 30
0.0
 11
64.9648975282907
 21
52.9397298023878
 31
0.0
  0
LINE
  5
   403
  8
0
  6
CONTINUOUS
 62
     7
 10
64.9648975282907
 20
51.5397298262296
 30
0.0
 11
63.5648973852395
 21
51.5397298262296
 31
0.0
  0
LINE
  5
   404
  8
0
  6
CONTINUOUS
 62
     7
 10
96.9898759543886
 20
27.2147302404819
 30
0.0
 11
62.1648765474548
 21
27.2147302404819
 31
0.0
  0
LINE
  5
   405
  8
0
  6
CONTINUOUS
 62
     7
 10
62.1648765474548
 20
27.2147302404819
 30
0.0
 11
62.1648765474548
 21
36.1397247479138
 31
0.0
  0
LINE
  5
   406
  8
0
  6
CONTINUOUS
 62
     7
 10
62.5148765414943
 20
36.1397247479138
 30
0.0
 11
62.1648765474548
 21
36.1397247479138
 31
0.0
  0
LINE
  5
   407
  8
0
  6
CONTINUOUS
 62
     7
 10
62.5148765414943
 20
36.1397247479138
 30
0.0
 11
62.5148765414943
 21
36.4897247419533
 31
0.0
  0
LINE
  5
   408
  8
0
  6
CONTINUOUS
 62
     7
 10
64.0898977100848
 20
51.5397298262296
 30
0.0
 11
62.6898974001407
 21
51.5397298262296
 31
0.0
  0
LINE
  5
   409
  8
0
  6
CONTINUOUS
 62
     7
 10
52.364916100329
 20
56.7897257346531
 30
0.0
 11
52.3648980758841
 21
58.1897350568194
 31
0.0
  0
LINE
  5
   40A
  8
0
  6
CONTINUOUS
 62
     3
 10
57.1594429771948
 20
54.339724439351
 30
0.0
 11
57.2648976587027
 21
54.339725774495
 31
0.0
  0
LINE
  5
   40B
  8
0
  6
CONTINUOUS
 62
     7
 10
52.3648980759406
 20
52.9397271345333
 30
0.0
 11
52.3649154328129
 21
54.3397217701154
 31
0.0
  0
LINE
  5
   40C
  8
0
  6
CONTINUOUS
 62
     7
 10
98.3898760761406
 20
52.9396857739936
 30
0.0
 11
97.6898760880615
 21
52.9397298337463
 31
0.0
  0
LINE
  5
   40D
  8
0
  6
CONTINUOUS
 62
     7
 10
54.1148980468512
 20
52.9397271320998
 30
0.0
 11
95.9398706316953
 21
52.9397298023878
 31
0.0
  0
LINE
  5
   40E
  8
0
  6
CONTINUOUS
 62
     7
 10
113.61488635242
 20
101.939734308499
 30
0.0
 11
98.3898705899719
 21
101.939734308499
 31
0.0
  0
LINE
  5
   40F
  8
0
  6
CONTINUOUS
 62
     7
 10
113.614886352855
 20
52.9396416829487
 30
0.0
 11
98.3898759309833
 21
52.9396857427006
 31
0.0
  0
LINE
  5
   410
  8
0
  6
CONTINUOUS
 62
     7
 10
113.61488635247
 20
52.9396416829129
 30
0.0
 11
113.614891693046
 21
56.789717720557
 31
0.0
  0
LINE
  5
   411
  8
0
  6
CONTINUOUS
 62
     3
 10
84.0398921966553
 20
90.7397398398098
 30
0.0
 11
52.3648980766534
 21
90.7397398398098
 31
0.0
  0
LINE
  5
   412
  8
0
  6
CONTINUOUS
 62
     3
 10
84.0398921966553
 20
80.2397239968955
 30
0.0
 11
71.9648857265712
 21
80.2397239968955
 31
0.0
  0
LINE
  5
   413
  8
0
  6
CONTINUOUS
 62
     7
 10
52.3649154335253
 20
54.3397217676831
 30
0.0
 11
52.3649161010973
 21
56.7897257313919
 31
0.0
  0
LINE
  5
   414
  8
0
  6
CONTINUOUS
 62
     7
 10
98.3898705899719
 20
101.939734308499
 30
0.0
 11
52.3648980766534
 21
101.939734308499
 31
0.0
  0
LINE
  5
   415
  8
0
  6
CONTINUOUS
 62
     7
 10
52.3648980766534
 20
90.7397398398098
 30
0.0
 11
52.3648980766534
 21
101.939734308499
 31
0.0
  0
LINE
  5
   416
  8
0
  6
CONTINUOUS
 62
     3
 10
88.1523707644317
 20
54.3397431300146
 30
0.0
 11
96.989875954506
 21
54.3397591517427
 31
0.0
  0
LINE
  5
   417
  8
0
  6
CONTINUOUS
 62
     3
 10
53.7649361044206
 20
54.3397217676856
 30
0.0
 11
72.4461430616721
 21
54.3397337839815
 31
0.0
  0
LINE
  5
   418
  8
0
  6
CONTINUOUS
 62
     3
 10
53.7649394422806
 20
55.9147257462955
 30
0.0
 11
72.4461437292442
 21
55.9147377625918
 31
0.0
  0
LINE
  5
   419
  8
0
  6
CONTINUOUS
 62
     3
 10
73.8461437054075
 20
55.9147390977358
 30
0.0
 11
86.7523734584551
 21
55.9147471085997
 31
0.0
  0
LINE
  5
   41A
  8
0
  6
CONTINUOUS
 62
     3
 10
88.1523734346164
 20
55.9147484437435
 30
0.0
 11
96.9898759544028
 21
55.9147537843196
 31
0.0
  0
LINE
  5
   41B
  8
0
  6
CONTINUOUS
 62
     3
 10
53.7649361044048
 20
54.3397217677313
 30
0.0
 11
53.7649387746928
 21
55.9147257463413
 31
0.0
  0
LINE
  5
   41C
  8
0
  6
CONTINUOUS
 62
     3
 10
96.9898759543899
 20
54.3397591517144
 30
0.0
 11
96.9898759543899
 21
55.9147537843162
 31
0.0
  0
LINE
  5
   41D
  8
0
  6
CONTINUOUS
 62
     3
 10
88.1523707643536
 20
54.3397431300402
 30
0.0
 11
88.1523734346417
 21
55.9147551195143
 31
0.0
  0
LINE
  5
   41E
  8
0
  6
CONTINUOUS
 62
     3
 10
86.7523707881934
 20
54.3397431300357
 30
0.0
 11
86.7523734584815
 21
55.9147537843657
 31
0.0
  0
LINE
  5
   41F
  8
0
  6
CONTINUOUS
 62
     3
 10
73.8461423702582
 20
54.3397351191355
 30
0.0
 11
73.8461437054022
 21
55.9147457734656
 31
0.0
  0
LINE
  5
   420
  8
0
  6
CONTINUOUS
 62
     3
 10
72.4461430616716
 20
54.3397337839904
 30
0.0
 11
72.4461443968156
 21
55.9147457734645
 31
0.0
  0
LINE
  5
   421
  8
0
  6
CONTINUOUS
 62
     7
 10
64.9648975282907
 20
51.5397298262296
 30
0.0
 11
64.9648975282907
 21
52.9397298023878
 31
0.0
  0
LINE
  5
   422
  8
0
  6
CONTINUOUS
 62
     7
 10
64.9648975282907
 20
51.5397298262296
 30
0.0
 11
63.5648973852395
 21
51.5397298262296
 31
0.0
  0
LINE
  5
   423
  8
0
  6
CONTINUOUS
 62
     7
 10
92.8773973867296
 20
51.5397485182459
 30
0.0
 11
92.8773973867296
 21
52.9397244618117
 31
0.0
  0
LINE
  5
   424
  8
0
  6
CONTINUOUS
 62
     7
 10
94.2773973628878
 20
51.5397485182459
 30
0.0
 11
94.2773973628878
 21
52.9397244618117
 31
0.0
  0
LINE
  5
   425
  8
0
  6
CONTINUOUS
 62
     7
 10
94.2773973628878
 20
51.5397485182459
 30
0.0
 11
92.8773973867296
 21
51.5397485182459
 31
0.0
  0
LINE
  5
   426
  8
0
  6
CONTINUOUS
 62
     7
 10
54.1148980468511
 20
51.2772298307
 30
0.0
 11
54.1148980468511
 21
52.1522298157988
 31
0.0
  0
LINE
  5
   427
  8
0
  6
CONTINUOUS
 62
     7
 10
52.3648980766534
 20
51.2772298307
 30
0.0
 11
52.3648980766534
 21
52.9397271320997
 31
0.0
  0
LINE
  5
   428
  8
0
  6
CONTINUOUS
 62
     7
 10
54.1148980468511
 20
51.2772298307
 30
0.0
 11
52.3648980766534
 21
51.2772298307
 31
0.0
  0
LINE
  5
   429
  8
0
  6
CONTINUOUS
 62
     7
 10
54.1148980468511
 20
52.1522298157988
 30
0.0
 11
54.1148980468511
 21
52.9397298023878
 31
0.0
  0
LINE
  5
   42A
  8
0
  6
CONTINUOUS
 62
     7
 10
95.9398652911191
 20
51.2772298307
 30
0.0
 11
95.9398652911191
 21
52.1522298157988
 31
0.0
  0
LINE
  5
   42B
  8
0
  6
CONTINUOUS
 62
     7
 10
97.6898652613168
 20
51.2772298307
 30
0.0
 11
95.9398652911191
 21
51.2772298307
 31
0.0
  0
LINE
  5
   42C
  8
0
  6
CONTINUOUS
 62
     7
 10
97.6898652620608
 20
51.2772298312849
 30
0.0
 11
97.689875943213
 21
52.9397298029727
 31
0.0
  0
LINE
  5
   42D
  8
0
  6
CONTINUOUS
 62
     7
 10
95.9398652919078
 20
52.1522298164908
 30
0.0
 11
95.9398706324839
 21
52.9397244625037
 31
0.0
  0
LINE
  5
   42E
  8
0
  6
CONTINUOUS
 62
     3
 10
54.8148954104665
 20
94.7647458106582
 30
0.0
 11
53.7648954052823
 21
95.8147458158424
 31
0.0
  0
LINE
  5
   42F
  8
0
  6
CONTINUOUS
 62
     7
 10
52.3648980766534
 20
58.1897350535569
 30
0.0
 11
52.3648980766534
 21
80.2397320077596
 31
0.0
  0
LINE
  5
   430
  8
0
  6
CONTINUOUS
 62
     3
 10
71.964884391427
 20
80.239729337472
 30
0.0
 11
52.3648980766532
 21
80.23973200776
 31
0.0
  0
LINE
  5
   431
  8
0
  6
CONTINUOUS
 62
     3
 10
84.0398921966553
 20
80.2397239968955
 30
0.0
 11
84.0398921966553
 21
90.7397398398098
 31
0.0
  0
LINE
  5
   432
  8
0
  6
CONTINUOUS
 62
     3
 10
88.1523707643284
 20
97.3022343874859
 30
0.0
 11
96.9898759544028
 21
97.3022397280621
 31
0.0
  0
LINE
  5
   433
  8
0
  6
CONTINUOUS
 62
     3
 10
88.1523707643155
 20
94.7647344306884
 30
0.0
 11
88.1523707643155
 21
97.302234387475
 31
0.0
  0
LINE
  5
   434
  8
0
  6
CONTINUOUS
 62
     3
 10
88.1523707643284
 20
94.7647344306988
 30
0.0
 11
96.9898759544028
 21
94.764739771275
 31
0.0
  0
LINE
  5
   435
  8
0
  6
CONTINUOUS
 62
     3
 10
96.9898759543899
 20
94.7647397712644
 30
0.0
 11
96.9898759543899
 21
97.3022397280511
 31
0.0
  0
LINE
  5
   436
  8
0
  6
CONTINUOUS
 62
     3
 10
72.4461430616677
 20
94.7647397712644
 30
0.0
 11
72.4461430616677
 21
97.3022397280511
 31
0.0
  0
LINE
  5
   437
  8
0
  6
CONTINUOUS
 62
     3
 10
86.7523707881574
 20
94.7647397712644
 30
0.0
 11
72.4461423940957
 21
94.7647397712644
 31
0.0
  0
LINE
  5
   438
  8
0
  6
CONTINUOUS
 62
     3
 10
86.7523707881574
 20
94.7647397712644
 30
0.0
 11
86.7523707881574
 21
97.3022397280511
 31
0.0
  0
LINE
  5
   439
  8
0
  6
CONTINUOUS
 62
     3
 10
86.7523707881574
 20
97.3022397280511
 30
0.0
 11
72.4461423940957
 21
97.3022397280511
 31
0.0
  0
LINE
  5
   43A
  8
0
  6
CONTINUOUS
 62
     3
 10
71.0461430855095
 20
94.7647397712644
 30
0.0
 11
53.7648987203835
 21
94.7647397712644
 31
0.0
  0
LINE
  5
   43B
  8
0
  6
CONTINUOUS
 62
     3
 10
71.0461430855095
 20
94.7647397712644
 30
0.0
 11
71.0461430855095
 21
97.3022397280511
 31
0.0
  0
LINE
  5
   43C
  8
0
  6
CONTINUOUS
 62
     3
 10
71.0461430855095
 20
97.3022397280511
 30
0.0
 11
53.7648987203835
 21
97.3022397280511
 31
0.0
  0
LINE
  5
   43D
  8
0
  6
CONTINUOUS
 62
     3
 10
53.7648980528115
 20
94.7647397712644
 30
0.0
 11
53.7648980528115
 21
97.3022397280511
 31
0.0
  0
LINE
  5
   43E
  8
0
  6
CONTINUOUS
 62
     3
 10
57.2648976594209
 20
54.3397257731139
 30
0.0
 11
57.2648976594209
 21
55.9147337571559
 31
0.0
  0
LINE
  5
   43F
  8
0
  6
CONTINUOUS
 62
     3
 10
58.664898636937
 20
54.3397257731139
 30
0.0
 11
58.664898636937
 21
55.9147350922999
 31
0.0
  0
LINE
  5
   440
  8
0
  6
CONTINUOUS
 62
     3
 10
53.7650349050729
 20
54.3397124216768
 30
0.0
 11
53.7650355726449
 21
55.9147257462949
 31
0.0
  0
LINE
  5
   441
  8
0
  6
CONTINUOUS
 62
     7
 10
52.3648980765859
 20
52.9397084403138
 30
0.0
 11
52.3648994117299
 21
53.2897338020897
 31
0.0
  0
LINE
  5
   442
  8
0
  6
CONTINUOUS
 62
     7
 10
98.3898732688165
 20
52.9396857444783
 30
0.0
 11
97.6898759510255
 21
52.9396964256304
 31
0.0
  0
LINE
  5
   443
  8
0
  6
CONTINUOUS
 62
     7
 10
113.614891692996
 20
56.7897177205268
 30
0.0
 11
113.61488635242
 21
101.939732973355
 31
0.0
  0
LINE
  5
   444
  8
0
  6
CONTINUOUS
 62
     3
 10
88.1705928099036
 20
54.339736454266
 30
0.0
 11
88.1705928099036
 21
55.9147484437401
 31
0.0
  0
LINE
  5
   445
  8
0
  6
CONTINUOUS
 62
     3
 10
86.7519462123589
 20
54.3397204325378
 30
0.0
 11
86.7519462123589
 21
55.9147471085961
 31
0.0
  0
LINE
  5
   446
  8
0
  6
CONTINUOUS
 62
     3
 10
68.1148764461282
 20
67.9022188664258
 30
0.0
 11
63.3898978888988
 21
67.9022188664258
 31
0.0
  0
LINE
  5
   447
  8
0
  6
CONTINUOUS
 62
     3
 10
68.1148764461282
 20
64.2272189290106
 30
0.0
 11
63.3898978888988
 21
64.2272189290106
 31
0.0
  0
LINE
  5
   448
  8
0
  6
CONTINUOUS
 62
     3
 10
63.3898977220058
 20
64.2272189290106
 30
0.0
 11
63.3898977220058
 21
67.9022188664258
 31
0.0
  0
LINE
  5
   449
  8
0
  6
CONTINUOUS
 62
     3
 10
68.1148764461282
 20
64.2272189290106
 30
0.0
 11
68.1148764461282
 21
67.9022188664258
 31
0.0
  0
LINE
  5
   44A
  8
0
  6
CONTINUOUS
 62
   130
 10
58.4898892939091
 20
104.564734263795
 30
0.0
 11
48.5148887962104
 21
104.564734263795
 31
0.0
  0
LINE
  5
   44B
  8
0
  6
CONTINUOUS
 62
   130
 10
58.4898892939091
 20
103.514734281677
 30
0.0
 11
58.4898892939091
 21
104.564734263795
 31
0.0
  0
LINE
  5
   44C
  8
0
  6
CONTINUOUS
 62
   130
 10
58.4898892939091
 20
101.939734308499
 30
0.0
 11
58.4898892939091
 21
103.514734281677
 31
0.0
  0
LINE
  5
   44D
  8
0
  6
CONTINUOUS
 62
     3
 10
58.4898892939091
 20
55.5647364334044
 30
0.0
 11
58.4898892939091
 21
55.9147284165798
 31
0.0
  0
LINE
  5
   44E
  8
0
  6
CONTINUOUS
 62
     3
 10
58.4898892939091
 20
55.5647364334044
 30
0.0
 11
57.2648976594209
 21
55.5647364334044
 31
0.0
  0
LINE
  5
   44F
  8
0
  6
CONTINUOUS
 62
   130
 10
52.3649161010977
 20
55.5647364334044
 30
0.0
 11
48.5148874610663
 21
55.5647364334044
 31
0.0
  0
LINE
  5
   450
  8
0
  6
CONTINUOUS
 62
   130
 10
46.5898888289929
 20
103.864734275716
 30
0.0
 11
46.5898888289929
 21
104.564734263795
 31
0.0
  0
LINE
  5
   451
  8
0
  6
CONTINUOUS
 62
     3
 10
58.664898636937
 20
55.5647350982604
 30
0.0
 11
58.4898892939091
 21
55.5647350982604
 31
0.0
  0
LINE
  5
   452
  8
0
  6
CONTINUOUS
 62
     2
 10
62.1648890644313
 20
104.564734263795
 30
0.0
 11
58.4898891270161
 21
104.564734263795
 31
0.0
  0
LINE
  5
   453
  8
0
  6
CONTINUOUS
 62
     3
 10
54.8149394243941
 20
54.3397311136933
 30
0.0
 11
54.8149387568222
 21
55.9147324220153
 31
0.0
  0
LINE
  5
   454
  8
0
  6
CONTINUOUS
 62
     3
 10
96.9898759543899
 20
95.2897397623237
 30
0.0
 11
88.1523761048916
 21
95.2897397623237
 31
0.0
  0
LINE
  5
   455
  8
0
  6
CONTINUOUS
 62
     3
 10
86.7523734584454
 20
95.2897397623237
 30
0.0
 11
72.4461463995277
 21
95.2897397623237
 31
0.0
  0
LINE
  5
   456
  8
0
  6
CONTINUOUS
 62
     3
 10
71.0461464233696
 20
95.2897397623237
 30
0.0
 11
54.8148980349301
 21
95.2897397623237
 31
0.0
  0
LINE
  5
   457
  8
0
  6
CONTINUOUS
 62
     3
 10
54.5523993002347
 20
95.027245394826
 30
0.0
 11
54.8148993015307
 21
95.2897453961221
 31
0.0
  0
LINE
  5
   458
  8
0
  6
CONTINUOUS
 62
     3
 10
54.8148980349301
 20
95.2897397623237
 30
0.0
 11
54.8148980349301
 21
97.3022397280511
 31
0.0
  0
LINE
  5
   459
  8
0
  6
CONTINUOUS
 62
     3
 10
64.2648977071046
 20
65.1459689133644
 30
0.0
 11
64.2648977071046
 21
65.5891379274237
 31
0.0
  0
LINE
  5
   45A
  8
0
  6
CONTINUOUS
 62
     3
 10
64.2648977071046
 20
65.5891379274237
 30
0.0
 11
64.2648977071046
 21
66.0647188977182
 31
0.0
  0
LINE
  5
   45B
  8
0
  6
CONTINUOUS
 62
     3
 10
64.2648977071046
 20
66.0647188977182
 30
0.0
 11
64.2648977071046
 21
66.5402998680127
 31
0.0
  0
LINE
  5
   45C
  8
0
  6
CONTINUOUS
 62
     3
 10
64.2648977071046
 20
66.5402998680127
 30
0.0
 11
64.2648977071046
 21
66.983468882072
 31
0.0
  0
LINE
  5
   45D
  8
0
  6
CONTINUOUS
 62
     3
 10
64.2648977071046
 20
66.983468882072
 30
0.0
 11
64.2648977071046
 21
67.3640276524466
 31
0.0
  0
LINE
  5
   45E
  8
0
  6
CONTINUOUS
 62
     3
 10
64.2648977071046
 20
67.3640276524466
 30
0.0
 11
64.2648977071046
 21
67.6560396713994
 31
0.0
  0
LINE
  5
   45F
  8
0
  6
CONTINUOUS
 62
     3
 10
64.2648977071046
 20
67.6560396713994
 30
0.0
 11
64.2648977071046
 21
67.839608622741
 31
0.0
  0
LINE
  5
   460
  8
0
  6
CONTINUOUS
 62
     3
 10
64.2648977071046
 20
67.839608622741
 30
0.0
 11
64.2648977071046
 21
67.9022188664258
 31
0.0
  0
LINE
  5
   461
  8
0
  6
CONTINUOUS
 62
     3
 10
64.2648977071046
 20
64.2272189290106
 30
0.0
 11
64.2648977071046
 21
64.2898291726954
 31
0.0
  0
LINE
  5
   462
  8
0
  6
CONTINUOUS
 62
     3
 10
64.2648977071046
 20
64.2898291726954
 30
0.0
 11
64.2648977071046
 21
64.473398124037
 31
0.0
  0
LINE
  5
   463
  8
0
  6
CONTINUOUS
 62
     3
 10
64.2648977071046
 20
64.473398124037
 30
0.0
 11
64.2648977071046
 21
64.7654101429898
 31
0.0
  0
LINE
  5
   464
  8
0
  6
CONTINUOUS
 62
     3
 10
64.2648977071046
 20
64.7654101429898
 30
0.0
 11
64.2648977071046
 21
65.1459689133644
 31
0.0
  0
LINE
  5
   465
  8
0
  6
CONTINUOUS
 62
     7
 10
52.3648980766525
 20
80.2397320077598
 30
0.0
 11
52.3648980766525
 21
90.7397398398096
 31
0.0
  0
LINE
  5
   466
  8
0
  6
CONTINUOUS
 62
     7
 10
46.5898888289929
 20
100.364734335321
 30
0.0
 11
46.5898888289929
 21
103.864734275716
 31
0.0
  0
CIRCLE
  5
   467
  8
0
  6
CONTINUOUS
 62
     7
 10
56.5648706409768
 20
74.9897191967626
 30
0.0
 40
3.49999920427875
  0
CIRCLE
  5
   468
  8
0
  6
CONTINUOUS
 62
     7
 10
56.5648704906649
 20
74.9897189428532
 30
0.0
 40
0.962500513221885
  0
CIRCLE
  5
   469
  8
0
  6
CONTINUOUS
 62
     7
 10
106.439874386262
 20
93.8897475485406
 30
0.0
 40
2.10000119521557
  0
CIRCLE
  5
   46A
  8
0
  6
CONTINUOUS
 62
     7
 10
106.439876981201
 20
93.889744110632
 30
0.0
 40
1.13749792246321
  0
CIRCLE
  5
   46B
  8
0
  6
CONTINUOUS
 62
     7
 10
106.439874404984
 20
58.8897320628626
 30
0.0
 40
2.10000165327577
  0
CIRCLE
  5
   46C
  8
0
  6
CONTINUOUS
 62
     7
 10
106.43987257803
 20
58.8897338315468
 30
0.0
 40
1.13749951227535
  0
LINE
  5
   46D
  8
0
  6
DASHDOT
 62
     7
 10
106.439874404984
 20
56.4397304155473
 30
0.0
 11
106.439874404984
 21
61.3397337101779
 31
0.0
  0
LINE
  5
   46E
  8
0
  6
DASHDOT
 62
     7
 10
108.8898760523
 20
58.8897320628626
 30
0.0
 11
103.989872757669
 21
58.8897320628626
 31
0.0
  0
LINE
  5
   46F
  8
0
  6
DASHDOT
 62
     7
 10
106.439874386262
 20
91.4397463592855
 30
0.0
 11
106.439874386262
 21
96.3397487377957
 31
0.0
  0
LINE
  5
   470
  8
0
  6
DASHDOT
 62
     7
 10
108.889875575518
 20
93.8897475485406
 30
0.0
 11
103.989873197007
 21
93.8897475485406
 31
0.0
  0
LINE
  5
   471
  8
0
  6
DASHDOT
 62
     7
 10
56.5648706409768
 20
71.1397199984443
 30
0.0
 11
56.5648706409768
 21
78.8397183950809
 31
0.0
  0
LINE
  5
   472
  8
0
  6
DASHDOT
 62
     7
 10
60.4148698392951
 20
74.9897191967626
 30
0.0
 11
52.7148714426585
 21
74.9897191967626
 31
0.0
  0
LINE
  5
   473
  8
0
  6
CONTINUOUS
 62
     3
 10
78.7898922860622
 20
80.2397239968955
 30
0.0
 11
78.7898922860622
 21
90.7397398398098
 31
0.0
  0
LINE
  5
   474
  8
0
  6
DASHDOT
 62
     2
 10
126.443258176704
 20
80.0647360161719
 30
0.0
 11
25.9784920182586
 21
80.0647360161719
 31
0.0
  0
LINE
  5
   475
  8
0
  6
DASHDOT
 62
     2
 10
122.57525920543
 20
95.9897344098267
 30
0.0
 11
110.756737537642
 21
95.9897344098267
 31
0.0
  0
LINE
  5
   476
  8
0
  6
DASHDOT
 62
     2
 10
123.323140508256
 20
53.9897377953705
 30
0.0
 11
110.756737537642
 21
53.9897377953705
 31
0.0
  0
LINE
  5
   477
  8
0
  6
DASHDOT
 62
     2
 10
123.189258902506
 20
74.9897347674546
 30
0.0
 11
107.255883146091
 21
74.9897347674546
 31
0.0
  0
LINE
  5
   478
  8
0
  6
DOT
 62
     7
 10
115.014875647426
 20
12.8280558142155
 30
0.0
 11
115.014875647426
 21
171.120666506207
 31
0.0
  0
LINE
  5
   479
  8
0
  6
DOT
 62
     7
 10
116.064875629545
 20
13.0919724964293
 30
0.0
 11
116.064875629545
 21
169.155847088226
 31
0.0
  0
LINE
  5
   47A
  8
0
  6
DOT
 62
     7
 10
122.014875528217
 20
99.3147343532023
 30
0.0
 11
122.014875528217
 21
100.364734335321
 31
0.0
  0
LINE
  5
   47B
  8
0
  6
CONTINUOUS
 62
     7
 10
118.864875581861
 20
98.506234366971
 30
0.0
 11
116.064875629545
 21
98.506234366971
 31
0.0
  0
LINE
  5
   47C
  8
0
  6
CONTINUOUS
 62
     7
 10
118.864875581861
 20
93.4732344526825
 30
0.0
 11
116.064875629545
 21
93.4732344526825
 31
0.0
  0
LINE
  5
   47D
  8
0
  6
CONTINUOUS
 62
     7
 10
118.864875581861
 20
93.4732344526825
 30
0.0
 11
118.864875581861
 21
98.506234366971
 31
0.0
  0
LINE
  5
   47E
  8
0
  6
CONTINUOUS
 62
     7
 10
118.864875581861
 20
51.4732351679382
 30
0.0
 11
118.864875581861
 21
56.5062350822267
 31
0.0
  0
LINE
  5
   47F
  8
0
  6
CONTINUOUS
 62
     7
 10
118.864875581861
 20
51.4732351679382
 30
0.0
 11
116.064875629545
 21
51.4732351679382
 31
0.0
  0
LINE
  5
   480
  8
0
  6
CONTINUOUS
 62
     7
 10
118.864875581861
 20
56.5062350822267
 30
0.0
 11
116.064875629545
 21
56.5062350822267
 31
0.0
  0
LINE
  5
   481
  8
0
  6
CONTINUOUS
 62
     7
 10
48.5148874610663
 20
28.1938436094275
 30
0.0
 11
48.5148874610663
 21
48.0397365615544
 31
0.0
  0
LINE
  5
   482
  8
0
  6
CONTINUOUS
 62
     7
 10
47.8148874729873
 20
28.048042085193
 30
0.0
 11
47.8148874729873
 21
51.8897351608452
 31
0.0
  0
LINE
  5
   483
  8
0
  6
CONTINUOUS
 62
     7
 10
49.9635526419228
 20
170.927009237706
 30
0.0
 11
46.8014466524955
 21
171.794038299323
 31
0.0
  0
LINE
  5
   484
  8
0
  6
CONTINUOUS
 62
     7
 10
47.8148874729873
 20
51.8897351608452
 30
0.0
 11
47.8148874729873
 21
171.516159364672
 31
0.0
  0
LINE
  5
   485
  8
0
  6
CONTINUOUS
 62
     7
 10
51.3148887485266
 20
63.7898063883945
 30
0.0
 11
51.3148887485266
 21
68.3397342131314
 31
0.0
  0
LINE
  5
   486
  8
0
  6
CONTINUOUS
 62
     1
 10
46.5898888289929
 20
45.7647366002974
 30
0.0
 11
46.5898888289929
 21
63.4397342965779
 31
0.0
  0
LINE
  5
   487
  8
0
  6
CONTINUOUS
 62
     1
 10
46.5898888289929
 20
73.5022341252146
 30
0.0
 11
46.5898888289929
 21
114.364735432046
 31
0.0
  0
LINE
  5
   488
  8
0
  6
CONTINUOUS
 62
     1
 10
48.5148887962104
 20
81.1147366658625
 30
0.0
 11
48.5148887962104
 21
109.989735506552
 31
0.0
  0
LINE
  5
   489
  8
0
  6
CONTINUOUS
 62
     1
 10
48.5148887962104
 20
68.3397342131314
 30
0.0
 11
48.5148887962104
 21
79.0147393719133
 31
0.0
  0
LINE
  5
   48A
  8
0
  6
CONTINUOUS
 62
     7
 10
50.0898887693883
 20
110.191806883726
 30
0.0
 11
50.0898887693883
 21
111.887664093615
 31
0.0
  0
LINE
  5
   48B
  8
0
  6
CONTINUOUS
 62
     7
 10
50.0898887693883
 20
79.2168080787993
 30
0.0
 11
50.0898887693883
 21
80.9126626184005
 31
0.0
  0
LINE
  5
   48C
  8
0
  6
CONTINUOUS
 62
     7
 10
46.9398888230324
 20
63.4397342965779
 30
0.0
 11
46.5898888289929
 21
63.4397342965779
 31
0.0
  0
LINE
  5
   48D
  8
0
  6
CONTINUOUS
 62
     7
 10
46.9398888230324
 20
62.0397343204198
 30
0.0
 11
46.9398888230324
 21
63.4397342965779
 31
0.0
  0
LINE
  5
   48E
  8
0
  6
CONTINUOUS
 62
     7
 10
47.289888817072
 20
62.0397343204198
 30
0.0
 11
46.9398888230324
 21
62.0397343204198
 31
0.0
  0
LINE
  5
   48F
  8
0
  6
CONTINUOUS
 62
     7
 10
47.289888817072
 20
62.0397343204198
 30
0.0
 11
47.289888817072
 21
70.0897341833291
 31
0.0
  0
LINE
  5
   490
  8
0
  6
CONTINUOUS
 62
     7
 10
47.289888817072
 20
70.0897341833291
 30
0.0
 11
46.9398888230324
 21
70.0897341833291
 31
0.0
  0
LINE
  5
   491
  8
0
  6
CONTINUOUS
 62
     7
 10
46.9398888230324
 20
68.6897342071709
 30
0.0
 11
46.9398888230324
 21
70.0897341833291
 31
0.0
  0
LINE
  5
   492
  8
0
  6
CONTINUOUS
 62
     7
 10
46.9398888230324
 20
68.6897342071709
 30
0.0
 11
46.5898888289929
 21
68.6897342071709
 31
0.0
  0
LINE
  5
   493
  8
0
  6
CONTINUOUS
 62
     7
 10
51.3148887485266
 20
63.7898063883945
 30
0.0
 11
47.8148888081313
 21
63.7898063883945
 31
0.0
  0
LINE
  5
   494
  8
0
  6
CONTINUOUS
 62
     7
 10
51.3148887485266
 20
68.3397342131314
 30
0.0
 11
47.8148888081313
 21
68.3397342131314
 31
0.0
  0
LINE
  5
   495
  8
0
  6
CONTINUOUS
 62
     1
 10
46.5898888289929
 20
68.6897342071709
 30
0.0
 11
46.5898888289929
 21
73.5022367955026
 31
0.0
  0
LINE
  5
   496
  8
0
  6
CONTINUOUS
 62
     7
 10
49.7398887753487
 20
109.989735506552
 30
0.0
 11
47.8148888081313
 21
109.989735506552
 31
0.0
  0
LINE
  5
   497
  8
0
  6
CONTINUOUS
 62
     7
 10
49.7398887753487
 20
112.089735470789
 30
0.0
 11
47.8148888081313
 21
112.089735470789
 31
0.0
  0
LINE
  5
   498
  8
0
  6
CONTINUOUS
 62
     7
 10
49.7398887753487
 20
109.989734792414
 30
0.0
 11
49.7398887753487
 21
112.089734876843
 31
0.0
  0
LINE
  5
   499
  8
0
  6
CONTINUOUS
 62
     7
 10
49.7398887118539
 20
109.989734755755
 30
0.0
 11
50.0898887174178
 21
110.191806135463
 31
0.0
  0
LINE
  5
   49A
  8
0
  6
CONTINUOUS
 62
     7
 10
50.0898892838335
 20
111.887663206776
 30
0.0
 11
49.7398892782696
 21
112.089734586483
 31
0.0
  0
LINE
  5
   49B
  8
0
  6
CONTINUOUS
 62
     7
 10
49.7398887753487
 20
79.0147367016253
 30
0.0
 11
47.8148888081313
 21
79.0147367016253
 31
0.0
  0
LINE
  5
   49C
  8
0
  6
CONTINUOUS
 62
     7
 10
49.7398887753487
 20
81.1147366658625
 30
0.0
 11
47.8148888081313
 21
81.1147366658625
 31
0.0
  0
LINE
  5
   49D
  8
0
  6
CONTINUOUS
 62
     7
 10
49.7398887753487
 20
79.0147367016253
 30
0.0
 11
49.7398887753487
 21
81.1147366658625
 31
0.0
  0
LINE
  5
   49E
  8
0
  6
CONTINUOUS
 62
     7
 10
49.7398888229546
 20
79.0147362715487
 30
0.0
 11
50.0898888285185
 21
79.2168076512562
 31
0.0
  0
LINE
  5
   49F
  8
0
  6
CONTINUOUS
 62
     7
 10
50.0898893292477
 20
80.9126618304848
 30
0.0
 11
49.7398893236842
 21
81.1147358771461
 31
0.0
  0
LINE
  5
   4A0
  8
0
  6
CONTINUOUS
 62
     7
 10
48.5148874610663
 20
50.1397365257916
 30
0.0
 11
48.5148874610663
 21
63.7898063883945
 31
0.0
  0
LINE
  5
   4A1
  8
0
  6
CONTINUOUS
 62
     7
 10
48.5148887962104
 20
63.439806394355
 30
0.0
 11
47.8148888081313
 21
63.439806394355
 31
0.0
  0
LINE
  5
   4A2
  8
0
  6
CONTINUOUS
 62
     7
 10
48.5148887962104
 20
68.6897342071709
 30
0.0
 11
47.8148888081313
 21
68.6897342071709
 31
0.0
  0
LINE
  5
   4A3
  8
0
  6
CONTINUOUS
 62
     7
 10
48.5148887962104
 20
81.2897366628823
 30
0.0
 11
47.8148888081313
 21
81.2897366628823
 31
0.0
  0
LINE
  5
   4A4
  8
0
  6
CONTINUOUS
 62
     7
 10
48.5148887962104
 20
78.8397367046055
 30
0.0
 11
47.8148888081313
 21
78.8397367046055
 31
0.0
  0
LINE
  5
   4A5
  8
0
  6
CONTINUOUS
 62
     7
 10
48.5148874610663
 20
112.089735470789
 30
0.0
 11
48.5148874610663
 21
171.32422388407
 31
0.0
  0
LINE
  5
   4A6
  8
0
  6
CONTINUOUS
 62
     7
 10
48.5148874610663
 20
112.264735467809
 30
0.0
 11
47.8148888081313
 21
112.264735467809
 31
0.0
  0
LINE
  5
   4A7
  8
0
  6
CONTINUOUS
 62
     7
 10
48.5148874610663
 20
109.814735509532
 30
0.0
 11
47.8148888081313
 21
109.814735509532
 31
0.0
  0
LINE
  5
   4A8
  8
0
  6
CONTINUOUS
 62
   130
 10
46.5898888289929
 20
63.4397342965779
 30
0.0
 11
46.5898888289929
 21
68.6897342071709
 31
0.0
  0
LINE
  5
   4A9
  8
0
  6
CONTINUOUS
 62
     7
 10
45.5642442796153
 20
27.5792603513499
 30
0.0
 11
50.7936374550369
 21
28.6684796496111
 31
0.0
  0
INSERT
  5
   4AA
  8
0
  6
CONTINUOUS
 62
     7
  2
*HATCH359
 10
61.639892578125
 20
37.1067695617676
 30
0.0
 41
0.349999994039536
 42
0.349999994039536
 50
89.9999999480344
 43
0.349999994039536
  0
LINE
  5
   4AB
  8
0
  6
CONTINUOUS
 62
     7
 10
143.189875167609
 20
118.389735363501
 30
0.0
 11
127.439875435829
 21
118.389735363501
 31
0.0
  0
LINE
  5
   4AC
  8
0
  6
CONTINUOUS
 62
     7
 10
143.189875167609
 20
104.38973560192
 30
0.0
 11
127.439875435829
 21
104.38973560192
 31
0.0
  0
LINE
  5
   4AD
  8
0
  6
CONTINUOUS
 62
     7
 10
143.189875167609
 20
104.38973560192
 30
0.0
 11
143.189875167609
 21
118.389735363501
 31
0.0
  0
CIRCLE
  5
   4AE
  8
0
  6
CONTINUOUS
 62
     7
 10
136.189875286818
 20
111.38973548271
 30
0.0
 40
2.44999995827675
  0
LINE
  5
   4AF
  8
0
  6
DASHDOT
 62
     7
 10
136.189875286818
 20
105.439735584038
 30
0.0
 11
136.189875286818
 21
117.339735381382
 31
0.0
  0
LINE
  5
   4B0
  8
0
  6
DASHDOT
 62
     7
 10
142.13987518549
 20
111.38973548271
 30
0.0
 11
130.239875388146
 21
111.38973548271
 31
0.0
  0
INSERT
  5
   4B1
  8
255
  6
CONTINUOUS
 62
     7
  2
BASETT
 10
97.6898759424689
 20
23.3647411386061
 30
0.0
 41
0.349999994039536
 42
0.349999994039536
 50
3.50835464724173E-15
 43
0.349999994039536
  0
LINE
  5
   4B2
  8
0
  6
CONTINUOUS
 62
     7
 10
143.189875167609
 20
31.5897368416962
 30
0.0
 11
143.189875167609
 21
45.5897366032776
 31
0.0
  0
LINE
  5
   4B3
  8
0
  6
CONTINUOUS
 62
     7
 10
143.189875167609
 20
31.5897368416962
 30
0.0
 11
127.439875435829
 21
31.5897368416962
 31
0.0
  0
LINE
  5
   4B4
  8
0
  6
CONTINUOUS
 62
     7
 10
143.189875167609
 20
45.5897366032776
 30
0.0
 11
127.439875435829
 21
45.5897366032776
 31
0.0
  0
CIRCLE
  5
   4B5
  8
0
  6
CONTINUOUS
 62
     7
 10
136.189875286818
 20
38.5897367224869
 30
0.0
 40
2.44999995827675
  0
LINE
  5
   4B6
  8
0
  6
DASHDOT
 62
     7
 10
136.189875286818
 20
32.6397368238148
 30
0.0
 11
136.189875286818
 21
44.539736621159
 31
0.0
  0
LINE
  5
   4B7
  8
0
  6
DASHDOT
 62
     7
 10
142.13987518549
 20
38.5897367224869
 30
0.0
 11
130.239875388146
 21
38.5897367224869
 31
0.0
  0
LINE
  5
   4B8
  8
0
  6
DOT
 62
     7
 10
122.014875528217
 20
100.364734335321
 30
0.0
 11
116.589875620604
 21
100.364734335321
 31
0.0
  0
LINE
  5
   4B9
  8
0
  6
DOT
 62
     7
 10
122.014875528217
 20
99.3147343532023
 30
0.0
 11
116.589875620604
 21
99.3147343532023
 31
0.0
  0
LINE
  5
   4BA
  8
0
  6
DOT
 62
     7
 10
122.014875528217
 20
49.6147351995883
 30
0.0
 11
116.589875620604
 21
49.6147351995883
 31
0.0
  0
LINE
  5
   4BB
  8
0
  6
DOT
 62
     7
 10
122.014875528217
 20
50.6647351817069
 30
0.0
 11
116.589875620604
 21
50.6647351817069
 31
0.0
  0
LINE
  5
   4BC
  8
0
  6
DOT
 62
     7
 10
122.014875528217
 20
49.6147351995883
 30
0.0
 11
122.014875528217
 21
50.6647351817069
 31
0.0
  0
ARC
  5
   4BD
  8
0
  6
DOT
 62
     7
 10
116.589875620604
 20
51.1897351727662
 30
0.0
 40
0.524999991059303
 50
179.999999948034
 51
269.999999948034
  0
ARC
  5
   4BE
  8
0
  6
DOT
 62
     7
 10
116.589875620604
 20
51.1897351727662
 30
0.0
 40
1.57499997317791
 50
179.999999948034
 51
269.999999948034
  0
ARC
  5
   4BF
  8
0
  6
DOT
 62
     7
 10
116.589875620604
 20
98.789734362143
 30
0.0
 40
1.57499997317791
 50
89.9999999480344
 51
179.999999948034
  0
ARC
  5
   4C0
  8
0
  6
DOT
 62
     7
 10
116.589875620604
 20
98.789734362143
 30
0.0
 40
0.524999991059303
 50
89.9999999480344
 51
179.999999948034
  0
LINE
  5
   4C1
  8
0
  6
CONTINUOUS
 62
     7
 10
48.5148874610663
 20
47.8647365645346
 30
0.0
 11
47.8148888081313
 21
47.8647365645346
 31
0.0
  0
LINE
  5
   4C2
  8
0
  6
CONTINUOUS
 62
     7
 10
49.7398887753487
 20
48.0397365615544
 30
0.0
 11
47.8148888081313
 21
48.0397365615544
 31
0.0
  0
LINE
  5
   4C3
  8
0
  6
CONTINUOUS
 62
     7
 10
49.7398887753487
 20
50.1397365257916
 30
0.0
 11
47.8148888081313
 21
50.1397365257916
 31
0.0
  0
LINE
  5
   4C4
  8
0
  6
CONTINUOUS
 62
     7
 10
48.5148874610663
 20
50.3147365228114
 30
0.0
 11
47.8148888081313
 21
50.3147365228114
 31
0.0
  0
LINE
  5
   4C5
  8
0
  6
CONTINUOUS
 62
     7
 10
49.7398887753487
 20
48.0397371555007
 30
0.0
 11
49.7398887753487
 21
50.1397372399298
 31
0.0
  0
LINE
  5
   4C6
  8
0
  6
CONTINUOUS
 62
     7
 10
50.0898887693883
 20
48.2418079387284
 30
0.0
 11
50.0898887693883
 21
49.9376651486176
 31
0.0
  0
LINE
  5
   4C7
  8
0
  6
CONTINUOUS
 62
     7
 10
50.0898887174178
 20
49.9376658968809
 30
0.0
 11
49.7398887118539
 21
50.1397372765883
 31
0.0
  0
LINE
  5
   4C8
  8
0
  6
CONTINUOUS
 62
     7
 10
49.7398892782696
 20
48.0397374458605
 30
0.0
 11
50.0898892838335
 21
48.2418088255679
 31
0.0
  0
LINE
  5
   4C9
  8
0
  6
CONTINUOUS
 62
     7
 10
47.8148888081313
 20
114.364735432046
 30
0.0
 11
46.5898888289929
 21
114.364735432046
 31
0.0
  0
LINE
  5
   4CA
  8
0
  6
CONTINUOUS
 62
     7
 10
47.8148888081313
 20
45.7647366002974
 30
0.0
 11
46.5898888289929
 21
45.7647366002974
 31
0.0
  0
INSERT
  5
   4CB
  8
0
  6
CONTINUOUS
 62
     7
  2
*HATCH360
 10
61.639892578125
 20
37.1067695617676
 30
0.0
 41
0.349999994039536
 42
0.349999994039536
 50
89.9999999480344
 43
0.349999994039536
  0
INSERT
  5
   4CC
  8
0
  6
CONTINUOUS
 62
     7
  2
*HATCH361
 10
61.639892578125
 20
37.1067695617676
 30
0.0
 41
0.349999994039536
 42
0.349999994039536
 50
89.9999999480344
 43
0.349999994039536
  0
INSERT
  5
   4CD
  8
0
  6
CONTINUOUS
 62
     7
  2
*HATCH362
 10
61.639892578125
 20
37.1067695617676
 30
0.0
 41
0.349999994039536
 42
0.349999994039536
 50
89.9999999480344
 43
0.349999994039536
  0
INSERT
  5
   4CE
  8
0
  6
CONTINUOUS
 62
     7
  2
*HATCH363
 10
61.639892578125
 20
37.1067695617676
 30
0.0
 41
0.349999994039536
 42
0.349999994039536
 50
89.9999999480344
 43
0.349999994039536
  0
LINE
  5
   4CF
  8
0
  6
CONTINUOUS
 62
     7
 10
51.8398867368699
 20
105.089735589999
 30
0.0
 11
50.9648847490551
 21
105.089735589999
 31
0.0
  0
LINE
  5
   4D0
  8
0
  6
CONTINUOUS
 62
     7
 10
51.8398867368699
 20
105.089735589999
 30
0.0
 11
51.8398867368699
 21
108.764735527414
 31
0.0
  0
LINE
  5
   4D1
  8
0
  6
CONTINUOUS
 62
     7
 10
50.6148847550155
 20
109.989735506552
 30
0.0
 11
49.7398847699167
 21
109.989735506552
 31
0.0
  0
LINE
  5
   4D2
  8
0
  6
CONTINUOUS
 62
     7
 10
49.3898847758772
 20
112.089735470789
 30
0.0
 11
49.3898847758772
 21
113.139735452908
 31
0.0
  0
LINE
  5
   4D3
  8
0
  6
CONTINUOUS
 62
     7
 10
49.3898847758772
 20
113.139735452908
 30
0.0
 11
48.5148874610664
 21
113.139735452908
 31
0.0
  0
LINE
  5
   4D4
  8
0
  6
CONTINUOUS
 62
     7
 10
50.6148847550155
 20
109.114735521453
 30
0.0
 11
49.7398847699167
 21
109.114735521453
 31
0.0
  0
LINE
  5
   4D5
  8
0
  6
CONTINUOUS
 62
     7
 10
50.9648847490551
 20
105.089735589999
 30
0.0
 11
50.9648847490551
 21
108.764735527414
 31
0.0
  0
ARC
  5
   4D6
  8
0
  6
CONTINUOUS
 62
     7
 10
50.6148796262883
 20
108.764731087207
 30
0.0
 40
1.2250064377287
 50
360.000319242658
 51
449.999813057862
  0
ARC
  5
   4D7
  8
0
  6
CONTINUOUS
 62
     7
 10
50.6149002418677
 20
108.764749840587
 30
0.0
 40
0.349982431475061
 50
359.998830132094
 51
450.002235749312
  0
ARC
  5
   4D8
  8
0
  6
CONTINUOUS
 62
     7
 10
49.7398779965832
 20
110.339724284165
 30
0.0
 40
1.22498984871903
 50
196.601143374767
 51
270.000346548696
  0
LINE
  5
   4D9
  8
0
  6
CONTINUOUS
 62
     7
 10
51.8398867368699
 20
108.239735536354
 30
0.0
 11
50.9648847490551
 21
108.239735536354
 31
0.0
  0
INSERT
  5
   4DA
  8
0
  6
CONTINUOUS
 62
     7
  2
*HATCH364
 10
61.639892578125
 20
37.1067695617676
 30
0.0
 41
0.349999994039536
 42
0.349999994039536
 50
89.9999999480344
 43
0.349999994039536
  0
LINE
  5
   4DB
  8
0
  6
DOT
 62
     7
 10
143.189875167609
 20
113.139735452908
 30
0.0
 11
127.439875435829
 21
113.139735452908
 31
0.0
  0
LINE
  5
   4DC
  8
0
  6
DOT
 62
     7
 10
143.189875167609
 20
109.639739517945
 30
0.0
 11
127.439875435829
 21
109.639739517945
 31
0.0
  0
LINE
  5
   4DD
  8
0
  6
DOT
 62
     7
 10
143.189875167609
 20
40.3397366926846
 30
0.0
 11
127.439875435829
 21
40.3397366926846
 31
0.0
  0
LINE
  5
   4DE
  8
0
  6
DOT
 62
     7
 10
143.189875167609
 20
36.8397367522892
 30
0.0
 11
127.439875435829
 21
36.8397367522892
 31
0.0
  0
LINE
  5
   4DF
  8
0
  6
DOT
 62
     7
 10
42.2529423835699
 20
104.564734263795
 30
0.0
 11
36.9648889929057
 21
104.564734263795
 31
0.0
  0
LINE
  5
   4E0
  8
0
  6
DOT
 62
     7
 10
36.9648889929057
 20
55.5647364334044
 30
0.0
 11
36.9648889929057
 21
104.564734263795
 31
0.0
  0
LINE
  5
   4E1
  8
0
  6
DOT
 62
     7
 10
42.7399162650104
 20
55.5647364334044
 30
0.0
 11
36.9648889929057
 21
55.5647364334044
 31
0.0
  0
LINE
  5
   4E2
  8
0
  6
CONTINUOUS
 62
     3
 10
65.370671395116
 20
17.8798040040525
 30
0.0
 11
46.7375751355101
 21
17.8798040040525
 31
0.0
  0
LINE
  5
   4E3
  8
0
  6
CONTINUOUS
 62
     7
 10
120.264875558019
 20
55.3897377715287
 30
0.0
 11
116.064875629545
 21
55.3897377715287
 31
0.0
  0
LINE
  5
   4E4
  8
0
  6
CONTINUOUS
 62
     7
 10
120.264875558019
 20
52.5897378192124
 30
0.0
 11
116.064875629545
 21
52.5897378192124
 31
0.0
  0
LINE
  5
   4E5
  8
0
  6
CONTINUOUS
 62
     7
 10
120.264875558019
 20
52.5897378192124
 30
0.0
 11
120.264875558019
 21
55.3897377715287
 31
0.0
  0
LINE
  5
   4E6
  8
0
  6
CONTINUOUS
 62
     7
 10
120.264875558019
 20
97.3897343859849
 30
0.0
 11
116.064875629545
 21
97.3897343859849
 31
0.0
  0
LINE
  5
   4E7
  8
0
  6
CONTINUOUS
 62
     7
 10
120.264875558019
 20
94.5897344336686
 30
0.0
 11
116.064875629545
 21
94.5897344336686
 31
0.0
  0
LINE
  5
   4E8
  8
0
  6
CONTINUOUS
 62
     7
 10
120.264875558019
 20
94.5897344336686
 30
0.0
 11
120.264875558019
 21
97.3897343859849
 31
0.0
  0
CIRCLE
  5
   4E9
  8
0
  6
CONTINUOUS
 62
     7
 10
118.181456551329
 20
53.826939603774
 30
0.0
 40
0.139999997615814
  0
LINE
  5
   4EA
  8
0
  6
CONTINUOUS
 62
   130
 10
97.6898678809406
 20
166.514719343185
 30
0.0
 11
96.8148682296278
 21
166.514719343185
 31
0.0
  0
LINE
  5
   4EB
  8
0
  6
CONTINUOUS
 62
   130
 10
97.6898678809406
 20
163.014714062214
 30
0.0
 11
96.8148682296278
 21
163.014714062214
 31
0.0
  0
LINE
  5
   4EC
  8
0
  6
CONTINUOUS
 62
   130
 10
97.6898678809406
 20
163.014714062214
 30
0.0
 11
97.6898678809406
 21
163.482548526903
 31
0.0
  0
LINE
  5
   4ED
  8
0
  6
CONTINUOUS
 62
   130
 10
97.6898678809406
 20
163.482580570359
 30
0.0
 11
97.6898678809406
 21
164.087422173829
 31
0.0
  0
LINE
  5
   4EE
  8
0
  6
CONTINUOUS
 62
   130
 10
97.6898678809406
 20
164.087464898437
 30
0.0
 11
97.6898678809406
 21
166.514719009399
 31
0.0
  0
LINE
  5
   4EF
  8
0
  6
CONTINUOUS
 62
   130
 10
96.8148682282589
 20
157.939714155384
 30
0.0
 11
97.1648682223025
 21
157.93971949596
 31
0.0
  0
LINE
  5
   4F0
  8
0
  6
CONTINUOUS
 62
   130
 10
96.8148681758218
 20
157.939704611608
 30
0.0
 11
96.8148688642553
 21
158.150470446526
 31
0.0
  0
LINE
  5
   4F1
  8
0
  6
CONTINUOUS
 62
   130
 10
96.8148682296278
 20
157.939714148641
 30
0.0
 11
96.8148682296278
 21
171.064708584545
 31
0.0
  0
LINE
  5
   4F2
  8
0
  6
CONTINUOUS
 62
     3
 10
62.1648901820194
 20
113.769714900851
 30
0.0
 11
62.1648901820194
 21
161.614698064328
 31
0.0
  0
LINE
  5
   4F3
  8
0
  6
CONTINUOUS
 62
     3
 10
97.1648682236673
 20
120.833992891505
 30
0.0
 11
97.1648682236673
 21
156.893484415825
 31
0.0
  0
LINE
  5
   4F4
  8
0
  6
CONTINUOUS
 62
     3
 10
63.9148901522171
 20
161.614714086056
 30
0.0
 11
62.1648901820194
 21
161.614714086056
 31
0.0
  0
LINE
  5
   4F5
  8
0
  6
CONTINUOUS
 62
   130
 10
97.1648682236673
 20
156.893484415825
 30
0.0
 11
97.1648682236673
 21
157.939719489217
 31
0.0
  0
LINE
  5
   4F6
  8
0
  6
CONTINUOUS
 62
     7
 10
96.8148682296278
 20
171.064708584545
 30
0.0
 11
62.6023901745688
 21
171.064708584545
 31
0.0
  0
LINE
  5
   4F7
  8
0
  6
CONTINUOUS
 62
     7
 10
62.1648901820194
 20
162.069714078307
 30
0.0
 11
62.1648901820194
 21
170.627208591996
 31
0.0
  0
ARC
  5
   4F8
  8
0
  6
CONTINUOUS
 62
     7
 10
62.6023901745688
 20
170.627208591996
 30
0.0
 40
0.437499992549419
 50
449.999999948034
 51
539.999999948034
  0
LINE
  5
   4F9
  8
0
  6
CONTINUOUS
 62
     7
 10
62.5148901760589
 20
161.614714086056
 30
0.0
 11
62.5148901760589
 21
162.069714078307
 31
0.0
  0
LINE
  5
   4FA
  8
0
  6
CONTINUOUS
 62
     7
 10
62.5148901760589
 20
162.069714078307
 30
0.0
 11
62.1648901820194
 21
162.069714078307
 31
0.0
  0
LINE
  5
   4FB
  8
0
  6
CONTINUOUS
 62
     7
 10
96.8148682296278
 20
169.314708614347
 30
0.0
 11
63.9148901522171
 21
169.314708614347
 31
0.0
  0
LINE
  5
   4FC
  8
0
  6
CONTINUOUS
 62
     7
 10
63.9148901522171
 20
113.419709566234
 30
0.0
 11
63.9148901522171
 21
161.614714086056
 31
0.0
  0
LINE
  5
   4FD
  8
0
  6
CONTINUOUS
 62
     7
 10
64.0898901492368
 20
101.939734308499
 30
0.0
 11
64.0898901492368
 21
121.88970942199
 31
0.0
  0
LINE
  5
   4FE
  8
0
  6
CONTINUOUS
 62
     7
 10
96.8148682296278
 20
169.139708617328
 30
0.0
 11
64.0898901492368
 21
169.139708617328
 31
0.0
  0
LINE
  5
   4FF
  8
0
  6
CONTINUOUS
 62
     7
 10
63.9148901522171
 20
161.71970874369
 30
0.0
 11
62.5148901760589
 21
161.71970874369
 31
0.0
  0
LINE
  5
   500
  8
0
  6
CONTINUOUS
 62
     7
 10
63.914892539382
 20
113.419709566234
 30
0.0
 11
62.5148901760589
 21
113.419709566234
 31
0.0
  0
LINE
  5
   501
  8
0
  6
CONTINUOUS
 62
     7
 10
62.5148901760589
 20
113.769709560273
 30
0.0
 11
62.1648925691843
 21
113.769709560273
 31
0.0
  0
LINE
  5
   502
  8
0
  6
CONTINUOUS
 62
     7
 10
62.5148901760589
 20
113.314723433632
 30
0.0
 11
62.5148901760589
 21
113.769714900851
 31
0.0
  0
LINE
  5
   503
  8
0
  6
CONTINUOUS
 62
     7
 10
63.9148901522171
 20
161.71970874369
 30
0.0
 11
63.9148901522171
 21
169.314708614347
 31
0.0
  0
LINE
  5
   504
  8
0
  6
CONTINUOUS
 62
     7
 10
97.1648682236673
 20
121.88970942199
 30
0.0
 11
64.0898901492368
 21
121.88970942199
 31
0.0
  0
LINE
  5
   505
  8
0
  6
CONTINUOUS
 62
     7
 10
97.1648682236673
 20
122.06470941901
 30
0.0
 11
64.0898901492368
 21
122.06470941901
 31
0.0
  0
LINE
  5
   506
  8
0
  6
CONTINUOUS
 62
     7
 10
64.0898901492368
 20
122.06470941901
 30
0.0
 11
64.0898901492368
 21
169.139708617328
 31
0.0
  0
LINE
  5
   507
  8
0
  6
CONTINUOUS
 62
     3
 10
70.9148924201727
 20
124.514709377287
 30
0.0
 11
69.8648924380541
 21
124.514709377287
 31
0.0
  0
LINE
  5
   508
  8
0
  6
CONTINUOUS
 62
     3
 10
70.9148924201727
 20
160.914708757399
 30
0.0
 11
69.8648924380541
 21
160.914708757399
 31
0.0
  0
LINE
  5
   509
  8
0
  6
CONTINUOUS
 62
     3
 10
69.8648924380541
 20
122.06470941901
 30
0.0
 11
69.8648924380541
 21
124.514709377287
 31
0.0
  0
LINE
  5
   50A
  8
0
  6
CONTINUOUS
 62
     3
 10
70.9148924201727
 20
124.514709377287
 30
0.0
 11
70.9148924201727
 21
160.914708757399
 31
0.0
  0
LINE
  5
   50B
  8
0
  6
CONTINUOUS
 62
     3
 10
69.8648924380541
 20
160.914708757399
 30
0.0
 11
69.8648924380541
 21
169.314708614347
 31
0.0
  0
INSERT
  5
   50C
  8
0
  6
CONTINUOUS
 62
     7
  2
*UDIM1956
 10
0.0
 20
0.0
 30
0.0
  0
INSERT
  5
   50D
  8
0
  6
CONTINUOUS
 62
     7
  2
*UDIM1957
 10
0.0
 20
0.0
 30
0.0
  0
INSERT
  5
   50E
  8
0
  6
CONTINUOUS
 62
     7
  2
*UDIM1958
 10
0.0
 20
0.0
 30
0.0
  0
TEXT
  5
   50F
  8
0
  6
CONTINUOUS
 62
     1
 10
48.6838457958394
 20
14.9654489316409
 30
0.0
 40
2.00000003448554
  1
ISOLATING DISTANCE
 50
359.999999948034
 41
0.749999888539317
 72
     1
 11
62.0338440444818
 21
15.9654489368427
 31
0.0
 73
     2
  0
TEXT
  5
   510
  8
0
  6
CONTINUOUS
 62
     1
 10
50.4093367056223
 20
18.7587822580741
 30
0.0
 40
2.00000003448554
  1
CORSA DI
 50
359.999999948034
 41
0.749999888539317
  0
TEXT
  5
   511
  8
0
  6
CONTINUOUS
 62
     1
 10
62.4093351239917
 20
18.7587815730021
 30
0.0
 40
2.00000003448554
  1
 SEZIONAMENTO
 50
359.999999948034
 41
0.749999888539317
  0
INSERT
  5
   512
  8
0
  6
CONTINUOUS
 62
     7
  2
*UDIM1959
 10
0.0
 20
0.0
 30
0.0
  0
INSERT
  5
   513
  8
0
  6
CONTINUOUS
 62
     7
  2
*UDIM1960
 10
0.0
 20
0.0
 30
0.0
  0
INSERT
  5
   514
  8
0
  6
CONTINUOUS
 62
     7
  2
*UDIM1961
 10
0.0
 20
0.0
 30
0.0
  0
INSERT
  5
   515
  8
0
  6
CONTINUOUS
 62
     7
  2
*UDIM1962
 10
0.0
 20
0.0
 30
0.0
  0
INSERT
  5
   516
  8
0
  6
CONTINUOUS
 62
     7
  2
*UDIM1963
 10
0.0
 20
0.0
 30
0.0
  0
INSERT
  5
   517
  8
0
  6
CONTINUOUS
 62
     7
  2
*UDIM1964
 10
0.0
 20
0.0
 30
0.0
  0
INSERT
  5
   518
  8
0
  6
CONTINUOUS
 62
     7
  2
*UDIM1965
 10
0.0
 20
0.0
 30
0.0
  0
INSERT
  5
   519
  8
0
  6
CONTINUOUS
 62
     7
  2
*UDIM1966
 10
0.0
 20
0.0
 30
0.0
  0
INSERT
  5
   51A
  8
0
  6
CONTINUOUS
 62
     7
  2
*UDIM1967
 10
0.0
 20
0.0
 30
0.0
  0
INSERT
  5
   51B
  8
0
  6
CONTINUOUS
 62
     7
  2
*UDIM1968
 10
0.0
 20
0.0
 30
0.0
  0
INSERT
  5
   51C
  8
0
  6
CONTINUOUS
 62
     7
  2
*UDIM1969
 10
0.0
 20
0.0
 30
0.0
  0
INSERT
  5
   51D
  8
0
  6
CONTINUOUS
 62
     7
  2
*UDIM1970
 10
0.0
 20
0.0
 30
0.0
  0
INSERT
  5
   51E
  8
0
  6
CONTINUOUS
 62
     7
  2
*UDIM1971
 10
0.0
 20
0.0
 30
0.0
  0
INSERT
  5
   51F
  8
0
  6
CONTINUOUS
 62
     7
  2
*UDIM1972
 10
0.0
 20
0.0
 30
0.0
  0
TEXT
  5
   520
  8
0
  6
CONTINUOUS
 62
     7
 10
151.362693913883
 20
81.0101475645816
 30
0.0
 40
2.99999997871263
  1
X
 50
359.999999948034
 41
0.91666663951344
 72
     2
 11
153.562693849595
 21
81.0101475625973
 31
0.0
  0
TEXT
  5
   521
  8
0
  6
CONTINUOUS
 62
     7
 10
39.1493531582392
 20
80.4964241999172
 30
0.0
 40
2.99999997871263
  1
X
 50
359.999999948034
 41
0.91666663951344
 72
     2
 11
41.3493530939513
 21
80.4964241979329
 31
0.0
  0
INSERT
  5
   522
  8
0
  6
CONTINUOUS
 62
     7
  2
*UDIM1973
 10
0.0
 20
0.0
 30
0.0
  0
INSERT
  5
   523
  8
0
  6
CONTINUOUS
 62
     7
  2
*UDIM1974
 10
0.0
 20
0.0
 30
0.0
  0
LINE
  5
   524
  8
0
  6
CONTINUOUS
 62
     1
 10
202.400464310392
 20
113.769709178803
 30
0.0
 11
202.400464310392
 21
161.54470874667
 31
0.0
  0
LINE
  5
   525
  8
0
  6
CONTINUOUS
 62
     1
 10
201.140464532122
 20
113.769709178803
 30
0.0
 11
201.140464532122
 21
161.54470874667
 31
0.0
  0
LINE
  5
   526
  8
0
  6
CONTINUOUS
 62
     1
 10
199.880464753851
 20
113.769709178803
 30
0.0
 11
199.880464753851
 21
161.54470874667
 31
0.0
  0
LINE
  5
   527
  8
0
  6
CONTINUOUS
 62
     1
 10
198.62046497558
 20
113.769709178803
 30
0.0
 11
198.62046497558
 21
161.54470874667
 31
0.0
  0
LINE
  5
   528
  8
0
  6
CONTINUOUS
 62
     1
 10
197.360465197309
 20
113.769709178803
 30
0.0
 11
197.360465197309
 21
161.54470874667
 31
0.0
  0
LINE
  5
   529
  8
0
  6
CONTINUOUS
 62
     1
 10
196.100465419039
 20
113.769709178803
 30
0.0
 11
196.100465419039
 21
161.54470874667
 31
0.0
  0
LINE
  5
   52A
  8
0
  6
CONTINUOUS
 62
     1
 10
194.840465640768
 20
113.769709178803
 30
0.0
 11
194.840465640768
 21
161.54470874667
 31
0.0
  0
LINE
  5
   52B
  8
0
  6
CONTINUOUS
 62
     1
 10
193.580465862497
 20
113.769709178803
 30
0.0
 11
193.580465862497
 21
161.54470874667
 31
0.0
  0
LINE
  5
   52C
  8
0
  6
CONTINUOUS
 62
     1
 10
192.320466084226
 20
113.769709178803
 30
0.0
 11
192.320466084226
 21
161.54470874667
 31
0.0
  0
LINE
  5
   52D
  8
0
  6
CONTINUOUS
 62
     1
 10
191.060466305956
 20
113.769709178803
 30
0.0
 11
191.060466305956
 21
161.54470874667
 31
0.0
  0
LINE
  5
   52E
  8
0
  6
CONTINUOUS
 62
     1
 10
189.800466527685
 20
113.769709178803
 30
0.0
 11
189.800466527685
 21
161.54470874667
 31
0.0
  0
LINE
  5
   52F
  8
0
  6
CONTINUOUS
 62
     1
 10
188.540466749414
 20
113.769709178803
 30
0.0
 11
188.540466749414
 21
161.54470874667
 31
0.0
  0
LINE
  5
   530
  8
0
  6
CONTINUOUS
 62
     1
 10
187.280466971144
 20
113.769709178803
 30
0.0
 11
187.280466971144
 21
161.54470874667
 31
0.0
  0
LINE
  5
   531
  8
0
  6
CONTINUOUS
 62
     1
 10
186.020467192873
 20
113.769709178803
 30
0.0
 11
186.020467192873
 21
161.54470874667
 31
0.0
  0
LINE
  5
   532
  8
0
  6
CONTINUOUS
 62
     1
 10
184.760467414602
 20
113.769709178803
 30
0.0
 11
184.760467414602
 21
161.54470874667
 31
0.0
  0
LINE
  5
   533
  8
0
  6
CONTINUOUS
 62
     1
 10
183.500467636331
 20
113.769709178803
 30
0.0
 11
183.500467636331
 21
161.54470874667
 31
0.0
  0
LINE
  5
   534
  8
0
  6
CONTINUOUS
 62
     1
 10
182.240467858061
 20
113.769709178803
 30
0.0
 11
182.240467858061
 21
161.54470874667
 31
0.0
  0
LINE
  5
   535
  8
0
  6
CONTINUOUS
 62
     1
 10
202.400464310392
 20
96.4271986232632
 30
0.0
 11
202.400464310392
 21
113.314703676247
 31
0.0
  0
LINE
  5
   536
  8
0
  6
CONTINUOUS
 62
     1
 10
201.140464532122
 20
96.4271986232632
 30
0.0
 11
201.140464532122
 21
113.314703676247
 31
0.0
  0
LINE
  5
   537
  8
0
  6
CONTINUOUS
 62
     1
 10
199.880464753851
 20
96.4271986232632
 30
0.0
 11
199.880464753851
 21
113.244709569214
 31
0.0
  0
LINE
  5
   538
  8
0
  6
CONTINUOUS
 62
     1
 10
198.62046497558
 20
96.4271986232632
 30
0.0
 11
198.62046497558
 21
113.244709569214
 31
0.0
  0
LINE
  5
   539
  8
0
  6
CONTINUOUS
 62
     1
 10
197.360465197309
 20
96.4271986232632
 30
0.0
 11
197.360465197309
 21
113.244709569214
 31
0.0
  0
LINE
  5
   53A
  8
0
  6
CONTINUOUS
 62
     1
 10
196.100465419039
 20
96.4271986232632
 30
0.0
 11
196.100465419039
 21
113.244709569214
 31
0.0
  0
LINE
  5
   53B
  8
0
  6
CONTINUOUS
 62
     1
 10
194.840465640768
 20
96.4271986232632
 30
0.0
 11
194.840465640768
 21
113.244709569214
 31
0.0
  0
LINE
  5
   53C
  8
0
  6
CONTINUOUS
 62
     1
 10
193.580465862497
 20
96.4271986232632
 30
0.0
 11
193.580465862497
 21
113.244709569214
 31
0.0
  0
LINE
  5
   53D
  8
0
  6
CONTINUOUS
 62
     1
 10
192.320466084226
 20
96.4271986232632
 30
0.0
 11
192.320466084226
 21
113.244709569214
 31
0.0
  0
LINE
  5
   53E
  8
0
  6
CONTINUOUS
 62
     1
 10
191.060466305956
 20
96.4271986232632
 30
0.0
 11
191.060466305956
 21
113.244709569214
 31
0.0
  0
LINE
  5
   53F
  8
0
  6
CONTINUOUS
 62
     1
 10
189.800466527685
 20
96.4271986232632
 30
0.0
 11
189.800466527685
 21
113.244709569214
 31
0.0
  0
LINE
  5
   540
  8
0
  6
CONTINUOUS
 62
     1
 10
188.540466749414
 20
96.4271986232632
 30
0.0
 11
188.540466749414
 21
113.244709569214
 31
0.0
  0
LINE
  5
   541
  8
0
  6
CONTINUOUS
 62
     1
 10
187.280466971144
 20
96.4271986232632
 30
0.0
 11
187.280466971144
 21
113.244709569214
 31
0.0
  0
LINE
  5
   542
  8
0
  6
CONTINUOUS
 62
     1
 10
186.020467192873
 20
96.4271986232632
 30
0.0
 11
186.020467192873
 21
113.244709569214
 31
0.0
  0
LINE
  5
   543
  8
0
  6
CONTINUOUS
 62
     1
 10
184.760467414602
 20
96.4271986232632
 30
0.0
 11
184.760467414602
 21
113.244709569214
 31
0.0
  0
LINE
  5
   544
  8
0
  6
CONTINUOUS
 62
     1
 10
183.500467636331
 20
96.4271986232632
 30
0.0
 11
183.500467636331
 21
113.244709569214
 31
0.0
  0
LINE
  5
   545
  8
0
  6
CONTINUOUS
 62
     1
 10
182.240467858061
 20
96.4271986232632
 30
0.0
 11
182.240467858061
 21
113.244709569214
 31
0.0
  0
LINE
  5
   546
  8
0
  6
CONTINUOUS
 62
     1
 10
202.400464310392
 20
59.677199249112
 30
0.0
 11
202.400464310392
 21
96.4271986232632
 31
0.0
  0
LINE
  5
   547
  8
0
  6
CONTINUOUS
 62
     1
 10
201.140464532122
 20
59.677199249112
 30
0.0
 11
201.140464532122
 21
96.4271986232632
 31
0.0
  0
LINE
  5
   548
  8
0
  6
CONTINUOUS
 62
     1
 10
199.880464753851
 20
59.677199249112
 30
0.0
 11
199.880464753851
 21
96.4271986232632
 31
0.0
  0
LINE
  5
   549
  8
0
  6
CONTINUOUS
 62
     1
 10
198.62046497558
 20
59.677199249112
 30
0.0
 11
198.62046497558
 21
96.4271986232632
 31
0.0
  0
LINE
  5
   54A
  8
0
  6
CONTINUOUS
 62
     1
 10
197.360465197309
 20
59.677199249112
 30
0.0
 11
197.360465197309
 21
96.4271986232632
 31
0.0
  0
LINE
  5
   54B
  8
0
  6
CONTINUOUS
 62
     1
 10
196.100465419039
 20
59.677199249112
 30
0.0
 11
196.100465419039
 21
96.4271986232632
 31
0.0
  0
LINE
  5
   54C
  8
0
  6
CONTINUOUS
 62
     1
 10
194.840465640768
 20
59.677199249112
 30
0.0
 11
194.840465640768
 21
96.4271986232632
 31
0.0
  0
LINE
  5
   54D
  8
0
  6
CONTINUOUS
 62
     1
 10
193.580465862497
 20
59.677199249112
 30
0.0
 11
193.580465862497
 21
96.4271986232632
 31
0.0
  0
LINE
  5
   54E
  8
0
  6
CONTINUOUS
 62
     1
 10
192.320466084226
 20
59.677199249112
 30
0.0
 11
192.320466084226
 21
96.4271986232632
 31
0.0
  0
LINE
  5
   54F
  8
0
  6
CONTINUOUS
 62
     1
 10
191.060466305956
 20
59.677199249112
 30
0.0
 11
191.060466305956
 21
96.4271986232632
 31
0.0
  0
LINE
  5
   550
  8
0
  6
CONTINUOUS
 62
     1
 10
189.800466527685
 20
59.677199249112
 30
0.0
 11
189.800466527685
 21
96.4271986232632
 31
0.0
  0
LINE
  5
   551
  8
0
  6
CONTINUOUS
 62
     1
 10
188.540466749414
 20
59.677199249112
 30
0.0
 11
188.540466749414
 21
96.4271986232632
 31
0.0
  0
LINE
  5
   552
  8
0
  6
CONTINUOUS
 62
     1
 10
187.280466971144
 20
59.677199249112
 30
0.0
 11
187.280466971144
 21
96.4271986232632
 31
0.0
  0
LINE
  5
   553
  8
0
  6
CONTINUOUS
 62
     1
 10
186.020467192873
 20
59.677199249112
 30
0.0
 11
186.020467192873
 21
96.4271986232632
 31
0.0
  0
LINE
  5
   554
  8
0
  6
CONTINUOUS
 62
     1
 10
184.760467414602
 20
59.677199249112
 30
0.0
 11
184.760467414602
 21
96.4271986232632
 31
0.0
  0
LINE
  5
   555
  8
0
  6
CONTINUOUS
 62
     1
 10
183.500467636331
 20
59.677199249112
 30
0.0
 11
183.500467636331
 21
96.4271986232632
 31
0.0
  0
LINE
  5
   556
  8
0
  6
CONTINUOUS
 62
     1
 10
182.240467858061
 20
59.677199249112
 30
0.0
 11
182.240467858061
 21
96.4271986232632
 31
0.0
  0
LINE
  5
   557
  8
0
  6
CONTINUOUS
 62
     1
 10
202.400464310392
 20
52.0647046984666
 30
0.0
 11
202.400464310392
 21
59.6771992282504
 31
0.0
  0
LINE
  5
   558
  8
0
  6
CONTINUOUS
 62
     1
 10
201.140464532122
 20
52.0647046984666
 30
0.0
 11
201.140464532122
 21
59.6771992282504
 31
0.0
  0
LINE
  5
   559
  8
0
  6
CONTINUOUS
 62
     1
 10
199.880464753851
 20
52.0647046984666
 30
0.0
 11
199.880464753851
 21
59.6771992282504
 31
0.0
  0
LINE
  5
   55A
  8
0
  6
CONTINUOUS
 62
     1
 10
198.62046497558
 20
52.0647046984666
 30
0.0
 11
198.62046497558
 21
59.6771992282504
 31
0.0
  0
LINE
  5
   55B
  8
0
  6
CONTINUOUS
 62
     1
 10
197.360465197309
 20
52.0647046984666
 30
0.0
 11
197.360465197309
 21
59.6771992282504
 31
0.0
  0
LINE
  5
   55C
  8
0
  6
CONTINUOUS
 62
     1
 10
196.100465419039
 20
52.0647046984666
 30
0.0
 11
196.100465419039
 21
59.6771992282504
 31
0.0
  0
LINE
  5
   55D
  8
0
  6
CONTINUOUS
 62
     1
 10
194.840465640768
 20
52.0647046984666
 30
0.0
 11
194.840465640768
 21
59.6771992282504
 31
0.0
  0
LINE
  5
   55E
  8
0
  6
CONTINUOUS
 62
     1
 10
193.580465862497
 20
52.0647046984666
 30
0.0
 11
193.580465862497
 21
59.6771992282504
 31
0.0
  0
LINE
  5
   55F
  8
0
  6
CONTINUOUS
 62
     1
 10
192.320466084226
 20
52.0647046984666
 30
0.0
 11
192.320466084226
 21
59.6771992282504
 31
0.0
  0
LINE
  5
   560
  8
0
  6
CONTINUOUS
 62
     1
 10
191.060466305956
 20
52.0647046984666
 30
0.0
 11
191.060466305956
 21
59.6771992282504
 31
0.0
  0
LINE
  5
   561
  8
0
  6
CONTINUOUS
 62
     1
 10
189.800466527685
 20
52.0647046984666
 30
0.0
 11
189.800466527685
 21
59.6771992282504
 31
0.0
  0
LINE
  5
   562
  8
0
  6
CONTINUOUS
 62
     1
 10
188.540466749414
 20
52.0647046984666
 30
0.0
 11
188.540466749414
 21
59.6771992282504
 31
0.0
  0
LINE
  5
   563
  8
0
  6
CONTINUOUS
 62
     1
 10
187.280466971144
 20
52.0647046984666
 30
0.0
 11
187.280466971144
 21
59.6771992282504
 31
0.0
  0
LINE
  5
   564
  8
0
  6
CONTINUOUS
 62
     1
 10
186.020467192873
 20
52.0647046984666
 30
0.0
 11
186.020467192873
 21
59.6771992282504
 31
0.0
  0
LINE
  5
   565
  8
0
  6
CONTINUOUS
 62
     1
 10
184.760467414602
 20
52.0647046984666
 30
0.0
 11
184.760467414602
 21
59.6771992282504
 31
0.0
  0
LINE
  5
   566
  8
0
  6
CONTINUOUS
 62
     1
 10
183.500467636331
 20
52.0647046984666
 30
0.0
 11
183.500467636331
 21
59.6771992282504
 31
0.0
  0
LINE
  5
   567
  8
0
  6
CONTINUOUS
 62
     1
 10
182.240467858061
 20
52.0647046984666
 30
0.0
 11
182.240467858061
 21
59.6771992282504
 31
0.0
  0
LINE
  5
   568
  8
0
  6
CONTINUOUS
 62
     1
 10
202.400464310392
 20
27.2147247301583
 30
0.0
 11
202.400464310392
 21
35.3347245918755
 31
0.0
  0
LINE
  5
   569
  8
0
  6
CONTINUOUS
 62
     1
 10
201.140464532122
 20
27.2147247301583
 30
0.0
 11
201.140464532122
 21
35.3347245918755
 31
0.0
  0
LINE
  5
   56A
  8
0
  6
CONTINUOUS
 62
     1
 10
199.880464753851
 20
27.2147247301583
 30
0.0
 11
199.880464753851
 21
35.3347245918755
 31
0.0
  0
LINE
  5
   56B
  8
0
  6
CONTINUOUS
 62
     1
 10
198.62046497558
 20
27.2147247301583
 30
0.0
 11
198.62046497558
 21
35.3347245918755
 31
0.0
  0
LINE
  5
   56C
  8
0
  6
CONTINUOUS
 62
     1
 10
197.360465197309
 20
27.2147247301583
 30
0.0
 11
197.360465197309
 21
35.3347245918755
 31
0.0
  0
LINE
  5
   56D
  8
0
  6
CONTINUOUS
 62
     1
 10
196.100465419039
 20
27.2147247301583
 30
0.0
 11
196.100465419039
 21
35.3347245918755
 31
0.0
  0
LINE
  5
   56E
  8
0
  6
CONTINUOUS
 62
     1
 10
194.840465640768
 20
27.2147247301583
 30
0.0
 11
194.840465640768
 21
35.3347245918755
 31
0.0
  0
LINE
  5
   56F
  8
0
  6
CONTINUOUS
 62
     1
 10
193.580465862497
 20
27.2147247301583
 30
0.0
 11
193.580465862497
 21
35.3347245918755
 31
0.0
  0
LINE
  5
   570
  8
0
  6
CONTINUOUS
 62
     1
 10
192.320466084226
 20
27.2147247301583
 30
0.0
 11
192.320466084226
 21
35.3347245918755
 31
0.0
  0
LINE
  5
   571
  8
0
  6
CONTINUOUS
 62
     1
 10
191.060466305956
 20
27.2147247301583
 30
0.0
 11
191.060466305956
 21
35.3347245918755
 31
0.0
  0
LINE
  5
   572
  8
0
  6
CONTINUOUS
 62
     1
 10
189.800466527685
 20
27.2147247301583
 30
0.0
 11
189.800466527685
 21
35.3347245918755
 31
0.0
  0
LINE
  5
   573
  8
0
  6
CONTINUOUS
 62
     1
 10
188.540466749414
 20
27.2147247301583
 30
0.0
 11
188.540466749414
 21
35.3347245918755
 31
0.0
  0
LINE
  5
   574
  8
0
  6
CONTINUOUS
 62
     1
 10
187.280466971144
 20
27.2147247301583
 30
0.0
 11
187.280466971144
 21
35.3347245918755
 31
0.0
  0
LINE
  5
   575
  8
0
  6
CONTINUOUS
 62
     1
 10
186.020467192873
 20
27.2147247301583
 30
0.0
 11
186.020467192873
 21
35.3347245918755
 31
0.0
  0
LINE
  5
   576
  8
0
  6
CONTINUOUS
 62
     1
 10
184.760467414602
 20
27.2147247301583
 30
0.0
 11
184.760467414602
 21
35.3347245918755
 31
0.0
  0
LINE
  5
   577
  8
0
  6
CONTINUOUS
 62
     1
 10
183.500467636331
 20
27.2147247301583
 30
0.0
 11
183.500467636331
 21
35.3347245918755
 31
0.0
  0
LINE
  5
   578
  8
0
  6
CONTINUOUS
 62
     1
 10
182.240467858061
 20
27.2147247301583
 30
0.0
 11
182.240467858061
 21
35.3347245918755
 31
0.0
  0
LINE
  5
   579
  8
0
  6
CONTINUOUS
 62
     3
 10
186.650466981872
 20
115.06470915675
 30
0.0
 11
186.650466981872
 21
119.264709085224
 31
0.0
  0
LINE
  5
   57A
  8
0
  6
CONTINUOUS
 62
     3
 10
186.650466981872
 20
119.264709085224
 30
0.0
 11
187.280466971144
 21
119.264709085224
 31
0.0
  0
LINE
  5
   57B
  8
0
  6
CONTINUOUS
 62
     3
 10
186.650466981872
 20
115.06470915675
 30
0.0
 11
187.280466971144
 21
115.06470915675
 31
0.0
  0
LINE
  5
   57C
  8
0
  6
CONTINUOUS
 62
     3
 10
187.910466960415
 20
115.06470915675
 30
0.0
 11
188.540466949686
 21
115.06470915675
 31
0.0
  0
LINE
  5
   57D
  8
0
  6
CONTINUOUS
 62
     3
 10
187.910466960415
 20
115.06470915675
 30
0.0
 11
187.910466960415
 21
119.264709085224
 31
0.0
  0
LINE
  5
   57E
  8
0
  6
CONTINUOUS
 62
     3
 10
187.910466960415
 20
119.264709085224
 30
0.0
 11
188.540466949686
 21
119.264709085224
 31
0.0
  0
LINE
  5
   57F
  8
0
  6
CONTINUOUS
 62
     3
 10
189.170466938957
 20
119.264709085224
 30
0.0
 11
189.800466928228
 21
119.264709085224
 31
0.0
  0
LINE
  5
   580
  8
0
  6
CONTINUOUS
 62
     3
 10
189.170466938957
 20
115.06470915675
 30
0.0
 11
189.170466938957
 21
119.264709085224
 31
0.0
  0
LINE
  5
   581
  8
0
  6
CONTINUOUS
 62
     3
 10
189.170466938957
 20
115.06470915675
 30
0.0
 11
189.800466928228
 21
115.06470915675
 31
0.0
  0
LINE
  5
   582
  8
0
  6
CONTINUOUS
 62
     3
 10
190.430466917499
 20
115.06470915675
 30
0.0
 11
191.060466906771
 21
115.06470915675
 31
0.0
  0
LINE
  5
   583
  8
0
  6
CONTINUOUS
 62
     3
 10
190.430466917499
 20
115.06470915675
 30
0.0
 11
190.430466917499
 21
119.264709085224
 31
0.0
  0
LINE
  5
   584
  8
0
  6
CONTINUOUS
 62
     3
 10
190.430466917499
 20
119.264709085224
 30
0.0
 11
191.060466906771
 21
119.264709085224
 31
0.0
  0
LINE
  5
   585
  8
0
  6
CONTINUOUS
 62
     3
 10
191.690466896042
 20
118.039709106086
 30
0.0
 11
192.320466885313
 21
118.039709106086
 31
0.0
  0
LINE
  5
   586
  8
0
  6
CONTINUOUS
 62
     3
 10
191.690466896042
 20
115.06470915675
 30
0.0
 11
191.690466896042
 21
118.039709106086
 31
0.0
  0
LINE
  5
   587
  8
0
  6
CONTINUOUS
 62
     3
 10
191.690466896042
 20
115.06470915675
 30
0.0
 11
192.320466885313
 21
115.06470915675
 31
0.0
  0
LINE
  5
   588
  8
0
  6
CONTINUOUS
 62
     3
 10
192.950466874584
 20
115.06470915675
 30
0.0
 11
193.580466863855
 21
115.06470915675
 31
0.0
  0
LINE
  5
   589
  8
0
  6
CONTINUOUS
 62
     3
 10
192.950466874584
 20
115.06470915675
 30
0.0
 11
192.950466874584
 21
118.039709106086
 31
0.0
  0
LINE
  5
   58A
  8
0
  6
CONTINUOUS
 62
     3
 10
192.950466874584
 20
118.039709106086
 30
0.0
 11
193.580466863855
 21
118.039709106086
 31
0.0
  0
LINE
  5
   58B
  8
0
  6
CONTINUOUS
 62
     3
 10
194.210466853126
 20
119.264709085224
 30
0.0
 11
194.840466842398
 21
119.264709085224
 31
0.0
  0
LINE
  5
   58C
  8
0
  6
CONTINUOUS
 62
     3
 10
194.210466853126
 20
115.06470915675
 30
0.0
 11
194.210466853126
 21
119.264709085224
 31
0.0
  0
LINE
  5
   58D
  8
0
  6
CONTINUOUS
 62
     3
 10
194.210466853126
 20
115.06470915675
 30
0.0
 11
194.840466842398
 21
115.06470915675
 31
0.0
  0
LINE
  5
   58E
  8
0
  6
CONTINUOUS
 62
     3
 10
195.470466831669
 20
119.264709085224
 30
0.0
 11
196.10046682094
 21
119.264709085224
 31
0.0
  0
LINE
  5
   58F
  8
0
  6
CONTINUOUS
 62
     3
 10
195.470466831669
 20
115.06470915675
 30
0.0
 11
195.470466831669
 21
119.264709085224
 31
0.0
  0
LINE
  5
   590
  8
0
  6
CONTINUOUS
 62
     3
 10
195.470466831669
 20
115.06470915675
 30
0.0
 11
196.10046682094
 21
115.06470915675
 31
0.0
  0
LINE
  5
   591
  8
0
  6
CONTINUOUS
 62
     3
 10
196.730466810211
 20
119.264709085224
 30
0.0
 11
197.360466799482
 21
119.264709085224
 31
0.0
  0
LINE
  5
   592
  8
0
  6
CONTINUOUS
 62
     3
 10
196.730466810211
 20
115.06470915675
 30
0.0
 11
196.730466810211
 21
119.264709085224
 31
0.0
  0
LINE
  5
   593
  8
0
  6
CONTINUOUS
 62
     3
 10
196.730466810211
 20
115.06470915675
 30
0.0
 11
197.360466799482
 21
115.06470915675
 31
0.0
  0
LINE
  5
   594
  8
0
  6
CONTINUOUS
 62
     3
 10
197.990466788753
 20
119.264709085224
 30
0.0
 11
198.620466778025
 21
119.264709085224
 31
0.0
  0
LINE
  5
   595
  8
0
  6
CONTINUOUS
 62
     3
 10
197.990466788753
 20
115.06470915675
 30
0.0
 11
197.990466788753
 21
119.264709085224
 31
0.0
  0
LINE
  5
   596
  8
0
  6
CONTINUOUS
 62
     3
 10
197.990466788753
 20
115.06470915675
 30
0.0
 11
198.620466778025
 21
115.06470915675
 31
0.0
  0
LINE
  5
   597
  8
0
  6
CONTINUOUS
 62
     3
 10
180.560464127406
 20
51.7147047252887
 30
0.0
 11
180.560464127406
 21
52.0647046984666
 31
0.0
  0
LINE
  5
   598
  8
0
  6
CONTINUOUS
 62
     3
 10
180.560464148268
 20
113.244709569214
 30
0.0
 11
180.560464148268
 21
113.769709178803
 31
0.0
  0
LINE
  5
   599
  8
0
  6
CONTINUOUS
 62
     3
 10
180.122964155718
 20
27.6522247227077
 30
0.0
 11
180.122964155718
 21
51.7147047252887
 31
0.0
  0
LINE
  5
   59A
  8
0
  6
CONTINUOUS
 62
     3
 10
180.122964155718
 20
113.769709178803
 30
0.0
 11
180.122964155718
 21
170.627208591996
 31
0.0
  0
LINE
  5
   59B
  8
0
  6
CONTINUOUS
 62
     3
 10
180.122964155718
 20
52.0647046984666
 30
0.0
 11
180.122964155718
 21
113.244709569214
 31
0.0
  0
LINE
  5
   59C
  8
0
  6
CONTINUOUS
 62
     3
 10
180.122964155718
 20
113.769709178803
 30
0.0
 11
180.560464148268
 21
113.769709178803
 31
0.0
  0
LINE
  5
   59D
  8
0
  6
CONTINUOUS
 62
     3
 10
180.122964155718
 20
52.0647046984666
 30
0.0
 11
180.560464127406
 21
52.0647046984666
 31
0.0
  0
LINE
  5
   59E
  8
0
  6
CONTINUOUS
 62
     3
 10
180.122964155718
 20
51.7147047252887
 30
0.0
 11
180.560464127406
 21
51.7147047252887
 31
0.0
  0
LINE
  5
   59F
  8
0
  6
CONTINUOUS
 62
     1
 10
180.980467879518
 20
113.769709178803
 30
0.0
 11
180.980467879518
 21
161.54470874667
 31
0.0
  0
LINE
  5
   5A0
  8
0
  6
CONTINUOUS
 62
     1
 10
180.980467879518
 20
96.4271986232632
 30
0.0
 11
180.980467879518
 21
113.244709569214
 31
0.0
  0
LINE
  5
   5A1
  8
0
  6
CONTINUOUS
 62
     1
 10
180.980467879518
 20
59.677199249112
 30
0.0
 11
180.980467879518
 21
96.4271986232632
 31
0.0
  0
LINE
  5
   5A2
  8
0
  6
CONTINUOUS
 62
     1
 10
180.980467879518
 20
52.0647046984666
 30
0.0
 11
180.980467879518
 21
59.6771992282504
 31
0.0
  0
LINE
  5
   5A3
  8
0
  6
CONTINUOUS
 62
     1
 10
180.980467879518
 20
27.2147247301583
 30
0.0
 11
180.980467879518
 21
35.3347245918755
 31
0.0
  0
LINE
  5
   5A4
  8
0
  6
CONTINUOUS
 62
     1
 10
180.560464127406
 20
51.7147243129424
 30
0.0
 11
207.772917968901
 21
51.7147243129424
 31
0.0
  0
LINE
  5
   5A5
  8
0
  6
CONTINUOUS
 62
     1
 10
180.560464127406
 20
52.0647242861203
 30
0.0
 11
207.772917968901
 21
52.0647242861203
 31
0.0
  0
LINE
  5
   5A6
  8
0
  6
CONTINUOUS
 62
     1
 10
276.565421820391
 20
114.364735686896
 30
0.0
 11
276.565421820391
 21
161.54470874667
 31
0.0
  0
LINE
  5
   5A7
  8
0
  6
CONTINUOUS
 62
     1
 10
277.370422874797
 20
114.364735686896
 30
0.0
 11
277.370422874797
 21
161.54470874667
 31
0.0
  0
LINE
  5
   5A8
  8
0
  6
CONTINUOUS
 62
     1
 10
271.525424042452
 20
114.364735686896
 30
0.0
 11
271.525424042452
 21
161.54470874667
 31
0.0
  0
LINE
  5
   5A9
  8
0
  6
CONTINUOUS
 62
     1
 10
272.785420816649
 20
114.364735686896
 30
0.0
 11
272.785420816649
 21
161.54470874667
 31
0.0
  0
LINE
  5
   5AA
  8
0
  6
CONTINUOUS
 62
     1
 10
274.045422931422
 20
114.364735686896
 30
0.0
 11
274.045422931422
 21
161.54470874667
 31
0.0
  0
LINE
  5
   5AB
  8
0
  6
CONTINUOUS
 62
     1
 10
275.305425046195
 20
114.364735686896
 30
0.0
 11
275.305425046195
 21
161.54470874667
 31
0.0
  0
LINE
  5
   5AC
  8
0
  6
CONTINUOUS
 62
     1
 10
267.74542303871
 20
114.364735686896
 30
0.0
 11
267.74542303871
 21
161.54470874667
 31
0.0
  0
LINE
  5
   5AD
  8
0
  6
CONTINUOUS
 62
     1
 10
269.005425153483
 20
114.364735686896
 30
0.0
 11
269.005425153483
 21
161.54470874667
 31
0.0
  0
LINE
  5
   5AE
  8
0
  6
CONTINUOUS
 62
     1
 10
270.265421927679
 20
114.364735686896
 30
0.0
 11
270.265421927679
 21
161.54470874667
 31
0.0
  0
LINE
  5
   5AF
  8
0
  6
CONTINUOUS
 62
     1
 10
206.180427224744
 20
96.427218210917
 30
0.0
 11
206.180427224744
 21
113.244709569214
 31
0.0
  0
LINE
  5
   5B0
  8
0
  6
CONTINUOUS
 62
     1
 10
211.220424001325
 20
114.364735686896
 30
0.0
 11
211.220424001325
 21
161.54470874667
 31
0.0
  0
LINE
  5
   5B1
  8
0
  6
CONTINUOUS
 62
     1
 10
209.960427227128
 20
114.364735686896
 30
0.0
 11
209.960427227128
 21
161.54470874667
 31
0.0
  0
LINE
  5
   5B2
  8
0
  6
CONTINUOUS
 62
     1
 10
207.440427003015
 20
96.427218210917
 30
0.0
 11
207.440427003015
 21
113.244709569214
 31
0.0
  0
LINE
  5
   5B3
  8
0
  6
CONTINUOUS
 62
     1
 10
216.26042711984
 20
114.364735686896
 30
0.0
 11
216.26042711984
 21
161.54470874667
 31
0.0
  0
LINE
  5
   5B4
  8
0
  6
CONTINUOUS
 62
     1
 10
215.000425005067
 20
114.364735686896
 30
0.0
 11
215.000425005067
 21
161.54470874667
 31
0.0
  0
LINE
  5
   5B5
  8
0
  6
CONTINUOUS
 62
     1
 10
213.740422890295
 20
114.364735686896
 30
0.0
 11
213.740422890295
 21
161.54470874667
 31
0.0
  0
LINE
  5
   5B6
  8
0
  6
CONTINUOUS
 62
     1
 10
212.480426116098
 20
114.364735686896
 30
0.0
 11
212.480426116098
 21
161.54470874667
 31
0.0
  0
LINE
  5
   5B7
  8
0
  6
CONTINUOUS
 62
     1
 10
207.440427003015
 20
59.6772188367657
 30
0.0
 11
207.440427003015
 21
96.427218210917
 31
0.0
  0
LINE
  5
   5B8
  8
0
  6
CONTINUOUS
 62
     1
 10
206.180427224744
 20
59.6772188367657
 30
0.0
 11
206.180427224744
 21
96.427218210917
 31
0.0
  0
LINE
  5
   5B9
  8
0
  6
CONTINUOUS
 62
     1
 10
206.180427224744
 20
52.0647242861203
 30
0.0
 11
206.180427224744
 21
59.6772188159041
 31
0.0
  0
LINE
  5
   5BA
  8
0
  6
CONTINUOUS
 62
     1
 10
207.440427003015
 20
52.0647242861203
 30
0.0
 11
207.440427003015
 21
59.6772188159041
 31
0.0
  0
LINE
  5
   5BB
  8
0
  6
CONTINUOUS
 62
     1
 10
234.022919026975
 20
82.6897291260175
 30
0.0
 11
248.722918776636
 21
82.6897291260175
 31
0.0
  0
LINE
  5
   5BC
  8
0
  6
CONTINUOUS
 62
     7
 10
234.022919026975
 20
82.855340390287
 30
0.0
 11
248.722918776636
 21
82.855340390287
 31
0.0
  0
LINE
  5
   5BD
  8
0
  6
DASHDOT
 62
     7
 10
241.372918901805
 20
162.069708737729
 30
0.0
 11
241.372918901805
 21
171.064708584545
 31
0.0
  0
LINE
  5
   5BE
  8
0
  6
CONTINUOUS
 62
     1
 10
277.42290233805
 20
37.8897192078069
 30
0.0
 11
277.42290233805
 21
45.764734852431
 31
0.0
  0
LINE
  5
   5BF
  8
0
  6
CONTINUOUS
 62
     1
 10
253.430418696467
 20
79.6797291772775
 30
0.0
 11
253.430418696467
 21
80.9047291564158
 31
0.0
  0
LINE
  5
   5C0
  8
0
  6
CONTINUOUS
 62
     7
 10
234.022919026975
 20
67.4725842038555
 30
0.0
 11
248.722918776636
 21
67.4725842038555
 31
0.0
  0
LINE
  5
   5C1
  8
0
  6
CONTINUOUS
 62
     7
 10
234.022919026975
 20
70.3497619019873
 30
0.0
 11
248.722918776636
 21
70.3497619019873
 31
0.0
  0
LINE
  5
   5C2
  8
0
  6
CONTINUOUS
 62
     7
 10
234.022919026975
 20
64.4491263745079
 30
0.0
 11
248.722918776636
 21
64.4491263745079
 31
0.0
  0
LINE
  5
   5C3
  8
0
  6
CONTINUOUS
 62
     7
 10
248.722918776636
 20
70.3497619019873
 30
0.0
 11
248.722918776636
 21
82.855340390287
 31
0.0
  0
LINE
  5
   5C4
  8
0
  6
CONTINUOUS
 62
     7
 10
234.022919026975
 20
70.3497619019873
 30
0.0
 11
234.022919026975
 21
82.855340390287
 31
0.0
  0
LINE
  5
   5C5
  8
0
  6
CONTINUOUS
 62
   130
 10
180.997919929986
 20
23.6206769381904
 30
0.0
 11
180.997919929986
 21
27.2147247301583
 31
0.0
  0
LINE
  5
   5C6
  8
0
  6
CONTINUOUS
 62
   130
 10
181.024562920291
 20
23.5808022377426
 30
0.0
 11
181.100432477385
 21
23.4672535771908
 31
0.0
  0
LINE
  5
   5C7
  8
0
  6
CONTINUOUS
 62
   130
 10
181.10043255924
 20
23.467253502314
 30
0.0
 11
181.213981219792
 21
23.3913839452195
 31
0.0
  0
LINE
  5
   5C8
  8
0
  6
CONTINUOUS
 62
   130
 10
181.213980612482
 20
23.3913836417996
 30
0.0
 11
181.347919593154
 21
23.3647381734062
 31
0.0
  0
LINE
  5
   5C9
  8
0
  6
CONTINUOUS
 62
   130
 10
181.347915640877
 20
23.3647383169111
 30
0.0
 11
276.897918296818
 21
23.3647383169111
 31
0.0
  0
LINE
  5
   5CA
  8
0
  6
CONTINUOUS
 62
   130
 10
276.897916675403
 20
23.3647383520324
 30
0.0
 11
277.031858321569
 21
23.3913838204763
 31
0.0
  0
LINE
  5
   5CB
  8
0
  6
CONTINUOUS
 62
   130
 10
277.031861091342
 20
23.391383908541
 30
0.0
 11
277.14540708245
 21
23.4672534685328
 31
0.0
  0
LINE
  5
   5CC
  8
0
  6
CONTINUOUS
 62
   130
 10
277.145403138782
 20
23.4672531434065
 30
0.0
 11
277.221271364641
 21
23.5808017986606
 31
0.0
  0
LINE
  5
   5CD
  8
0
  6
CONTINUOUS
 62
   130
 10
277.221273651627
 20
23.5808021246535
 30
0.0
 11
277.247917785085
 21
23.7147411019008
 31
0.0
  0
LINE
  5
   5CE
  8
0
  6
CONTINUOUS
 62
   130
 10
277.247918290858
 20
23.7147436444014
 30
0.0
 11
277.247918290858
 21
27.2147247301583
 31
0.0
  0
LINE
  5
   5CF
  8
0
  6
CONTINUOUS
 62
   130
 10
181.213981712061
 20
23.3913801118991
 30
0.0
 11
181.347920685883
 21
23.3647373133714
 31
0.0
  0
LINE
  5
   5D0
  8
0
  6
CONTINUOUS
 62
   130
 10
181.100432408493
 20
23.4672507446825
 30
0.0
 11
181.213981066197
 21
23.3913798482024
 31
0.0
  0
LINE
  5
   5D1
  8
0
  6
CONTINUOUS
 62
   130
 10
277.221276282752
 20
23.5807974877609
 30
0.0
 11
277.247920416226
 21
23.7147378007822
 31
0.0
  0
LINE
  5
   5D2
  8
0
  6
CONTINUOUS
 62
   130
 10
277.145405824802
 20
23.4672506669763
 30
0.0
 11
277.221274049221
 21
23.5807979872357
 31
0.0
  0
LINE
  5
   5D3
  8
0
  6
CONTINUOUS
 62
   130
 10
277.031858853847
 20
23.3913796641798
 30
0.0
 11
277.145404842112
 21
23.4672505554093
 31
0.0
  0
LINE
  5
   5D4
  8
0
  6
CONTINUOUS
 62
   130
 10
276.897918217083
 20
23.3647369834949
 30
0.0
 11
277.031859864549
 21
23.3913797820257
 31
0.0
  0
LINE
  5
   5D5
  8
0
  6
DASHDOT
 62
     7
 10
241.372910014931
 20
12.6897420911558
 30
0.0
 11
241.372910014931
 21
179.168730285886
 31
0.0
  0
LINE
  5
   5D6
  8
0
  6
CONTINUOUS
 62
   130
 10
216.872960040937
 20
104.564734263795
 30
0.0
 11
265.872959206472
 21
104.564734263795
 31
0.0
  0
LINE
  5
   5D7
  8
0
  6
CONTINUOUS
 62
   130
 10
216.872960040937
 20
55.5647364334044
 30
0.0
 11
265.872959206472
 21
55.5647364334044
 31
0.0
  0
LINE
  5
   5D8
  8
0
  6
CONTINUOUS
 62
     1
 10
216.872960040937
 20
100.364734335321
 30
0.0
 11
265.872959206472
 21
100.364734335321
 31
0.0
  0
LINE
  5
   5D9
  8
0
  6
CONTINUOUS
 62
     1
 10
216.872960708509
 20
103.864734275716
 30
0.0
 11
265.872959874044
 21
103.864734275716
 31
0.0
  0
LINE
  5
   5DA
  8
0
  6
CONTINUOUS
 62
   130
 10
216.872960040937
 20
55.5647364334044
 30
0.0
 11
216.872960040937
 21
104.564735598939
 31
0.0
  0
LINE
  5
   5DB
  8
0
  6
CONTINUOUS
 62
   130
 10
265.872959874044
 20
55.5647350982604
 30
0.0
 11
265.872959874044
 21
104.564734263795
 31
0.0
  0
LINE
  5
   5DC
  8
0
  6
CONTINUOUS
 62
   130
 10
218.097957016002
 20
99.3147343532023
 30
0.0
 11
253.447953743707
 21
99.3147343532023
 31
0.0
  0
LINE
  5
   5DD
  8
0
  6
CONTINUOUS
 62
   130
 10
218.097957016002
 20
56.7897350773988
 30
0.0
 11
253.447953743707
 21
56.7897350773988
 31
0.0
  0
LINE
  5
   5DE
  8
0
  6
CONTINUOUS
 62
   130
 10
218.097957016002
 20
56.7897350773988
 30
0.0
 11
218.097957016002
 21
99.3147343532023
 31
0.0
  0
LINE
  5
   5DF
  8
0
  6
CONTINUOUS
 62
   130
 10
253.447954745065
 20
56.7897350773988
 30
0.0
 11
253.447954745065
 21
99.3147343532023
 31
0.0
  0
LINE
  5
   5E0
  8
0
  6
CONTINUOUS
 62
     1
 10
263.772962580095
 20
84.0897346124825
 30
0.0
 11
263.772962580095
 21
84.7897078976812
 31
0.0
  0
LINE
  5
   5E1
  8
0
  6
CONTINUOUS
 62
     1
 10
263.772962580417
 20
82.8647346339998
 30
0.0
 11
263.772965250705
 21
82.1647346459208
 31
0.0
  0
LINE
  5
   5E2
  8
0
  6
CONTINUOUS
 62
     1
 10
262.722954588369
 20
75.3397347637196
 30
0.0
 11
262.722959928945
 21
76.0397347517987
 31
0.0
  0
LINE
  5
   5E3
  8
0
  6
CONTINUOUS
 62
     1
 10
261.008331094964
 20
62.5640611877635
 30
0.0
 11
261.42794548194
 21
62.0640257138779
 31
0.0
  0
LINE
  5
   5E4
  8
0
  6
CONTINUOUS
 62
     1
 10
260.478310249841
 20
62.9450987607481
 30
0.0
 11
261.008333048273
 21
62.564062023952
 31
0.0
  0
LINE
  5
   5E5
  8
0
  6
CONTINUOUS
 62
     1
 10
259.870656413775
 20
63.1835714118108
 30
0.0
 11
260.478309812265
 21
62.9450986644381
 31
0.0
  0
LINE
  5
   5E6
  8
0
  6
CONTINUOUS
 62
     1
 10
259.222953593311
 20
63.2647361976018
 30
0.0
 11
259.87066134666
 21
63.1835727932102
 31
0.0
  0
LINE
  5
   5E7
  8
0
  6
CONTINUOUS
 62
     1
 10
258.575246148882
 20
63.1835733392135
 30
0.0
 11
259.222953902232
 21
63.2647367436052
 31
0.0
  0
LINE
  5
   5E8
  8
0
  6
CONTINUOUS
 62
     1
 10
257.967587388448
 20
62.9450984166455
 30
0.0
 11
258.575240786938
 21
63.1835711640182
 31
0.0
  0
LINE
  5
   5E9
  8
0
  6
CONTINUOUS
 62
     1
 10
257.437565065809
 20
62.5640618695111
 30
0.0
 11
257.967587864241
 21
62.9450986063072
 31
0.0
  0
LINE
  5
   5EA
  8
0
  6
CONTINUOUS
 62
     1
 10
257.017949424155
 20
62.0640276203817
 30
0.0
 11
257.437566479193
 21
62.564063088722
 31
0.0
  0
LINE
  5
   5EB
  8
0
  6
CONTINUOUS
 62
     1
 10
257.017948275577
 20
59.2154460956595
 30
0.0
 11
257.017948275577
 21
62.0640265982959
 31
0.0
  0
LINE
  5
   5EC
  8
0
  6
CONTINUOUS
 62
     1
 10
257.017949049373
 20
59.2154463711053
 30
0.0
 11
257.437566104412
 21
58.7154109027651
 31
0.0
  0
LINE
  5
   5ED
  8
0
  6
CONTINUOUS
 62
     1
 10
257.437565150159
 20
58.7154105858336
 30
0.0
 11
257.967587948591
 21
58.3343738490375
 31
0.0
  0
LINE
  5
   5EE
  8
0
  6
CONTINUOUS
 62
     1
 10
257.967586027884
 20
58.3343735132817
 30
0.0
 11
258.575239425547
 21
58.0958994352046
 31
0.0
  0
LINE
  5
   5EF
  8
0
  6
CONTINUOUS
 62
     1
 10
258.575245819146
 20
58.095900733623
 30
0.0
 11
259.222953572496
 21
58.0147373292313
 31
0.0
  0
LINE
  5
   5F0
  8
0
  6
CONTINUOUS
 62
     1
 10
259.222953923046
 20
58.0147378752347
 30
0.0
 11
259.870661676396
 21
58.0959012796264
 31
0.0
  0
LINE
  5
   5F1
  8
0
  6
CONTINUOUS
 62
     1
 10
259.870654329473
 20
58.0958985613278
 30
0.0
 11
260.478307727136
 21
58.3343726394049
 31
0.0
  0
LINE
  5
   5F2
  8
0
  6
CONTINUOUS
 62
     1
 10
260.478310165491
 20
58.3343736945966
 30
0.0
 11
261.008332963923
 21
58.7154104313926
 31
0.0
  0
LINE
  5
   5F3
  8
0
  6
CONTINUOUS
 62
     1
 10
261.008330038018
 20
58.7154080789739
 30
0.0
 11
261.427944424993
 21
59.2154435528595
 31
0.0
  0
LINE
  5
   5F4
  8
0
  6
CONTINUOUS
 62
     1
 10
261.427947666417
 20
59.2154460956595
 30
0.0
 11
261.427947666417
 21
62.0640265982959
 31
0.0
  0
LINE
  5
   5F5
  8
0
  6
CONTINUOUS
 62
     1
 10
263.896693485287
 20
67.1510272189745
 30
0.0
 11
263.947949664313
 21
67.0272834008698
 31
0.0
  0
LINE
  5
   5F6
  8
0
  6
CONTINUOUS
 62
     1
 10
263.772950004623
 20
67.2022831705575
 30
0.0
 11
263.896693822728
 21
67.1510269915313
 31
0.0
  0
LINE
  5
   5F7
  8
0
  6
CONTINUOUS
 62
     1
 10
262.722949246536
 20
67.2022829652597
 30
0.0
 11
263.772949228655
 21
67.2022829652597
 31
0.0
  0
LINE
  5
   5F8
  8
0
  6
CONTINUOUS
 62
     1
 10
262.599206412087
 20
67.1510273266508
 30
0.0
 11
262.722950230192
 21
67.202283505677
 31
0.0
  0
LINE
  5
   5F9
  8
0
  6
CONTINUOUS
 62
     1
 10
262.547949900879
 20
67.027283737015
 30
0.0
 11
262.599206079905
 21
67.1510275551198
 31
0.0
  0
LINE
  5
   5FA
  8
0
  6
CONTINUOUS
 62
     1
 10
262.547949249516
 20
66.1522829831411
 30
0.0
 11
262.547949249516
 21
67.0272829682399
 31
0.0
  0
LINE
  5
   5FB
  8
0
  6
CONTINUOUS
 62
     1
 10
262.547949249516
 20
65.452282995062
 30
0.0
 11
262.547949249516
 21
66.1522829831411
 31
0.0
  0
LINE
  5
   5FC
  8
0
  6
CONTINUOUS
 62
     1
 10
262.547949249516
 20
64.7522830069829
 30
0.0
 11
262.547949249516
 21
65.452282995062
 31
0.0
  0
LINE
  5
   5FD
  8
0
  6
CONTINUOUS
 62
     1
 10
262.547949249516
 20
64.0522830189038
 30
0.0
 11
262.547949249516
 21
64.7522830069829
 31
0.0
  0
LINE
  5
   5FE
  8
0
  6
CONTINUOUS
 62
     1
 10
262.547949249516
 20
63.177283033805
 30
0.0
 11
262.547949249516
 21
64.0522830189038
 31
0.0
  0
LINE
  5
   5FF
  8
0
  6
CONTINUOUS
 62
     1
 10
262.547949686527
 20
63.1772833915078
 30
0.0
 11
262.599205865554
 21
63.053539573403
 31
0.0
  0
LINE
  5
   600
  8
0
  6
CONTINUOUS
 62
     1
 10
262.59920619671
 20
63.0535393737863
 30
0.0
 11
262.722950014814
 21
63.0022831947601
 31
0.0
  0
LINE
  5
   601
  8
0
  6
CONTINUOUS
 62
     1
 10
262.722949246536
 20
63.0022830367852
 30
0.0
 11
263.772949228655
 21
63.0022830367852
 31
0.0
  0
LINE
  5
   602
  8
0
  6
CONTINUOUS
 62
     1
 10
263.77295022
 20
63.0022835298796
 30
0.0
 11
263.896694038105
 21
63.0535397089058
 31
0.0
  0
LINE
  5
   603
  8
0
  6
CONTINUOUS
 62
     1
 10
263.896693699638
 20
63.0535399095483
 30
0.0
 11
263.947949878664
 21
63.177283727653
 31
0.0
  0
LINE
  5
   604
  8
0
  6
CONTINUOUS
 62
     1
 10
263.947949225675
 20
63.177283033805
 30
0.0
 11
263.947949225675
 21
64.0522830189038
 31
0.0
  0
LINE
  5
   605
  8
0
  6
CONTINUOUS
 62
     1
 10
263.947949225675
 20
64.0522830189038
 30
0.0
 11
263.947949225675
 21
64.7522830069829
 31
0.0
  0
LINE
  5
   606
  8
0
  6
CONTINUOUS
 62
     1
 10
263.947949225675
 20
64.7522830069829
 30
0.0
 11
263.947949225675
 21
65.452282995062
 31
0.0
  0
LINE
  5
   607
  8
0
  6
CONTINUOUS
 62
     1
 10
263.947949225675
 20
65.452282995062
 30
0.0
 11
263.947949225675
 21
66.1522829831411
 31
0.0
  0
LINE
  5
   608
  8
0
  6
CONTINUOUS
 62
     1
 10
263.947949225675
 20
66.1522829831411
 30
0.0
 11
263.947949225675
 21
67.0272829682399
 31
0.0
  0
LINE
  5
   609
  8
0
  6
CONTINUOUS
 62
     1
 10
262.722959927688
 20
96.9522343934355
 30
0.0
 11
262.722959927688
 21
98.0022343755541
 31
0.0
  0
LINE
  5
   60A
  8
0
  6
CONTINUOUS
 62
     1
 10
262.722959028905
 20
96.952231362455
 30
0.0
 11
262.82322567133
 21
96.6436421896688
 31
0.0
  0
LINE
  5
   60B
  8
0
  6
CONTINUOUS
 62
     1
 10
262.823226274581
 20
96.643644815388
 30
0.0
 11
263.085726267793
 21
96.4529274974693
 31
0.0
  0
LINE
  5
   60C
  8
0
  6
CONTINUOUS
 62
     1
 10
263.085726568849
 20
96.4529279139015
 30
0.0
 11
263.410193268646
 21
96.4529279139015
 31
0.0
  0
LINE
  5
   60D
  8
0
  6
CONTINUOUS
 62
     1
 10
263.410192572964
 20
96.4529272187434
 30
0.0
 11
263.672692566176
 21
96.643644536662
 31
0.0
  0
LINE
  5
   60E
  8
0
  6
CONTINUOUS
 62
     1
 10
263.672691278536
 20
96.6436414149915
 30
0.0
 11
263.772957920962
 21
96.9522305877776
 31
0.0
  0
LINE
  5
   60F
  8
0
  6
CONTINUOUS
 62
     1
 10
263.772959909807
 20
96.9522343934355
 30
0.0
 11
263.772959909807
 21
98.0022343755541
 31
0.0
  0
LINE
  5
   610
  8
0
  6
CONTINUOUS
 62
     1
 10
263.672692346053
 20
98.3108204420537
 30
0.0
 11
263.772958988478
 21
98.0022312692675
 31
0.0
  0
LINE
  5
   611
  8
0
  6
CONTINUOUS
 62
     1
 10
263.410192969302
 20
98.5015404288195
 30
0.0
 11
263.672692962514
 21
98.3108231109008
 31
0.0
  0
LINE
  5
   612
  8
0
  6
CONTINUOUS
 62
     1
 10
263.085726568849
 20
98.501540855088
 30
0.0
 11
263.410193268646
 21
98.501540855088
 31
0.0
  0
LINE
  5
   613
  8
0
  6
CONTINUOUS
 62
     1
 10
262.823225878242
 20
98.3108228321748
 30
0.0
 11
263.085725871455
 21
98.5015401500935
 31
0.0
  0
LINE
  5
   614
  8
0
  6
CONTINUOUS
 62
     1
 10
262.722957961389
 20
98.0022304945902
 30
0.0
 11
262.823224603814
 21
98.3108196673764
 31
0.0
  0
LINE
  5
   615
  8
0
  6
CONTINUOUS
 62
     1
 10
262.722959927704
 20
75.3397347615216
 30
0.0
 11
262.722967938568
 21
84.7897346005891
 31
0.0
  0
LINE
  5
   616
  8
0
  6
CONTINUOUS
 62
     1
 10
262.722959927688
 20
75.3397347614941
 30
0.0
 11
263.772973261247
 21
75.3397347614941
 31
0.0
  0
LINE
  5
   617
  8
0
  6
CONTINUOUS
 62
     1
 10
263.772962580123
 20
84.78970789773
 30
0.0
 11
263.772973261275
 21
75.339734761543
 31
0.0
  0
LINE
  5
   618
  8
0
  6
CONTINUOUS
 62
     1
 10
262.722967966472
 20
84.7897346159809
 30
0.0
 11
263.772962608014
 21
84.7897079131014
 31
0.0
  0
LINE
  5
   619
  8
0
  6
CONTINUOUS
 62
     5
 10
174.347973448542
 20
52.9397551703674
 30
0.0
 11
180.122962669042
 21
52.9397231269114
 31
0.0
  0
LINE
  5
   61A
  8
0
  6
CONTINUOUS
 62
     5
 10
174.347973449002
 20
101.939734308499
 30
0.0
 11
180.122962669502
 21
101.939734308499
 31
0.0
  0
LINE
  5
   61B
  8
0
  6
CONTINUOUS
 62
     5
 10
173.997957866824
 20
53.289688406963
 30
0.0
 11
173.997957866824
 21
101.589735649604
 31
0.0
  0
LINE
  5
   61C
  8
0
  6
CONTINUOUS
 62
     1
 10
179.772960005174
 20
97.3023144961162
 30
0.0
 11
179.772960005174
 21
101.939734308499
 31
0.0
  0
LINE
  5
   61D
  8
0
  6
CONTINUOUS
 62
     5
 10
173.997966600596
 20
53.2897767810783
 30
0.0
 11
174.024602724649
 21
53.1557496827159
 31
0.0
  0
LINE
  5
   61E
  8
0
  6
CONTINUOUS
 62
     5
 10
174.02461648574
 20
53.1558373038023
 30
0.0
 11
174.100474026475
 21
53.0422005285416
 31
0.0
  0
LINE
  5
   61F
  8
0
  6
CONTINUOUS
 62
     5
 10
174.100486468906
 20
53.0422884222819
 30
0.0
 11
174.214035129458
 21
52.9664188651875
 31
0.0
  0
LINE
  5
   620
  8
0
  6
CONTINUOUS
 62
     5
 10
174.214034887274
 20
52.9664191375796
 30
0.0
 11
174.347973866944
 21
52.9397549755067
 31
0.0
  0
LINE
  5
   621
  8
0
  6
CONTINUOUS
 62
     5
 10
174.214034721706
 20
101.913089617871
 30
0.0
 11
174.347973698953
 21
101.939733751329
 31
0.0
  0
LINE
  5
   622
  8
0
  6
CONTINUOUS
 62
     5
 10
174.10048873536
 20
101.837218533964
 30
0.0
 11
174.214034721165
 21
101.913086754589
 31
0.0
  0
LINE
  5
   623
  8
0
  6
CONTINUOUS
 62
     5
 10
174.024616283125
 20
101.723677213127
 30
0.0
 11
174.100485843117
 21
101.837223204235
 31
0.0
  0
LINE
  5
   624
  8
0
  6
CONTINUOUS
 62
     5
 10
173.99796680706
 20
101.589733956467
 30
0.0
 11
174.024616282445
 21
101.723675604747
 31
0.0
  0
LINE
  5
   625
  8
0
  6
CONTINUOUS
 62
     1
 10
179.772960001698
 20
100.539728999149
 30
0.0
 11
180.122961330882
 21
100.539734339725
 31
0.0
  0
LINE
  5
   626
  8
0
  6
CONTINUOUS
 62
     1
 10
178.810460021146
 20
58.1896442640362
 30
0.0
 11
180.122959998794
 21
58.1896375883159
 31
0.0
  0
LINE
  5
   627
  8
0
  6
CONTINUOUS
 62
     1
 10
178.810460021566
 20
56.7896376118853
 30
0.0
 11
180.122959999214
 21
56.7896376118853
 31
0.0
  0
LINE
  5
   628
  8
0
  6
CONTINUOUS
 62
     1
 10
179.772960005174
 20
94.5896863684839
 30
0.0
 11
180.122959999214
 21
94.5896863684839
 31
0.0
  0
LINE
  5
   629
  8
0
  6
CONTINUOUS
 62
     1
 10
179.772960005174
 20
93.1896863923257
 30
0.0
 11
180.122959999214
 21
93.1896863923257
 31
0.0
  0
LINE
  5
   62A
  8
0
  6
CONTINUOUS
 62
     1
 10
177.147960049878
 20
58.1896536097717
 30
0.0
 11
177.147960049878
 21
58.5398151562376
 31
0.0
  0
LINE
  5
   62B
  8
0
  6
CONTINUOUS
 62
     1
 10
179.772961340319
 20
97.7396649525354
 30
0.0
 11
180.122959999214
 21
97.7396649525354
 31
0.0
  0
LINE
  5
   62C
  8
0
  6
CONTINUOUS
 62
     1
 10
178.372960029016
 20
92.1396650479028
 30
0.0
 11
180.122959999214
 21
92.1396650479028
 31
0.0
  0
LINE
  5
   62D
  8
0
  6
CONTINUOUS
 62
     1
 10
178.810460021566
 20
55.0396696851441
 30
0.0
 11
180.122959999214
 21
55.0396696851441
 31
0.0
  0
LINE
  5
   62E
  8
0
  6
CONTINUOUS
 62
     1
 10
178.372960029016
 20
60.6396709249207
 30
0.0
 11
180.122959999214
 21
60.6396709249207
 31
0.0
  0
LINE
  5
   62F
  8
0
  6
CONTINUOUS
 62
     5
 10
173.647960109483
 20
71.4896627292821
 30
0.0
 11
173.647960109483
 21
78.4896626100729
 31
0.0
  0
LINE
  5
   630
  8
0
  6
CONTINUOUS
 62
     1
 10
175.660450729202
 20
97.3021596194098
 30
0.0
 11
176.885460054348
 21
97.3021596194098
 31
0.0
  0
LINE
  5
   631
  8
0
  6
CONTINUOUS
 62
     1
 10
175.660450729202
 20
97.3021596194098
 30
0.0
 11
176.885460054348
 21
97.3021596194098
 31
0.0
  0
LINE
  5
   632
  8
0
  6
CONTINUOUS
 62
     1
 10
178.372960029016
 20
92.4896917448227
 30
0.0
 11
179.772960005174
 21
92.4896917448227
 31
0.0
  0
LINE
  5
   633
  8
0
  6
CONTINUOUS
 62
     1
 10
179.772960005174
 20
92.4896917448227
 30
0.0
 11
179.772960005174
 21
97.3021596194098
 31
0.0
  0
LINE
  5
   634
  8
0
  6
CONTINUOUS
 62
     1
 10
177.672958704822
 20
90.7397772254033
 30
0.0
 11
178.372950682037
 21
90.7397718848272
 31
0.0
  0
LINE
  5
   635
  8
0
  6
CONTINUOUS
 62
     1
 10
178.37295068294
 20
90.7397718842468
 30
0.0
 11
178.372954688372
 21
92.1397344738938
 31
0.0
  0
LINE
  5
   636
  8
0
  6
CONTINUOUS
 62
     1
 10
177.672958701746
 20
91.614782555863
 30
0.0
 11
178.372952014105
 21
91.6147718747108
 31
0.0
  0
LINE
  5
   637
  8
0
  6
CONTINUOUS
 62
     1
 10
176.885460054348
 20
95.2896596536825
 30
0.0
 11
176.885460054348
 21
97.3021596194098
 31
0.0
  0
LINE
  5
   638
  8
0
  6
CONTINUOUS
 62
     1
 10
176.885456328122
 20
95.2896660680119
 30
0.0
 11
177.410456330714
 21
94.7646660654198
 31
0.0
  0
LINE
  5
   639
  8
0
  6
CONTINUOUS
 62
     1
 10
177.410460045408
 20
94.7646596626232
 30
0.0
 11
178.635460024546
 21
94.7646596626232
 31
0.0
  0
LINE
  5
   63A
  8
0
  6
CONTINUOUS
 62
     1
 10
178.635460024546
 20
94.7646596626232
 30
0.0
 11
178.635460024546
 21
97.3023144961162
 31
0.0
  0
LINE
  5
   63B
  8
0
  6
CONTINUOUS
 62
     1
 10
176.885460054348
 20
97.3022397280511
 30
0.0
 11
179.772960005174
 21
97.3022397280511
 31
0.0
  0
LINE
  5
   63C
  8
0
  6
CONTINUOUS
 62
     1
 10
177.410460045343
 20
55.9147164003178
 30
0.0
 11
178.810460021502
 21
55.9147137300298
 31
0.0
  0
LINE
  5
   63D
  8
0
  6
CONTINUOUS
 62
     1
 10
178.810460021566
 20
54.3398152277632
 30
0.0
 11
178.810460021566
 21
55.9147137299956
 31
0.0
  0
LINE
  5
   63E
  8
0
  6
CONTINUOUS
 62
     1
 10
177.410460045408
 20
54.3398152277632
 30
0.0
 11
177.410460045408
 21
55.9147164002836
 31
0.0
  0
LINE
  5
   63F
  8
0
  6
CONTINUOUS
 62
     1
 10
176.185456060715
 20
58.1896829830083
 30
0.0
 11
178.810460021444
 21
58.1896896587286
 31
0.0
  0
LINE
  5
   640
  8
0
  6
CONTINUOUS
 62
     1
 10
178.810460021566
 20
55.9146896974032
 30
0.0
 11
178.810460021566
 21
58.1896896586602
 31
0.0
  0
LINE
  5
   641
  8
0
  6
CONTINUOUS
 62
     1
 10
178.372960029016
 20
88.6397452161486
 30
0.0
 11
178.372960029016
 21
90.739755861538
 31
0.0
  0
LINE
  5
   642
  8
0
  6
CONTINUOUS
 62
     1
 10
176.185456364296
 20
58.1896826026493
 30
0.0
 11
176.212177936331
 21
58.2164041746839
 31
0.0
  0
LINE
  5
   643
  8
0
  6
CONTINUOUS
 62
     1
 10
176.185457068972
 20
58.1897310360829
 30
0.0
 11
176.535549189419
 21
58.539813801807
 31
0.0
  0
LINE
  5
   644
  8
0
  6
CONTINUOUS
 62
     1
 10
178.372962881136
 20
58.5398151562385
 30
0.0
 11
178.372962881136
 21
88.6397452161495
 31
0.0
  0
LINE
  5
   645
  8
0
  6
CONTINUOUS
 62
     1
 10
178.372960029016
 20
92.1397344753918
 30
0.0
 11
178.372960029016
 21
93.714814557211
 31
0.0
  0
LINE
  5
   646
  8
0
  6
CONTINUOUS
 62
     1
 10
176.185460066269
 20
58.5398151562376
 30
0.0
 11
178.372960029016
 21
58.5398151562376
 31
0.0
  0
LINE
  5
   647
  8
0
  6
CONTINUOUS
 62
     1
 10
176.185460066269
 20
54.3398152277632
 30
0.0
 11
179.772960005174
 21
54.3398152277632
 31
0.0
  0
LINE
  5
   648
  8
0
  6
CONTINUOUS
 62
     1
 10
176.185460066269
 20
54.3398152277632
 30
0.0
 11
176.185460066269
 21
58.5398151562376
 31
0.0
  0
LINE
  5
   649
  8
0
  6
CONTINUOUS
 62
     1
 10
175.660457404922
 20
93.714814557211
 30
0.0
 11
178.372960029016
 21
93.714814557211
 31
0.0
  0
LINE
  5
   64A
  8
0
  6
CONTINUOUS
 62
     1
 10
175.660457404922
 20
93.714814557211
 30
0.0
 11
175.660457404922
 21
97.3023144961162
 31
0.0
  0
LINE
  5
   64B
  8
0
  6
CONTINUOUS
 62
     1
 10
178.022960034977
 20
92.1397344753918
 30
0.0
 11
178.372960029016
 21
92.1397344753918
 31
0.0
  0
LINE
  5
   64C
  8
0
  6
CONTINUOUS
 62
     1
 10
177.889021260764
 20
92.1130898680458
 30
0.0
 11
178.022960238011
 21
92.1397340015039
 31
0.0
  0
LINE
  5
   64D
  8
0
  6
CONTINUOUS
 62
     1
 10
177.7754725537
 20
92.0372195472317
 30
0.0
 11
177.889021208954
 21
92.1130877730902
 31
0.0
  0
LINE
  5
   64E
  8
0
  6
CONTINUOUS
 62
     1
 10
177.699602872645
 20
91.9236771931732
 30
0.0
 11
177.775472432637
 21
92.0372231842812
 31
0.0
  0
LINE
  5
   64F
  8
0
  6
CONTINUOUS
 62
     1
 10
177.67296004643
 20
91.789734406025
 30
0.0
 11
177.69960284496
 21
91.9236760534912
 31
0.0
  0
LINE
  5
   650
  8
0
  6
CONTINUOUS
 62
     1
 10
177.672960040937
 20
88.9897452101882
 30
0.0
 11
177.672960040937
 21
91.7897344813523
 31
0.0
  0
LINE
  5
   651
  8
0
  6
CONTINUOUS
 62
     1
 10
177.672960061559
 20
88.9897451335722
 30
0.0
 11
177.69960286009
 21
88.855803486106
 31
0.0
  0
LINE
  5
   652
  8
0
  6
CONTINUOUS
 62
     1
 10
177.699602255263
 20
88.8558047621934
 30
0.0
 11
177.775471815255
 21
88.7422587710854
 31
0.0
  0
LINE
  5
   653
  8
0
  6
CONTINUOUS
 62
     1
 10
177.775474533682
 20
88.7422545350829
 30
0.0
 11
177.889023188936
 21
88.6663863092244
 31
0.0
  0
LINE
  5
   654
  8
0
  6
CONTINUOUS
 62
     1
 10
177.8890214401
 20
88.6663888506292
 30
0.0
 11
178.022960417348
 21
88.639744717171
 31
0.0
  0
LINE
  5
   655
  8
0
  6
CONTINUOUS
 62
     1
 10
178.022960034977
 20
88.6397452161486
 30
0.0
 11
178.372956023584
 21
88.6397452161486
 31
0.0
  0
LINE
  5
   656
  8
0
  6
CONTINUOUS
 62
     1
 10
288.447970170746
 20
90.7397398398098
 30
0.0
 11
288.79796482421
 21
90.7397398398098
 31
0.0
  0
LINE
  5
   657
  8
0
  6
CONTINUOUS
 62
     7
 10
288.447970170746
 20
101.939734308499
 30
0.0
 11
288.79796482421
 21
101.939734308499
 31
0.0
  0
LINE
  5
   658
  8
0
  6
DOT
 62
     7
 10
278.122918275957
 20
101.939734308499
 30
0.0
 11
287.222916615876
 21
101.939734308499
 31
0.0
  0
LINE
  5
   659
  8
0
  6
DOT
 62
     7
 10
278.122918275957
 20
90.7397398398098
 30
0.0
 11
287.222916615876
 21
90.7397398398098
 31
0.0
  0
LINE
  5
   65A
  8
0
  6
DOT
 62
     7
 10
278.122918275957
 20
51.2772298307
 30
0.0
 11
287.222916615876
 21
51.2772298307
 31
0.0
  0
LINE
  5
   65B
  8
0
  6
CONTINUOUS
 62
     7
 10
288.797970164786
 20
51.2772298307
 30
0.0
 11
288.797970164786
 21
52.9397271320997
 31
0.0
  0
LINE
  5
   65C
  8
0
  6
DOT
 62
     7
 10
278.122918275957
 20
80.2397211485555
 30
0.0
 11
287.222916615876
 21
80.2397304055592
 31
0.0
  0
LINE
  5
   65D
  8
0
  6
CONTINUOUS
 62
     7
 10
288.79796482421
 20
101.9397343085
 30
0.0
 11
288.797970164787
 21
52.9397244618125
 31
0.0
  0
LINE
  5
   65E
  8
0
  6
CONTINUOUS
 62
     7
 10
289.147964818249
 20
71.489718805331
 30
0.0
 11
289.147964818249
 21
78.4897186861217
 31
0.0
  0
LINE
  5
   65F
  8
0
  6
CONTINUOUS
 62
     1
 10
218.097957349788
 20
84.5467757729121
 30
0.0
 11
253.447954077493
 21
84.5467757729121
 31
0.0
  0
LINE
  5
   660
  8
0
  6
CONTINUOUS
 62
     1
 10
218.097957349788
 20
84.8967757669516
 30
0.0
 11
253.447954077493
 21
84.8967757669516
 31
0.0
  0
LINE
  5
   661
  8
0
  6
CONTINUOUS
 62
   210
 10
234.022959081303
 20
62.8902884860802
 30
0.0
 11
234.022959081303
 21
83.5891784381456
 31
0.0
  0
LINE
  5
   662
  8
0
  6
CONTINUOUS
 62
   210
 10
248.722960166107
 20
62.8902884860802
 30
0.0
 11
248.722960166107
 21
83.5891784381456
 31
0.0
  0
LINE
  5
   663
  8
0
  6
CONTINUOUS
 62
     1
 10
218.097957349788
 20
77.8967758861609
 30
0.0
 11
234.022959748875
 21
77.8967758861609
 31
0.0
  0
LINE
  5
   664
  8
0
  6
CONTINUOUS
 62
     1
 10
248.722960166107
 20
77.8967758861609
 30
0.0
 11
253.447954745065
 21
77.8967758861609
 31
0.0
  0
LINE
  5
   665
  8
0
  6
CONTINUOUS
 62
     1
 10
248.722960166107
 20
78.2467758802004
 30
0.0
 11
253.447954745065
 21
78.2467758802004
 31
0.0
  0
LINE
  5
   666
  8
0
  6
CONTINUOUS
 62
     1
 10
218.097957349788
 20
78.2467758802004
 30
0.0
 11
234.022959748875
 21
78.2467758802004
 31
0.0
  0
LINE
  5
   667
  8
0
  6
CONTINUOUS
 62
     1
 10
248.722960166107
 20
68.5063742058685
 30
0.0
 11
253.447954745065
 21
68.5063742058685
 31
0.0
  0
LINE
  5
   668
  8
0
  6
CONTINUOUS
 62
     1
 10
218.097957349788
 20
68.5063742058685
 30
0.0
 11
234.022959748875
 21
68.5063742058685
 31
0.0
  0
LINE
  5
   669
  8
0
  6
CONTINUOUS
 62
     1
 10
218.097957349788
 20
68.156374211829
 30
0.0
 11
234.022959748875
 21
68.156374211829
 31
0.0
  0
LINE
  5
   66A
  8
0
  6
CONTINUOUS
 62
     1
 10
248.722960166107
 20
68.156374211829
 30
0.0
 11
253.447954745065
 21
68.156374211829
 31
0.0
  0
LINE
  5
   66B
  8
0
  6
CONTINUOUS
 62
     1
 10
218.097957349788
 20
61.8563743191173
 30
0.0
 11
253.447954077493
 21
61.8563743191173
 31
0.0
  0
LINE
  5
   66C
  8
0
  6
CONTINUOUS
 62
     1
 10
218.097957349788
 20
61.5063743250778
 30
0.0
 11
253.447954077493
 21
61.5063743250778
 31
0.0
  0
LINE
  5
   66D
  8
0
  6
CONTINUOUS
 62
     1
 10
173.997966779242
 20
101.589734314459
 30
0.0
 11
179.772960005174
 21
101.589734314459
 31
0.0
  0
LINE
  5
   66E
  8
0
  6
CONTINUOUS
 62
     1
 10
173.997966769335
 20
53.2897765304926
 30
0.0
 11
175.135460074244
 21
53.2898018982286
 31
0.0
  0
LINE
  5
   66F
  8
0
  6
CONTINUOUS
 62
     1
 10
177.147960049878
 20
58.5396562740992
 30
0.0
 11
180.122959999214
 21
58.5396562740992
 31
0.0
  0
LINE
  5
   670
  8
0
  6
CONTINUOUS
 62
     1
 10
178.810460021566
 20
56.439656309862
 30
0.0
 11
180.122959999214
 21
56.439656309862
 31
0.0
  0
LINE
  5
   671
  8
0
  6
CONTINUOUS
 62
     1
 10
179.772960005174
 20
94.9396703407952
 30
0.0
 11
180.122959999214
 21
94.9396703407952
 31
0.0
  0
LINE
  5
   672
  8
0
  6
CONTINUOUS
 62
     1
 10
179.772960005174
 20
92.8396703765579
 30
0.0
 11
180.122959999214
 21
92.8396703765579
 31
0.0
  0
LINE
  5
   673
  8
0
  6
CONTINUOUS
 62
     5
 10
173.647960109483
 20
71.4896627292821
 30
0.0
 11
173.997960103522
 21
71.4896627292821
 31
0.0
  0
LINE
  5
   674
  8
0
  6
CONTINUOUS
 62
     5
 10
173.647960109483
 20
78.4896626100729
 30
0.0
 11
173.997960103522
 21
78.4896626100729
 31
0.0
  0
LINE
  5
   675
  8
0
  6
CONTINUOUS
 62
     1
 10
177.147960013933
 20
95.0271583244843
 30
0.0
 11
177.935460010446
 21
95.8146583209967
 31
0.0
  0
LINE
  5
   676
  8
0
  6
CONTINUOUS
 62
     1
 10
175.135460084151
 20
53.2898018942044
 30
0.0
 11
175.135460084151
 21
59.5898178086443
 31
0.0
  0
LINE
  5
   677
  8
0
  6
CONTINUOUS
 62
     1
 10
175.135460084151
 20
59.5898178086443
 30
0.0
 11
176.185460066269
 21
59.5898178086443
 31
0.0
  0
LINE
  5
   678
  8
0
  6
CONTINUOUS
 62
     1
 10
175.135460787859
 20
59.5898170610568
 30
0.0
 11
176.185460793042
 21
58.5398144006194
 31
0.0
  0
LINE
  5
   679
  8
0
  6
CONTINUOUS
 62
     1
 10
175.135460083876
 20
53.2898018943222
 30
0.0
 11
176.185460065995
 21
53.2898058997542
 31
0.0
  0
LINE
  5
   67A
  8
0
  6
CONTINUOUS
 62
     1
 10
175.135459538324
 20
53.2898022528381
 30
0.0
 11
176.185459543466
 21
54.3398156228304
 31
0.0
  0
LINE
  5
   67B
  8
0
  6
CONTINUOUS
 62
     1
 10
178.460460027526
 20
54.3398072168991
 30
0.0
 11
178.460460027526
 21
55.9147137299956
 31
0.0
  0
LINE
  5
   67C
  8
0
  6
CONTINUOUS
 62
     1
 10
176.185460066269
 20
59.5898178086443
 30
0.0
 11
178.372960029016
 21
59.5898178086443
 31
0.0
  0
LINE
  5
   67D
  8
0
  6
CONTINUOUS
 62
     1
 10
176.185460066098
 20
53.2898058997273
 30
0.0
 11
179.772960005003
 21
53.2898179160234
 31
0.0
  0
LINE
  5
   67E
  8
0
  6
CONTINUOUS
 62
     1
 10
174.610460093091
 20
92.6648199156684
 30
0.0
 11
174.610460093091
 21
98.3523198188109
 31
0.0
  0
LINE
  5
   67F
  8
0
  6
CONTINUOUS
 62
     1
 10
174.610460093091
 20
98.3523198188109
 30
0.0
 11
175.660457404922
 21
98.3523198188109
 31
0.0
  0
LINE
  5
   680
  8
0
  6
CONTINUOUS
 62
     1
 10
174.610461141565
 20
98.352318072339
 30
0.0
 11
175.660458491492
 21
97.3023127566468
 31
0.0
  0
LINE
  5
   681
  8
0
  6
CONTINUOUS
 62
     1
 10
174.610459899131
 20
92.6648248275475
 30
0.0
 11
175.660457219556
 21
93.714819492731
 31
0.0
  0
LINE
  5
   682
  8
0
  6
CONTINUOUS
 62
     1
 10
177.935460036467
 20
95.8146596447418
 30
0.0
 11
178.635460024546
 21
95.8146596447418
 31
0.0
  0
LINE
  5
   683
  8
0
  6
CONTINUOUS
 62
     1
 10
177.935460036467
 20
95.8146596447418
 30
0.0
 11
177.935460036467
 21
97.3022397280511
 31
0.0
  0
LINE
  5
   684
  8
0
  6
CONTINUOUS
 62
     1
 10
175.660457404922
 20
98.3523198188109
 30
0.0
 11
179.772960005174
 21
98.3523198188109
 31
0.0
  0
LINE
  5
   685
  8
0
  6
CONTINUOUS
 62
     1
 10
174.610460093091
 20
92.6648199156684
 30
0.0
 11
178.372960029016
 21
92.6648199156684
 31
0.0
  0
LINE
  5
   686
  8
0
  6
CONTINUOUS
 62
     7
 10
288.797970164786
 20
78.4897186861217
 30
0.0
 11
289.147964818249
 21
78.4897186861217
 31
0.0
  0
LINE
  5
   687
  8
0
  6
CONTINUOUS
 62
     7
 10
288.79796482421
 20
71.489718805331
 30
0.0
 11
289.147964818249
 21
71.489718805331
 31
0.0
  0
LINE
  5
   688
  8
0
  6
CONTINUOUS
 62
   210
 10
234.022959081303
 20
62.8902884860802
 30
0.0
 11
248.722960166107
 21
62.8902884860802
 31
0.0
  0
LINE
  5
   689
  8
0
  6
CONTINUOUS
 62
   210
 10
234.022959081303
 20
63.2724574401432
 30
0.0
 11
248.722960166107
 21
63.2724574401432
 31
0.0
  0
LINE
  5
   68A
  8
0
  6
CONTINUOUS
 62
   210
 10
234.022959081303
 20
83.2070121543707
 30
0.0
 11
248.722960166107
 21
83.2070121543707
 31
0.0
  0
LINE
  5
   68B
  8
0
  6
CONTINUOUS
 62
   210
 10
234.022959081303
 20
83.5891784381456
 30
0.0
 11
248.722960166107
 21
83.5891784381456
 31
0.0
  0
CIRCLE
  5
   68C
  8
0
  6
CONTINUOUS
 62
     7
 10
284.072969550187
 20
66.0647218494125
 30
0.0
 40
1.83750002924935
  0
LINE
  5
   68D
  8
0
  6
CONTINUOUS
 62
     1
 10
180.122964155718
 20
59.6772188367657
 30
0.0
 11
207.772917968901
 21
59.6772188367657
 31
0.0
  0
LINE
  5
   68E
  8
0
  6
DASHDOT
 62
     2
 10
168.037935801759
 20
80.0647346810279
 30
0.0
 11
293.287305834364
 21
80.0647346810279
 31
0.0
  0
LINE
  5
   68F
  8
0
  6
CONTINUOUS
 62
     7
 10
180.560464148268
 20
27.2147247301583
 30
0.0
 11
277.685418283407
 21
27.2147247301583
 31
0.0
  0
LINE
  5
   690
  8
0
  6
CONTINUOUS
 62
     1
 10
217.520427098382
 20
162.069708737729
 30
0.0
 11
217.520427098382
 21
171.064708584545
 31
0.0
  0
LINE
  5
   691
  8
0
  6
CONTINUOUS
 62
     1
 10
218.780427076925
 20
162.069708737729
 30
0.0
 11
218.780427076925
 21
171.064708584545
 31
0.0
  0
LINE
  5
   692
  8
0
  6
CONTINUOUS
 62
     1
 10
220.040427055467
 20
162.069708737729
 30
0.0
 11
220.040427055467
 21
171.064708584545
 31
0.0
  0
LINE
  5
   693
  8
0
  6
CONTINUOUS
 62
     1
 10
221.300427034009
 20
162.069708737729
 30
0.0
 11
221.300427034009
 21
171.064708584545
 31
0.0
  0
LINE
  5
   694
  8
0
  6
CONTINUOUS
 62
     1
 10
222.560427012552
 20
162.069708737729
 30
0.0
 11
222.560427012552
 21
171.064708584545
 31
0.0
  0
LINE
  5
   695
  8
0
  6
CONTINUOUS
 62
     1
 10
223.820426991094
 20
162.069708737729
 30
0.0
 11
223.820426991094
 21
171.064708584545
 31
0.0
  0
LINE
  5
   696
  8
0
  6
CONTINUOUS
 62
     1
 10
225.080426969636
 20
162.069708737729
 30
0.0
 11
225.080426969636
 21
171.064708584545
 31
0.0
  0
LINE
  5
   697
  8
0
  6
CONTINUOUS
 62
     1
 10
226.340426948179
 20
162.069708737729
 30
0.0
 11
226.340426948179
 21
171.064708584545
 31
0.0
  0
LINE
  5
   698
  8
0
  6
CONTINUOUS
 62
     1
 10
227.600426926721
 20
162.069708737729
 30
0.0
 11
227.600426926721
 21
171.064708584545
 31
0.0
  0
LINE
  5
   699
  8
0
  6
CONTINUOUS
 62
     1
 10
228.860426905263
 20
162.069708737729
 30
0.0
 11
228.860426905263
 21
171.064708584545
 31
0.0
  0
LINE
  5
   69A
  8
0
  6
CONTINUOUS
 62
     1
 10
230.120426883806
 20
162.069708737729
 30
0.0
 11
230.120426883806
 21
171.064708584545
 31
0.0
  0
LINE
  5
   69B
  8
0
  6
CONTINUOUS
 62
     1
 10
231.380426862348
 20
162.069708737729
 30
0.0
 11
231.380426862348
 21
171.064708584545
 31
0.0
  0
LINE
  5
   69C
  8
0
  6
CONTINUOUS
 62
     1
 10
232.64042684089
 20
162.069708737729
 30
0.0
 11
232.64042684089
 21
171.064708584545
 31
0.0
  0
LINE
  5
   69D
  8
0
  6
CONTINUOUS
 62
     1
 10
233.900426819433
 20
162.069708737729
 30
0.0
 11
233.900426819433
 21
171.064708584545
 31
0.0
  0
LINE
  5
   69E
  8
0
  6
CONTINUOUS
 62
     1
 10
235.160426797975
 20
162.069708737729
 30
0.0
 11
235.160426797975
 21
171.064708584545
 31
0.0
  0
LINE
  5
   69F
  8
0
  6
CONTINUOUS
 62
     1
 10
236.420426776517
 20
162.069708737729
 30
0.0
 11
236.420426776517
 21
171.064708584545
 31
0.0
  0
LINE
  5
   6A0
  8
0
  6
CONTINUOUS
 62
     1
 10
237.68042675506
 20
162.069708737729
 30
0.0
 11
237.68042675506
 21
171.064708584545
 31
0.0
  0
LINE
  5
   6A1
  8
0
  6
CONTINUOUS
 62
     1
 10
238.940426733602
 20
162.069708737729
 30
0.0
 11
238.940426733602
 21
171.064708584545
 31
0.0
  0
LINE
  5
   6A2
  8
0
  6
CONTINUOUS
 62
     1
 10
240.200426712144
 20
162.069708737729
 30
0.0
 11
240.200426712144
 21
171.064708584545
 31
0.0
  0
LINE
  5
   6A3
  8
0
  6
CONTINUOUS
 62
     1
 10
265.225410705228
 20
162.069708737729
 30
0.0
 11
265.225410705228
 21
171.064708584545
 31
0.0
  0
LINE
  5
   6A4
  8
0
  6
CONTINUOUS
 62
     1
 10
263.965410726686
 20
162.069708737729
 30
0.0
 11
263.965410726686
 21
171.064708584545
 31
0.0
  0
LINE
  5
   6A5
  8
0
  6
CONTINUOUS
 62
     1
 10
262.705410748144
 20
162.069708737729
 30
0.0
 11
262.705410748144
 21
171.064708584545
 31
0.0
  0
LINE
  5
   6A6
  8
0
  6
CONTINUOUS
 62
     1
 10
261.445410769602
 20
162.069708737729
 30
0.0
 11
261.445410769602
 21
171.064708584545
 31
0.0
  0
LINE
  5
   6A7
  8
0
  6
CONTINUOUS
 62
     1
 10
260.185410791059
 20
162.069708737729
 30
0.0
 11
260.185410791059
 21
171.064708584545
 31
0.0
  0
LINE
  5
   6A8
  8
0
  6
CONTINUOUS
 62
     1
 10
258.925410812517
 20
162.069708737729
 30
0.0
 11
258.925410812517
 21
171.064708584545
 31
0.0
  0
LINE
  5
   6A9
  8
0
  6
CONTINUOUS
 62
     1
 10
257.665410833975
 20
162.069708737729
 30
0.0
 11
257.665410833975
 21
171.064708584545
 31
0.0
  0
LINE
  5
   6AA
  8
0
  6
CONTINUOUS
 62
     1
 10
256.405410855432
 20
162.069708737729
 30
0.0
 11
256.405410855432
 21
171.064708584545
 31
0.0
  0
LINE
  5
   6AB
  8
0
  6
CONTINUOUS
 62
     1
 10
255.14541087689
 20
162.069708737729
 30
0.0
 11
255.14541087689
 21
171.064708584545
 31
0.0
  0
LINE
  5
   6AC
  8
0
  6
CONTINUOUS
 62
     1
 10
253.885410898348
 20
162.069708737729
 30
0.0
 11
253.885410898348
 21
171.064708584545
 31
0.0
  0
LINE
  5
   6AD
  8
0
  6
CONTINUOUS
 62
     1
 10
252.625410919805
 20
162.069708737729
 30
0.0
 11
252.625410919805
 21
171.064708584545
 31
0.0
  0
LINE
  5
   6AE
  8
0
  6
CONTINUOUS
 62
     1
 10
251.365410941263
 20
162.069708737729
 30
0.0
 11
251.365410941263
 21
171.064708584545
 31
0.0
  0
LINE
  5
   6AF
  8
0
  6
CONTINUOUS
 62
     1
 10
250.105410962721
 20
162.069708737729
 30
0.0
 11
250.105410962721
 21
171.064708584545
 31
0.0
  0
LINE
  5
   6B0
  8
0
  6
CONTINUOUS
 62
     1
 10
248.845410984178
 20
162.069708737729
 30
0.0
 11
248.845410984178
 21
171.064708584545
 31
0.0
  0
LINE
  5
   6B1
  8
0
  6
CONTINUOUS
 62
     1
 10
247.585411005636
 20
162.069708737729
 30
0.0
 11
247.585411005636
 21
171.064708584545
 31
0.0
  0
LINE
  5
   6B2
  8
0
  6
CONTINUOUS
 62
     1
 10
246.325411027094
 20
162.069708737729
 30
0.0
 11
246.325411027094
 21
171.064708584545
 31
0.0
  0
LINE
  5
   6B3
  8
0
  6
CONTINUOUS
 62
     1
 10
245.065411048551
 20
162.069708737729
 30
0.0
 11
245.065411048551
 21
171.064708584545
 31
0.0
  0
LINE
  5
   6B4
  8
0
  6
CONTINUOUS
 62
     1
 10
243.805411070009
 20
162.069708737729
 30
0.0
 11
243.805411070009
 21
171.064708584545
 31
0.0
  0
LINE
  5
   6B5
  8
0
  6
CONTINUOUS
 62
     1
 10
242.545411091467
 20
162.069708737729
 30
0.0
 11
242.545411091467
 21
171.064708584545
 31
0.0
  0
LINE
  5
   6B6
  8
0
  6
CONTINUOUS
 62
     1
 10
217.520427098382
 20
27.2147247301583
 30
0.0
 11
217.520427098382
 21
35.3347245918755
 31
0.0
  0
LINE
  5
   6B7
  8
0
  6
CONTINUOUS
 62
     1
 10
218.780427076925
 20
27.2147247301583
 30
0.0
 11
218.780427076925
 21
35.3347245918755
 31
0.0
  0
LINE
  5
   6B8
  8
0
  6
CONTINUOUS
 62
     1
 10
220.040427055467
 20
27.2147247301583
 30
0.0
 11
220.040427055467
 21
35.3347245918755
 31
0.0
  0
LINE
  5
   6B9
  8
0
  6
CONTINUOUS
 62
     1
 10
221.300427034009
 20
27.2147247301583
 30
0.0
 11
221.300427034009
 21
35.3347245918755
 31
0.0
  0
LINE
  5
   6BA
  8
0
  6
CONTINUOUS
 62
     1
 10
222.560427012552
 20
27.2147247301583
 30
0.0
 11
222.560427012552
 21
35.3347245918755
 31
0.0
  0
LINE
  5
   6BB
  8
0
  6
CONTINUOUS
 62
     1
 10
223.820426991094
 20
27.2147247301583
 30
0.0
 11
223.820426991094
 21
35.3347245918755
 31
0.0
  0
LINE
  5
   6BC
  8
0
  6
CONTINUOUS
 62
     1
 10
225.080426969636
 20
27.2147247301583
 30
0.0
 11
225.080426969636
 21
35.3347245918755
 31
0.0
  0
LINE
  5
   6BD
  8
0
  6
CONTINUOUS
 62
     1
 10
226.340426948179
 20
27.2147247301583
 30
0.0
 11
226.340426948179
 21
35.3347245918755
 31
0.0
  0
LINE
  5
   6BE
  8
0
  6
CONTINUOUS
 62
     1
 10
227.600426926721
 20
27.2147247301583
 30
0.0
 11
227.600426926721
 21
35.3347245918755
 31
0.0
  0
LINE
  5
   6BF
  8
0
  6
CONTINUOUS
 62
     1
 10
228.860426905263
 20
27.2147247301583
 30
0.0
 11
228.860426905263
 21
35.3347245918755
 31
0.0
  0
LINE
  5
   6C0
  8
0
  6
CONTINUOUS
 62
     1
 10
230.120426883806
 20
27.2147247301583
 30
0.0
 11
230.120426883806
 21
35.3347245918755
 31
0.0
  0
LINE
  5
   6C1
  8
0
  6
CONTINUOUS
 62
     1
 10
231.380426862348
 20
27.2147247301583
 30
0.0
 11
231.380426862348
 21
35.3347245918755
 31
0.0
  0
LINE
  5
   6C2
  8
0
  6
CONTINUOUS
 62
     1
 10
232.64042684089
 20
27.2147247301583
 30
0.0
 11
232.64042684089
 21
35.3347245918755
 31
0.0
  0
LINE
  5
   6C3
  8
0
  6
CONTINUOUS
 62
     1
 10
233.900426819433
 20
27.2147247301583
 30
0.0
 11
233.900426819433
 21
35.3347245918755
 31
0.0
  0
LINE
  5
   6C4
  8
0
  6
CONTINUOUS
 62
     1
 10
235.160426797975
 20
27.2147247301583
 30
0.0
 11
235.160426797975
 21
35.3347245918755
 31
0.0
  0
LINE
  5
   6C5
  8
0
  6
CONTINUOUS
 62
     1
 10
236.420426776517
 20
27.2147247301583
 30
0.0
 11
236.420426776517
 21
35.3347245918755
 31
0.0
  0
LINE
  5
   6C6
  8
0
  6
CONTINUOUS
 62
     1
 10
237.68042675506
 20
27.2147247301583
 30
0.0
 11
237.68042675506
 21
35.3347245918755
 31
0.0
  0
LINE
  5
   6C7
  8
0
  6
CONTINUOUS
 62
     1
 10
238.940426733602
 20
27.2147247301583
 30
0.0
 11
238.940426733602
 21
35.3347245918755
 31
0.0
  0
LINE
  5
   6C8
  8
0
  6
CONTINUOUS
 62
     1
 10
240.200426712144
 20
27.2147247301583
 30
0.0
 11
240.200426712144
 21
35.3347245918755
 31
0.0
  0
LINE
  5
   6C9
  8
0
  6
CONTINUOUS
 62
     1
 10
265.225410705228
 20
27.2147247301583
 30
0.0
 11
265.225410705228
 21
35.3347245918755
 31
0.0
  0
LINE
  5
   6CA
  8
0
  6
CONTINUOUS
 62
     1
 10
263.965410726686
 20
27.2147247301583
 30
0.0
 11
263.965410726686
 21
35.3347245918755
 31
0.0
  0
LINE
  5
   6CB
  8
0
  6
CONTINUOUS
 62
     1
 10
262.705410748144
 20
27.2147247301583
 30
0.0
 11
262.705410748144
 21
35.3347245918755
 31
0.0
  0
LINE
  5
   6CC
  8
0
  6
CONTINUOUS
 62
     1
 10
261.445410769602
 20
27.2147247301583
 30
0.0
 11
261.445410769602
 21
35.3347245918755
 31
0.0
  0
LINE
  5
   6CD
  8
0
  6
CONTINUOUS
 62
     1
 10
260.185410791059
 20
27.2147247301583
 30
0.0
 11
260.185410791059
 21
35.3347245918755
 31
0.0
  0
LINE
  5
   6CE
  8
0
  6
CONTINUOUS
 62
     1
 10
258.925410812517
 20
27.2147247301583
 30
0.0
 11
258.925410812517
 21
35.3347245918755
 31
0.0
  0
LINE
  5
   6CF
  8
0
  6
CONTINUOUS
 62
     1
 10
257.665410833975
 20
27.2147247301583
 30
0.0
 11
257.665410833975
 21
35.3347245918755
 31
0.0
  0
LINE
  5
   6D0
  8
0
  6
CONTINUOUS
 62
     1
 10
256.405410855432
 20
27.2147247301583
 30
0.0
 11
256.405410855432
 21
35.3347245918755
 31
0.0
  0
LINE
  5
   6D1
  8
0
  6
CONTINUOUS
 62
     1
 10
255.14541087689
 20
27.2147247301583
 30
0.0
 11
255.14541087689
 21
35.3347245918755
 31
0.0
  0
LINE
  5
   6D2
  8
0
  6
CONTINUOUS
 62
     1
 10
253.885410898348
 20
27.2147247301583
 30
0.0
 11
253.885410898348
 21
35.3347245918755
 31
0.0
  0
LINE
  5
   6D3
  8
0
  6
CONTINUOUS
 62
     1
 10
252.625410919805
 20
27.2147247301583
 30
0.0
 11
252.625410919805
 21
35.3347245918755
 31
0.0
  0
LINE
  5
   6D4
  8
0
  6
CONTINUOUS
 62
     1
 10
251.365410941263
 20
27.2147247301583
 30
0.0
 11
251.365410941263
 21
35.3347245918755
 31
0.0
  0
LINE
  5
   6D5
  8
0
  6
CONTINUOUS
 62
     1
 10
250.105410962721
 20
27.2147247301583
 30
0.0
 11
250.105410962721
 21
35.3347245918755
 31
0.0
  0
LINE
  5
   6D6
  8
0
  6
CONTINUOUS
 62
     1
 10
248.845410984178
 20
27.2147247301583
 30
0.0
 11
248.845410984178
 21
35.3347245918755
 31
0.0
  0
LINE
  5
   6D7
  8
0
  6
CONTINUOUS
 62
     1
 10
247.585411005636
 20
27.2147247301583
 30
0.0
 11
247.585411005636
 21
35.3347245918755
 31
0.0
  0
LINE
  5
   6D8
  8
0
  6
CONTINUOUS
 62
     1
 10
246.325411027094
 20
27.2147247301583
 30
0.0
 11
246.325411027094
 21
35.3347245918755
 31
0.0
  0
LINE
  5
   6D9
  8
0
  6
CONTINUOUS
 62
     1
 10
245.065411048551
 20
27.2147247301583
 30
0.0
 11
245.065411048551
 21
35.3347245918755
 31
0.0
  0
LINE
  5
   6DA
  8
0
  6
CONTINUOUS
 62
     1
 10
243.805411070009
 20
27.2147247301583
 30
0.0
 11
243.805411070009
 21
35.3347245918755
 31
0.0
  0
LINE
  5
   6DB
  8
0
  6
CONTINUOUS
 62
     1
 10
242.545411091467
 20
27.2147247301583
 30
0.0
 11
242.545411091467
 21
35.3347245918755
 31
0.0
  0
LINE
  5
   6DC
  8
0
  6
CONTINUOUS
 62
     1
 10
216.26042711984
 20
27.2147247301583
 30
0.0
 11
216.26042711984
 21
35.3347245918755
 31
0.0
  0
LINE
  5
   6DD
  8
0
  6
CONTINUOUS
 62
     1
 10
215.000427141298
 20
27.2147247301583
 30
0.0
 11
215.000427141298
 21
35.3347245918755
 31
0.0
  0
LINE
  5
   6DE
  8
0
  6
CONTINUOUS
 62
     1
 10
213.740427162755
 20
27.2147247301583
 30
0.0
 11
213.740427162755
 21
35.3347245918755
 31
0.0
  0
LINE
  5
   6DF
  8
0
  6
CONTINUOUS
 62
     1
 10
212.480427184213
 20
27.2147247301583
 30
0.0
 11
212.480427184213
 21
35.3347245918755
 31
0.0
  0
LINE
  5
   6E0
  8
0
  6
CONTINUOUS
 62
     1
 10
211.220427205671
 20
27.2147247301583
 30
0.0
 11
211.220427205671
 21
35.3347245918755
 31
0.0
  0
LINE
  5
   6E1
  8
0
  6
CONTINUOUS
 62
     1
 10
209.960427227128
 20
27.2147247301583
 30
0.0
 11
209.960427227128
 21
35.3347245918755
 31
0.0
  0
LINE
  5
   6E2
  8
0
  6
CONTINUOUS
 62
     1
 10
208.700427248586
 20
27.2147247301583
 30
0.0
 11
208.700427248586
 21
35.3347245918755
 31
0.0
  0
LINE
  5
   6E3
  8
0
  6
CONTINUOUS
 62
     1
 10
207.440427270044
 20
27.2147247301583
 30
0.0
 11
207.440427270044
 21
35.3347245918755
 31
0.0
  0
LINE
  5
   6E4
  8
0
  6
CONTINUOUS
 62
     1
 10
206.180427291501
 20
27.2147247301583
 30
0.0
 11
206.180427291501
 21
35.3347245918755
 31
0.0
  0
LINE
  5
   6E5
  8
0
  6
CONTINUOUS
 62
     1
 10
266.485410683771
 20
27.2147247301583
 30
0.0
 11
266.485410683771
 21
35.3347245918755
 31
0.0
  0
LINE
  5
   6E6
  8
0
  6
CONTINUOUS
 62
     1
 10
267.745410662313
 20
27.2147247301583
 30
0.0
 11
267.745410662313
 21
35.3347245918755
 31
0.0
  0
LINE
  5
   6E7
  8
0
  6
CONTINUOUS
 62
     1
 10
269.005410640855
 20
27.2147247301583
 30
0.0
 11
269.005410640855
 21
35.3347245918755
 31
0.0
  0
LINE
  5
   6E8
  8
0
  6
CONTINUOUS
 62
     1
 10
270.265410619398
 20
27.2147247301583
 30
0.0
 11
270.265410619398
 21
35.3347245918755
 31
0.0
  0
LINE
  5
   6E9
  8
0
  6
CONTINUOUS
 62
     1
 10
271.52541059794
 20
27.2147247301583
 30
0.0
 11
271.52541059794
 21
35.3347245918755
 31
0.0
  0
LINE
  5
   6EA
  8
0
  6
CONTINUOUS
 62
     1
 10
272.785410576482
 20
27.2147247301583
 30
0.0
 11
272.785410576482
 21
35.3347245918755
 31
0.0
  0
LINE
  5
   6EB
  8
0
  6
CONTINUOUS
 62
     1
 10
274.045410555025
 20
27.2147247301583
 30
0.0
 11
274.045410555025
 21
35.3347245918755
 31
0.0
  0
LINE
  5
   6EC
  8
0
  6
CONTINUOUS
 62
     1
 10
275.305410533567
 20
27.2147247301583
 30
0.0
 11
275.305410533567
 21
35.3347245918755
 31
0.0
  0
LINE
  5
   6ED
  8
0
  6
CONTINUOUS
 62
     1
 10
276.565410512109
 20
27.2147247301583
 30
0.0
 11
276.565410512109
 21
35.3347245918755
 31
0.0
  0
LINE
  5
   6EE
  8
0
  6
CONTINUOUS
 62
     7
 10
287.222916615876
 20
101.939734308499
 30
0.0
 11
288.447970170746
 21
101.939734308499
 31
0.0
  0
LINE
  5
   6EF
  8
0
  6
CONTINUOUS
 62
     1
 10
287.222916615876
 20
90.7397398398098
 30
0.0
 11
288.447970170746
 21
90.7397398398098
 31
0.0
  0
LINE
  5
   6F0
  8
0
  6
CONTINUOUS
 62
     1
 10
287.222916615876
 20
80.2397304055592
 30
0.0
 11
288.797964824273
 21
80.2397320077823
 31
0.0
  0
LINE
  5
   6F1
  8
0
  6
CONTINUOUS
 62
     7
 10
287.222916615876
 20
51.2772298307
 30
0.0
 11
288.797970164786
 21
51.2772298307
 31
0.0
  0
LINE
  5
   6F2
  8
0
  6
DASHDOT
 62
     7
 10
284.072969550187
 20
63.1772218380446
 30
0.0
 11
284.072969550187
 21
68.9522218607805
 31
0.0
  0
LINE
  5
   6F3
  8
0
  6
DASHDOT
 62
     7
 10
281.185469538819
 20
66.0647218494125
 30
0.0
 11
286.960469561555
 21
66.0647218494125
 31
0.0
  0
INSERT
  5
   6F4
  8
255
  6
CONTINUOUS
 62
     2
  2
$1MOSTRA
 10
241.372917396696
 20
54.6022420452213
 30
0.0
 41
0.349999994039536
 42
0.349999994039536
 50
359.999999792138
 43
0.349999994039536
  0
LINE
  5
   6F5
  8
0
  6
CONTINUOUS
 62
     3
 10
73.8461423702634
 20
54.3397351191257
 30
0.0
 11
86.752370788167
 21
54.3397431299895
 31
0.0
  0
LINE
  5
   6F6
  8
0
  6
CONTINUOUS
 62
     7
 10
180.560464148268
 20
171.064708584545
 30
0.0
 11
277.685418283407
 21
171.064708584545
 31
0.0
  0
LINE
  5
   6F7
  8
0
  6
CONTINUOUS
 62
     7
 10
278.122918275957
 20
27.6522247227077
 30
0.0
 11
278.122918275957
 21
45.764734852431
 31
0.0
  0
LINE
  5
   6F8
  8
0
  6
CONTINUOUS
 62
     7
 10
278.122918275957
 20
114.364735686896
 30
0.0
 11
278.122918275957
 21
170.627208591996
 31
0.0
  0
ARC
  5
   6F9
  8
0
  6
CONTINUOUS
 62
     7
 10
277.685418283407
 20
27.6522247227077
 30
0.0
 40
0.437499992549419
 50
270.0
 51
360.0
  0
LINE
  5
   6FA
  8
0
  6
DOT
 62
     7
 10
278.122918275957
 20
45.764734852431
 30
0.0
 11
278.122918275957
 21
114.364735686896
 31
0.0
  0
LINE
  5
   6FB
  8
0
  6
CONTINUOUS
 62
     7
 10
180.560464148268
 20
113.419709566234
 30
0.0
 11
207.772917968901
 21
113.419709566234
 31
0.0
  0
LINE
  5
   6FC
  8
0
  6
CONTINUOUS
 62
     7
 10
180.122964155718
 20
113.244709569214
 30
0.0
 11
207.772917968901
 21
113.244709569214
 31
0.0
  0
LINE
  5
   6FD
  8
0
  6
CONTINUOUS
 62
     7
 10
180.560464148268
 20
113.769709560273
 30
0.0
 11
207.772917968901
 21
113.769709560273
 31
0.0
  0
LINE
  5
   6FE
  8
0
  6
CONTINUOUS
 62
     7
 10
277.772918281917
 20
114.364735686896
 30
0.0
 11
277.772918281917
 21
114.631836512707
 31
0.0
  0
LINE
  5
   6FF
  8
0
  6
CONTINUOUS
 62
     1
 10
206.180427224744
 20
113.769709560273
 30
0.0
 11
206.180427224744
 21
161.54470874667
 31
0.0
  0
LINE
  5
   700
  8
0
  6
CONTINUOUS
 62
     1
 10
207.440427003015
 20
113.769709560273
 30
0.0
 11
207.440427003015
 21
161.54470874667
 31
0.0
  0
LINE
  5
   701
  8
0
  6
CONTINUOUS
 62
     1
 10
208.700427115072
 20
114.364735686896
 30
0.0
 11
208.700427115072
 21
161.54470874667
 31
0.0
  0
ARC
  5
   702
  8
0
  6
CONTINUOUS
 62
     7
 10
277.685418283407
 20
170.627208591996
 30
0.0
 40
0.437499992549419
 50
0.0
 51
90.0
  0
LINE
  5
   703
  8
0
  6
CONTINUOUS
 62
     1
 10
180.472964149758
 20
161.71970874369
 30
0.0
 11
277.772918281917
 21
161.71970874369
 31
0.0
  0
LINE
  5
   704
  8
0
  6
CONTINUOUS
 62
     1
 10
180.122964155718
 20
161.54470874667
 30
0.0
 11
278.122918275957
 21
161.54470874667
 31
0.0
  0
LINE
  5
   705
  8
0
  6
CONTINUOUS
 62
     1
 10
180.122964155718
 20
162.069708737729
 30
0.0
 11
278.122918275957
 21
162.069708737729
 31
0.0
  0
LINE
  5
   706
  8
0
  6
CONTINUOUS
 62
     1
 10
277.772918281917
 20
162.419708731769
 30
0.0
 11
277.772918281917
 21
162.944708722828
 31
0.0
  0
LINE
  5
   707
  8
0
  6
CONTINUOUS
 62
     1
 10
216.26042711984
 20
162.069708737729
 30
0.0
 11
216.26042711984
 21
171.064708584545
 31
0.0
  0
LINE
  5
   708
  8
0
  6
CONTINUOUS
 62
     1
 10
215.000425005067
 20
162.069708737729
 30
0.0
 11
215.000425005067
 21
171.064708584545
 31
0.0
  0
LINE
  5
   709
  8
0
  6
CONTINUOUS
 62
     1
 10
213.740422890295
 20
162.069708737729
 30
0.0
 11
213.740422890295
 21
171.064708584545
 31
0.0
  0
LINE
  5
   70A
  8
0
  6
CONTINUOUS
 62
     1
 10
211.220424001325
 20
162.069708737729
 30
0.0
 11
211.220424001325
 21
171.064708584545
 31
0.0
  0
LINE
  5
   70B
  8
0
  6
CONTINUOUS
 62
     1
 10
209.960427227128
 20
162.069708737729
 30
0.0
 11
209.960427227128
 21
171.064708584545
 31
0.0
  0
LINE
  5
   70C
  8
0
  6
CONTINUOUS
 62
     1
 10
212.480426116098
 20
162.069708737729
 30
0.0
 11
212.480426116098
 21
171.064708584545
 31
0.0
  0
LINE
  5
   70D
  8
0
  6
CONTINUOUS
 62
     1
 10
206.180427224744
 20
162.069708737729
 30
0.0
 11
206.180427224744
 21
171.064708584545
 31
0.0
  0
LINE
  5
   70E
  8
0
  6
CONTINUOUS
 62
     1
 10
207.440427003015
 20
162.069708737729
 30
0.0
 11
207.440427003015
 21
171.064708584545
 31
0.0
  0
LINE
  5
   70F
  8
0
  6
CONTINUOUS
 62
     1
 10
208.700427115072
 20
162.069708737729
 30
0.0
 11
208.700427115072
 21
171.064708584545
 31
0.0
  0
LINE
  5
   710
  8
0
  6
CONTINUOUS
 62
     1
 10
276.565421820391
 20
162.069708737729
 30
0.0
 11
276.565421820391
 21
171.064708584545
 31
0.0
  0
LINE
  5
   711
  8
0
  6
CONTINUOUS
 62
     1
 10
277.370422874797
 20
162.069708737729
 30
0.0
 11
277.370422874797
 21
171.064708584545
 31
0.0
  0
LINE
  5
   712
  8
0
  6
CONTINUOUS
 62
     1
 10
271.525424042452
 20
162.069708737729
 30
0.0
 11
271.525424042452
 21
171.064708584545
 31
0.0
  0
LINE
  5
   713
  8
0
  6
CONTINUOUS
 62
     1
 10
272.785420816649
 20
162.069708737729
 30
0.0
 11
272.785420816649
 21
171.064708584545
 31
0.0
  0
LINE
  5
   714
  8
0
  6
CONTINUOUS
 62
     1
 10
274.045422931422
 20
162.069708737729
 30
0.0
 11
274.045422931422
 21
171.064708584545
 31
0.0
  0
LINE
  5
   715
  8
0
  6
CONTINUOUS
 62
     1
 10
275.305425046195
 20
162.069708737729
 30
0.0
 11
275.305425046195
 21
171.064708584545
 31
0.0
  0
LINE
  5
   716
  8
0
  6
CONTINUOUS
 62
     1
 10
266.660420920957
 20
162.069708737729
 30
0.0
 11
266.660420920957
 21
171.064708584545
 31
0.0
  0
LINE
  5
   717
  8
0
  6
CONTINUOUS
 62
     1
 10
267.74542303871
 20
162.069708737729
 30
0.0
 11
267.74542303871
 21
171.064708584545
 31
0.0
  0
LINE
  5
   718
  8
0
  6
CONTINUOUS
 62
     1
 10
269.005425153483
 20
162.069708737729
 30
0.0
 11
269.005425153483
 21
171.064708584545
 31
0.0
  0
LINE
  5
   719
  8
0
  6
CONTINUOUS
 62
     1
 10
270.265421927679
 20
162.069708737729
 30
0.0
 11
270.265421927679
 21
171.064708584545
 31
0.0
  0
LINE
  5
   71A
  8
0
  6
CONTINUOUS
 62
     7
 10
180.442370354893
 20
35.684724585915
 30
0.0
 11
277.772918281917
 21
35.684724585915
 31
0.0
  0
LINE
  5
   71B
  8
0
  6
CONTINUOUS
 62
     7
 10
180.122964155718
 20
35.3347245918755
 30
0.0
 11
278.122918275957
 21
35.3347245918755
 31
0.0
  0
LINE
  5
   71C
  8
0
  6
CONTINUOUS
 62
     7
 10
180.122964155718
 20
35.8597245829348
 30
0.0
 11
278.122918275957
 21
35.8597245829348
 31
0.0
  0
LINE
  5
   71D
  8
0
  6
CONTINUOUS
 62
     7
 10
277.772918281917
 20
35.3347245918755
 30
0.0
 11
277.772918281917
 21
35.8597245829348
 31
0.0
  0
LINE
  5
   71E
  8
0
  6
CONTINUOUS
 62
     1
 10
216.26042711984
 20
35.8597245829348
 30
0.0
 11
216.26042711984
 21
45.764734852431
 31
0.0
  0
LINE
  5
   71F
  8
0
  6
CONTINUOUS
 62
     1
 10
215.000427141298
 20
35.8597245829348
 30
0.0
 11
215.000427141298
 21
45.764734852431
 31
0.0
  0
LINE
  5
   720
  8
0
  6
CONTINUOUS
 62
     1
 10
213.740427162755
 20
35.8597245829348
 30
0.0
 11
213.740427162755
 21
45.764734852431
 31
0.0
  0
LINE
  5
   721
  8
0
  6
CONTINUOUS
 62
     1
 10
212.480427184213
 20
35.8597245829348
 30
0.0
 11
212.480427184213
 21
45.764734852431
 31
0.0
  0
LINE
  5
   722
  8
0
  6
CONTINUOUS
 62
     1
 10
211.220427205671
 20
35.8597245829348
 30
0.0
 11
211.220427205671
 21
45.764734852431
 31
0.0
  0
LINE
  5
   723
  8
0
  6
CONTINUOUS
 62
     1
 10
209.960427227128
 20
35.8597245829348
 30
0.0
 11
209.960427227128
 21
45.764734852431
 31
0.0
  0
LINE
  5
   724
  8
0
  6
CONTINUOUS
 62
     1
 10
208.700427248586
 20
35.8597245829348
 30
0.0
 11
208.700427248586
 21
45.764734852431
 31
0.0
  0
LINE
  5
   725
  8
0
  6
CONTINUOUS
 62
     1
 10
207.440427270044
 20
35.8597245829348
 30
0.0
 11
207.440427270044
 21
51.7147243129424
 31
0.0
  0
LINE
  5
   726
  8
0
  6
CONTINUOUS
 62
     1
 10
206.180427291501
 20
35.8597245829348
 30
0.0
 11
206.180427291501
 21
52.0647242861203
 31
0.0
  0
LINE
  5
   727
  8
0
  6
CONTINUOUS
 62
     1
 10
266.485410683771
 20
35.8597245829348
 30
0.0
 11
266.485410683771
 21
45.764734852431
 31
0.0
  0
LINE
  5
   728
  8
0
  6
CONTINUOUS
 62
     1
 10
267.745410662313
 20
35.8597245829348
 30
0.0
 11
267.745410662313
 21
45.764734852431
 31
0.0
  0
LINE
  5
   729
  8
0
  6
CONTINUOUS
 62
     1
 10
269.005410640855
 20
35.8597245829348
 30
0.0
 11
269.005410640855
 21
45.764734852431
 31
0.0
  0
LINE
  5
   72A
  8
0
  6
CONTINUOUS
 62
     1
 10
270.265410619398
 20
35.8597245829348
 30
0.0
 11
270.265410619398
 21
45.764734852431
 31
0.0
  0
LINE
  5
   72B
  8
0
  6
CONTINUOUS
 62
     1
 10
271.52541059794
 20
35.8597245829348
 30
0.0
 11
271.52541059794
 21
45.764734852431
 31
0.0
  0
LINE
  5
   72C
  8
0
  6
CONTINUOUS
 62
     1
 10
272.785410576482
 20
35.8597245829348
 30
0.0
 11
272.785410576482
 21
45.764734852431
 31
0.0
  0
LINE
  5
   72D
  8
0
  6
CONTINUOUS
 62
     1
 10
274.045410555025
 20
35.8597245829348
 30
0.0
 11
274.045410555025
 21
45.764734852431
 31
0.0
  0
LINE
  5
   72E
  8
0
  6
CONTINUOUS
 62
     1
 10
275.305410533567
 20
35.8597245829348
 30
0.0
 11
275.305410533567
 21
45.764734852431
 31
0.0
  0
LINE
  5
   72F
  8
0
  6
CONTINUOUS
 62
     1
 10
276.565410512109
 20
35.8597245829348
 30
0.0
 11
276.565410512109
 21
45.764734852431
 31
0.0
  0
LINE
  5
   730
  8
0
  6
CONTINUOUS
 62
     1
 10
265.872918484573
 20
35.8597245829348
 30
0.0
 11
265.872918484573
 21
45.764734852431
 31
0.0
  0
LINE
  5
   731
  8
0
  6
CONTINUOUS
 62
     1
 10
216.872919319038
 20
35.8597245829348
 30
0.0
 11
216.872919319038
 21
45.764734852431
 31
0.0
  0
LINE
  5
   732
  8
0
  6
CONTINUOUS
 62
     1
 10
217.397919310097
 20
159.86470877528
 30
0.0
 11
265.347918493514
 21
159.86470877528
 31
0.0
  0
LINE
  5
   733
  8
0
  6
CONTINUOUS
 62
     1
 10
217.397919310097
 20
152.51470890045
 30
0.0
 11
265.347918493514
 21
152.51470890045
 31
0.0
  0
LINE
  5
   734
  8
0
  6
CONTINUOUS
 62
     1
 10
217.397919310097
 20
152.51470890045
 30
0.0
 11
217.397919310097
 21
159.86470877528
 31
0.0
  0
LINE
  5
   735
  8
0
  6
CONTINUOUS
 62
     1
 10
265.347918493514
 20
152.51470890045
 30
0.0
 11
265.347918493514
 21
159.86470877528
 31
0.0
  0
LINE
  5
   736
  8
0
  6
CONTINUOUS
 62
     1
 10
236.245418989126
 20
115.064709538219
 30
0.0
 11
236.875418978397
 21
115.064709538219
 31
0.0
  0
LINE
  5
   737
  8
0
  6
CONTINUOUS
 62
     1
 10
236.245418989126
 20
119.264709466694
 30
0.0
 11
236.875418978397
 21
119.264709466694
 31
0.0
  0
LINE
  5
   738
  8
0
  6
CONTINUOUS
 62
     1
 10
241.915418892567
 20
115.064709538219
 30
0.0
 11
241.915418892567
 21
118.039709487555
 31
0.0
  0
LINE
  5
   739
  8
0
  6
CONTINUOUS
 62
     1
 10
241.285418903296
 20
115.064709538219
 30
0.0
 11
241.285418903296
 21
118.039709487555
 31
0.0
  0
LINE
  5
   73A
  8
0
  6
CONTINUOUS
 62
     1
 10
240.025418924753
 20
115.064709538219
 30
0.0
 11
240.025418924753
 21
118.039709487555
 31
0.0
  0
LINE
  5
   73B
  8
0
  6
CONTINUOUS
 62
     1
 10
240.655418914024
 20
115.064709538219
 30
0.0
 11
240.655418914024
 21
118.039709487555
 31
0.0
  0
LINE
  5
   73C
  8
0
  6
CONTINUOUS
 62
     1
 10
239.395418935482
 20
115.064709538219
 30
0.0
 11
239.395418935482
 21
119.264709466694
 31
0.0
  0
LINE
  5
   73D
  8
0
  6
CONTINUOUS
 62
     1
 10
242.545418881838
 20
115.064709538219
 30
0.0
 11
242.545418881838
 21
119.264709466694
 31
0.0
  0
LINE
  5
   73E
  8
0
  6
CONTINUOUS
 62
     1
 10
243.175418871109
 20
115.064709538219
 30
0.0
 11
243.175418871109
 21
119.264709466694
 31
0.0
  0
LINE
  5
   73F
  8
0
  6
CONTINUOUS
 62
     1
 10
243.80541886038
 20
115.064709538219
 30
0.0
 11
243.80541886038
 21
119.264709466694
 31
0.0
  0
LINE
  5
   740
  8
0
  6
CONTINUOUS
 62
     1
 10
244.435418849651
 20
115.064709538219
 30
0.0
 11
244.435418849651
 21
119.264709466694
 31
0.0
  0
LINE
  5
   741
  8
0
  6
CONTINUOUS
 62
     1
 10
245.065418838923
 20
115.064709538219
 30
0.0
 11
245.065418838923
 21
119.264709466694
 31
0.0
  0
LINE
  5
   742
  8
0
  6
CONTINUOUS
 62
     1
 10
245.695418828194
 20
115.064709538219
 30
0.0
 11
245.695418828194
 21
119.264709466694
 31
0.0
  0
LINE
  5
   743
  8
0
  6
CONTINUOUS
 62
     1
 10
238.765418946211
 20
115.064709538219
 30
0.0
 11
238.765418946211
 21
119.264709466694
 31
0.0
  0
LINE
  5
   744
  8
0
  6
CONTINUOUS
 62
     1
 10
238.13541895694
 20
115.064709538219
 30
0.0
 11
238.13541895694
 21
119.264709466694
 31
0.0
  0
LINE
  5
   745
  8
0
  6
CONTINUOUS
 62
     1
 10
237.505418967669
 20
115.064709538219
 30
0.0
 11
237.505418967669
 21
119.264709466694
 31
0.0
  0
LINE
  5
   746
  8
0
  6
CONTINUOUS
 62
     1
 10
236.875418978397
 20
115.064709538219
 30
0.0
 11
236.875418978397
 21
119.264709466694
 31
0.0
  0
LINE
  5
   747
  8
0
  6
CONTINUOUS
 62
     1
 10
236.245418989126
 20
115.064709538219
 30
0.0
 11
236.245418989126
 21
119.264709466694
 31
0.0
  0
LINE
  5
   748
  8
0
  6
CONTINUOUS
 62
     1
 10
238.765418946211
 20
119.264709466694
 30
0.0
 11
239.395418935482
 21
119.264709466694
 31
0.0
  0
LINE
  5
   749
  8
0
  6
CONTINUOUS
 62
     1
 10
237.505418967669
 20
119.264709466694
 30
0.0
 11
238.13541895694
 21
119.264709466694
 31
0.0
  0
LINE
  5
   74A
  8
0
  6
CONTINUOUS
 62
     1
 10
237.505418967669
 20
115.064709538219
 30
0.0
 11
238.13541895694
 21
115.064709538219
 31
0.0
  0
LINE
  5
   74B
  8
0
  6
CONTINUOUS
 62
     1
 10
238.765418946211
 20
115.064709538219
 30
0.0
 11
239.395418935482
 21
115.064709538219
 31
0.0
  0
LINE
  5
   74C
  8
0
  6
CONTINUOUS
 62
     1
 10
243.80541886038
 20
119.264709466694
 30
0.0
 11
244.435418849651
 21
119.264709466694
 31
0.0
  0
LINE
  5
   74D
  8
0
  6
CONTINUOUS
 62
     1
 10
243.80541886038
 20
115.064709538219
 30
0.0
 11
244.435418849651
 21
115.064709538219
 31
0.0
  0
LINE
  5
   74E
  8
0
  6
CONTINUOUS
 62
     1
 10
245.065418838923
 20
115.064709538219
 30
0.0
 11
245.695418828194
 21
115.064709538219
 31
0.0
  0
LINE
  5
   74F
  8
0
  6
CONTINUOUS
 62
     1
 10
245.065418838923
 20
119.264709466694
 30
0.0
 11
245.695418828194
 21
119.264709466694
 31
0.0
  0
LINE
  5
   750
  8
0
  6
CONTINUOUS
 62
     1
 10
242.545418881838
 20
119.264709466694
 30
0.0
 11
243.175418871109
 21
119.264709466694
 31
0.0
  0
LINE
  5
   751
  8
0
  6
CONTINUOUS
 62
     1
 10
240.025418924753
 20
118.039709487555
 30
0.0
 11
240.655418914024
 21
118.039709487555
 31
0.0
  0
LINE
  5
   752
  8
0
  6
CONTINUOUS
 62
     1
 10
241.285418903296
 20
118.039709487555
 30
0.0
 11
241.868525969423
 21
118.039709487555
 31
0.0
  0
LINE
  5
   753
  8
0
  6
CONTINUOUS
 62
     1
 10
241.285418903296
 20
115.064709538219
 30
0.0
 11
241.915418892567
 21
115.064709538219
 31
0.0
  0
LINE
  5
   754
  8
0
  6
CONTINUOUS
 62
     1
 10
240.025418924753
 20
115.064709538219
 30
0.0
 11
240.655418914024
 21
115.064709538219
 31
0.0
  0
LINE
  5
   755
  8
0
  6
CONTINUOUS
 62
     1
 10
242.545418881838
 20
115.064709538219
 30
0.0
 11
243.175418871109
 21
115.064709538219
 31
0.0
  0
LINE
  5
   756
  8
0
  6
CONTINUOUS
 62
     1
 10
211.850427194942
 20
115.064709538219
 30
0.0
 11
211.850427194942
 21
119.264709466694
 31
0.0
  0
LINE
  5
   757
  8
0
  6
CONTINUOUS
 62
     1
 10
211.850427194942
 20
119.264709466694
 30
0.0
 11
212.480427184213
 21
119.264709466694
 31
0.0
  0
LINE
  5
   758
  8
0
  6
CONTINUOUS
 62
     1
 10
211.850427194942
 20
115.064709538219
 30
0.0
 11
212.480427184213
 21
115.064709538219
 31
0.0
  0
LINE
  5
   759
  8
0
  6
CONTINUOUS
 62
     1
 10
213.110427173484
 20
119.264709466694
 30
0.0
 11
213.740427162755
 21
119.264709466694
 31
0.0
  0
LINE
  5
   75A
  8
0
  6
CONTINUOUS
 62
     1
 10
213.110427173484
 20
115.064709538219
 30
0.0
 11
213.110427173484
 21
119.264709466694
 31
0.0
  0
LINE
  5
   75B
  8
0
  6
CONTINUOUS
 62
     1
 10
213.110427173484
 20
115.064709538219
 30
0.0
 11
213.740427162755
 21
115.064709538219
 31
0.0
  0
LINE
  5
   75C
  8
0
  6
CONTINUOUS
 62
     1
 10
214.370427152027
 20
119.264709466694
 30
0.0
 11
215.000427141298
 21
119.264709466694
 31
0.0
  0
LINE
  5
   75D
  8
0
  6
CONTINUOUS
 62
     1
 10
214.370427152027
 20
115.064709538219
 30
0.0
 11
214.370427152027
 21
119.264709466694
 31
0.0
  0
LINE
  5
   75E
  8
0
  6
CONTINUOUS
 62
     1
 10
214.370427152027
 20
115.064709538219
 30
0.0
 11
215.000427141298
 21
115.064709538219
 31
0.0
  0
LINE
  5
   75F
  8
0
  6
CONTINUOUS
 62
     1
 10
215.630427130569
 20
118.039709487555
 30
0.0
 11
216.26042711984
 21
118.039709487555
 31
0.0
  0
LINE
  5
   760
  8
0
  6
CONTINUOUS
 62
     1
 10
215.630427130569
 20
115.064709538219
 30
0.0
 11
216.26042711984
 21
115.064709538219
 31
0.0
  0
LINE
  5
   761
  8
0
  6
CONTINUOUS
 62
     1
 10
216.890427109111
 20
115.064709538219
 30
0.0
 11
217.520427098382
 21
115.064709538219
 31
0.0
  0
LINE
  5
   762
  8
0
  6
CONTINUOUS
 62
     1
 10
216.890427109111
 20
115.064709538219
 30
0.0
 11
216.890427109111
 21
118.039709487555
 31
0.0
  0
LINE
  5
   763
  8
0
  6
CONTINUOUS
 62
     1
 10
216.890427109111
 20
118.039709487555
 30
0.0
 11
217.473534175239
 21
118.039709487555
 31
0.0
  0
LINE
  5
   764
  8
0
  6
CONTINUOUS
 62
     1
 10
215.630427130569
 20
115.064709538219
 30
0.0
 11
215.630427130569
 21
118.039709487555
 31
0.0
  0
LINE
  5
   765
  8
0
  6
CONTINUOUS
 62
     1
 10
217.520427098382
 20
115.064709538219
 30
0.0
 11
217.520427098382
 21
118.039709487555
 31
0.0
  0
LINE
  5
   766
  8
0
  6
CONTINUOUS
 62
     1
 10
218.150427087654
 20
119.264709466694
 30
0.0
 11
218.780427076925
 21
119.264709466694
 31
0.0
  0
LINE
  5
   767
  8
0
  6
CONTINUOUS
 62
     1
 10
218.150427087654
 20
115.064709538219
 30
0.0
 11
218.150427087654
 21
119.264709466694
 31
0.0
  0
LINE
  5
   768
  8
0
  6
CONTINUOUS
 62
     1
 10
218.150427087654
 20
115.064709538219
 30
0.0
 11
218.780427076925
 21
115.064709538219
 31
0.0
  0
LINE
  5
   769
  8
0
  6
CONTINUOUS
 62
     1
 10
218.780427076925
 20
115.064709538219
 30
0.0
 11
218.780427076925
 21
119.264709466694
 31
0.0
  0
LINE
  5
   76A
  8
0
  6
CONTINUOUS
 62
     1
 10
219.410427066196
 20
119.264709466694
 30
0.0
 11
220.040427055467
 21
119.264709466694
 31
0.0
  0
LINE
  5
   76B
  8
0
  6
CONTINUOUS
 62
     1
 10
220.670427044738
 20
119.264709466694
 30
0.0
 11
221.300427034009
 21
119.264709466694
 31
0.0
  0
LINE
  5
   76C
  8
0
  6
CONTINUOUS
 62
     1
 10
221.300427034009
 20
115.064709538219
 30
0.0
 11
221.300427034009
 21
119.264709466694
 31
0.0
  0
LINE
  5
   76D
  8
0
  6
CONTINUOUS
 62
     1
 10
220.670427044738
 20
115.064709538219
 30
0.0
 11
220.670427044738
 21
119.264709466694
 31
0.0
  0
LINE
  5
   76E
  8
0
  6
CONTINUOUS
 62
     1
 10
220.040427055467
 20
115.064709538219
 30
0.0
 11
220.040427055467
 21
119.264709466694
 31
0.0
  0
LINE
  5
   76F
  8
0
  6
CONTINUOUS
 62
     1
 10
219.410427066196
 20
115.064709538219
 30
0.0
 11
219.410427066196
 21
119.264709466694
 31
0.0
  0
LINE
  5
   770
  8
0
  6
CONTINUOUS
 62
     1
 10
219.410427066196
 20
115.064709538219
 30
0.0
 11
220.040427055467
 21
115.064709538219
 31
0.0
  0
LINE
  5
   771
  8
0
  6
CONTINUOUS
 62
     1
 10
220.670427044738
 20
115.064709538219
 30
0.0
 11
221.300427034009
 21
115.064709538219
 31
0.0
  0
LINE
  5
   772
  8
0
  6
CONTINUOUS
 62
     1
 10
267.74542303871
 20
115.064709538219
 30
0.0
 11
268.375423027981
 21
115.064709538219
 31
0.0
  0
LINE
  5
   773
  8
0
  6
CONTINUOUS
 62
     1
 10
265.225423081625
 20
115.064709538219
 30
0.0
 11
265.855423070897
 21
115.064709538219
 31
0.0
  0
LINE
  5
   774
  8
0
  6
CONTINUOUS
 62
     1
 10
266.485423060168
 20
115.064709538219
 30
0.0
 11
267.115423049439
 21
115.064709538219
 31
0.0
  0
LINE
  5
   775
  8
0
  6
CONTINUOUS
 62
     1
 10
266.485423060168
 20
118.039709487555
 30
0.0
 11
267.115423049439
 21
118.039709487555
 31
0.0
  0
LINE
  5
   776
  8
0
  6
CONTINUOUS
 62
     1
 10
265.225423081625
 20
118.039709487555
 30
0.0
 11
265.855423070897
 21
118.039709487555
 31
0.0
  0
LINE
  5
   777
  8
0
  6
CONTINUOUS
 62
     1
 10
267.74542303871
 20
119.264709466694
 30
0.0
 11
268.375423027981
 21
119.264709466694
 31
0.0
  0
LINE
  5
   778
  8
0
  6
CONTINUOUS
 62
     1
 10
269.005423017252
 20
115.064709538219
 30
0.0
 11
269.635423006524
 21
115.064709538219
 31
0.0
  0
LINE
  5
   779
  8
0
  6
CONTINUOUS
 62
     1
 10
269.005423017252
 20
119.264709466694
 30
0.0
 11
269.635423006524
 21
119.264709466694
 31
0.0
  0
LINE
  5
   77A
  8
0
  6
CONTINUOUS
 62
     1
 10
263.965423103083
 20
115.064709538219
 30
0.0
 11
264.595423092354
 21
115.064709538219
 31
0.0
  0
LINE
  5
   77B
  8
0
  6
CONTINUOUS
 62
     1
 10
262.705423124541
 20
115.064709538219
 30
0.0
 11
263.335423113812
 21
115.064709538219
 31
0.0
  0
LINE
  5
   77C
  8
0
  6
CONTINUOUS
 62
     1
 10
262.705423124541
 20
119.264709466694
 30
0.0
 11
263.335423113812
 21
119.264709466694
 31
0.0
  0
LINE
  5
   77D
  8
0
  6
CONTINUOUS
 62
     1
 10
263.965423103083
 20
119.264709466694
 30
0.0
 11
264.595423092354
 21
119.264709466694
 31
0.0
  0
LINE
  5
   77E
  8
0
  6
CONTINUOUS
 62
     1
 10
261.445423145998
 20
115.064709538219
 30
0.0
 11
261.445423145998
 21
119.264709466694
 31
0.0
  0
LINE
  5
   77F
  8
0
  6
CONTINUOUS
 62
     1
 10
262.07542313527
 20
115.064709538219
 30
0.0
 11
262.07542313527
 21
119.264709466694
 31
0.0
  0
LINE
  5
   780
  8
0
  6
CONTINUOUS
 62
     1
 10
262.705423124541
 20
115.064709538219
 30
0.0
 11
262.705423124541
 21
119.264709466694
 31
0.0
  0
LINE
  5
   781
  8
0
  6
CONTINUOUS
 62
     1
 10
263.335423113812
 20
115.064709538219
 30
0.0
 11
263.335423113812
 21
119.264709466694
 31
0.0
  0
LINE
  5
   782
  8
0
  6
CONTINUOUS
 62
     1
 10
263.965423103083
 20
115.064709538219
 30
0.0
 11
263.965423103083
 21
119.264709466694
 31
0.0
  0
LINE
  5
   783
  8
0
  6
CONTINUOUS
 62
     1
 10
270.895422985066
 20
115.064709538219
 30
0.0
 11
270.895422985066
 21
119.264709466694
 31
0.0
  0
LINE
  5
   784
  8
0
  6
CONTINUOUS
 62
     1
 10
269.635423006524
 20
115.064709538219
 30
0.0
 11
269.635423006524
 21
119.264709466694
 31
0.0
  0
LINE
  5
   785
  8
0
  6
CONTINUOUS
 62
     1
 10
268.375423027981
 20
115.064709538219
 30
0.0
 11
268.375423027981
 21
119.264709466694
 31
0.0
  0
LINE
  5
   786
  8
0
  6
CONTINUOUS
 62
     1
 10
264.595423092354
 20
115.064709538219
 30
0.0
 11
264.595423092354
 21
119.264709466694
 31
0.0
  0
LINE
  5
   787
  8
0
  6
CONTINUOUS
 62
     1
 10
265.855423070897
 20
115.064709538219
 30
0.0
 11
265.855423070897
 21
118.039709487555
 31
0.0
  0
LINE
  5
   788
  8
0
  6
CONTINUOUS
 62
     1
 10
265.225423081625
 20
115.064709538219
 30
0.0
 11
265.225423081625
 21
118.039709487555
 31
0.0
  0
LINE
  5
   789
  8
0
  6
CONTINUOUS
 62
     1
 10
267.115423049439
 20
115.064709538219
 30
0.0
 11
267.115423049439
 21
118.039709487555
 31
0.0
  0
LINE
  5
   78A
  8
0
  6
CONTINUOUS
 62
     1
 10
261.445423145998
 20
119.264709466694
 30
0.0
 11
262.07542313527
 21
119.264709466694
 31
0.0
  0
LINE
  5
   78B
  8
0
  6
CONTINUOUS
 62
     1
 10
261.445423145998
 20
115.064709538219
 30
0.0
 11
262.07542313527
 21
115.064709538219
 31
0.0
  0
LINE
  5
   78C
  8
0
  6
CONTINUOUS
 62
     1
 10
266.485423060168
 20
114.364735686896
 30
0.0
 11
266.485423060168
 21
161.54470874667
 31
0.0
  0
LINE
  5
   78D
  8
0
  6
CONTINUOUS
 62
     1
 10
270.265421927679
 20
119.264709466694
 30
0.0
 11
270.895422985066
 21
119.264709466694
 31
0.0
  0
LINE
  5
   78E
  8
0
  6
CONTINUOUS
 62
     1
 10
270.265421927679
 20
115.064709538219
 30
0.0
 11
270.895422985066
 21
115.064709538219
 31
0.0
  0
ARC
  5
   78F
  8
0
  6
CONTINUOUS
 62
     1
 10
204.622919527654
 20
116.13220952004
 30
0.0
 40
1.39999997615814
 50
0.0
 51
359.917873029969
  0
CIRCLE
  5
   790
  8
0
  6
CONTINUOUS
 62
     1
 10
253.622918693189
 20
116.13220952004
 30
0.0
 40
1.39999997615814
  0
LINE
  5
   791
  8
0
  6
CONTINUOUS
 62
     7
 10
180.122962669502
 20
98.1684850895647
 30
0.0
 11
180.122962669502
 21
101.939734308499
 31
0.0
  0
ARC
  5
   792
  8
0
  6
CONTINUOUS
 62
     7
 10
180.560464148268
 20
27.6522247227077
 30
0.0
 40
0.437499992549419
 50
180.0
 51
270.0
  0
ARC
  5
   793
  8
0
  6
CONTINUOUS
 62
     7
 10
180.560464148268
 20
170.627208591996
 30
0.0
 40
0.437499992549419
 50
90.0
 51
180.0
  0
LINE
  5
   794
  8
0
  6
CONTINUOUS
 62
     7
 10
180.472964149758
 20
161.54470874667
 30
0.0
 11
180.472964149758
 21
162.069708737729
 31
0.0
  0
LINE
  5
   795
  8
0
  6
CONTINUOUS
 62
     1
 10
204.920427312959
 20
27.2147247301583
 30
0.0
 11
204.920427312959
 21
35.3347245918755
 31
0.0
  0
LINE
  5
   796
  8
0
  6
CONTINUOUS
 62
     1
 10
203.660427334417
 20
27.2147247301583
 30
0.0
 11
203.660427334417
 21
35.3347245918755
 31
0.0
  0
LINE
  5
   797
  8
0
  6
CONTINUOUS
 62
     1
 10
204.920427312959
 20
35.8597245829348
 30
0.0
 11
204.920427312959
 21
52.0647242861203
 31
0.0
  0
LINE
  5
   798
  8
0
  6
CONTINUOUS
 62
     1
 10
203.660427334417
 20
35.8597245829348
 30
0.0
 11
203.660427334417
 21
52.0647242861203
 31
0.0
  0
LINE
  5
   799
  8
0
  6
CONTINUOUS
 62
     1
 10
204.920427246202
 20
52.0647242861203
 30
0.0
 11
204.920427246202
 21
59.6772188159041
 31
0.0
  0
LINE
  5
   79A
  8
0
  6
CONTINUOUS
 62
     1
 10
203.66042726766
 20
52.0647242861203
 30
0.0
 11
203.66042726766
 21
59.6772188159041
 31
0.0
  0
LINE
  5
   79B
  8
0
  6
CONTINUOUS
 62
     1
 10
204.920427246202
 20
59.6772188367657
 30
0.0
 11
204.920427246202
 21
96.427218210917
 31
0.0
  0
LINE
  5
   79C
  8
0
  6
CONTINUOUS
 62
     1
 10
203.66042726766
 20
59.6772188367657
 30
0.0
 11
203.66042726766
 21
96.427218210917
 31
0.0
  0
LINE
  5
   79D
  8
0
  6
CONTINUOUS
 62
     1
 10
204.920427246202
 20
96.427218210917
 30
0.0
 11
204.920427246202
 21
113.244709569214
 31
0.0
  0
LINE
  5
   79E
  8
0
  6
CONTINUOUS
 62
     1
 10
203.66042726766
 20
96.427218210917
 30
0.0
 11
203.66042726766
 21
113.244709569214
 31
0.0
  0
LINE
  5
   79F
  8
0
  6
CONTINUOUS
 62
     1
 10
204.920427246202
 20
113.769709560273
 30
0.0
 11
204.920427246202
 21
114.764185729805
 31
0.0
  0
LINE
  5
   7A0
  8
0
  6
CONTINUOUS
 62
     1
 10
203.66042726766
 20
113.769709560273
 30
0.0
 11
203.66042726766
 21
115.115544096858
 31
0.0
  0
LINE
  5
   7A1
  8
0
  6
CONTINUOUS
 62
     1
 10
204.920427246202
 20
162.069708737729
 30
0.0
 11
204.920427246202
 21
171.064708584545
 31
0.0
  0
LINE
  5
   7A2
  8
0
  6
CONTINUOUS
 62
     1
 10
203.66042726766
 20
162.069708737729
 30
0.0
 11
203.66042726766
 21
171.064708584545
 31
0.0
  0
LINE
  5
   7A3
  8
0
  6
CONTINUOUS
 62
     1
 10
202.400464310392
 20
162.069708737729
 30
0.0
 11
202.400464310392
 21
171.064708584545
 31
0.0
  0
LINE
  5
   7A4
  8
0
  6
CONTINUOUS
 62
     1
 10
201.140464532122
 20
162.069708737729
 30
0.0
 11
201.140464532122
 21
171.064708584545
 31
0.0
  0
LINE
  5
   7A5
  8
0
  6
CONTINUOUS
 62
     1
 10
199.880464753851
 20
162.069708737729
 30
0.0
 11
199.880464753851
 21
171.064708584545
 31
0.0
  0
LINE
  5
   7A6
  8
0
  6
CONTINUOUS
 62
     1
 10
198.62046497558
 20
162.069708737729
 30
0.0
 11
198.62046497558
 21
171.064708584545
 31
0.0
  0
LINE
  5
   7A7
  8
0
  6
CONTINUOUS
 62
     1
 10
197.360465197309
 20
162.069708737729
 30
0.0
 11
197.360465197309
 21
171.064708584545
 31
0.0
  0
LINE
  5
   7A8
  8
0
  6
CONTINUOUS
 62
     1
 10
196.100465419039
 20
162.069708737729
 30
0.0
 11
196.100465419039
 21
171.064708584545
 31
0.0
  0
LINE
  5
   7A9
  8
0
  6
CONTINUOUS
 62
     1
 10
194.840465640768
 20
162.069708737729
 30
0.0
 11
194.840465640768
 21
171.064708584545
 31
0.0
  0
LINE
  5
   7AA
  8
0
  6
CONTINUOUS
 62
     1
 10
193.580465862497
 20
162.069708737729
 30
0.0
 11
193.580465862497
 21
171.064708584545
 31
0.0
  0
LINE
  5
   7AB
  8
0
  6
CONTINUOUS
 62
     1
 10
192.320466084226
 20
162.069708737729
 30
0.0
 11
192.320466084226
 21
171.064708584545
 31
0.0
  0
LINE
  5
   7AC
  8
0
  6
CONTINUOUS
 62
     1
 10
191.060466305956
 20
162.069708737729
 30
0.0
 11
191.060466305956
 21
171.064708584545
 31
0.0
  0
LINE
  5
   7AD
  8
0
  6
CONTINUOUS
 62
     1
 10
189.800466527685
 20
162.069708737729
 30
0.0
 11
189.800466527685
 21
171.064708584545
 31
0.0
  0
LINE
  5
   7AE
  8
0
  6
CONTINUOUS
 62
     1
 10
188.540466749414
 20
162.069708737729
 30
0.0
 11
188.540466749414
 21
171.064708584545
 31
0.0
  0
LINE
  5
   7AF
  8
0
  6
CONTINUOUS
 62
     1
 10
187.280466971144
 20
162.069708737729
 30
0.0
 11
187.280466971144
 21
171.064708584545
 31
0.0
  0
LINE
  5
   7B0
  8
0
  6
CONTINUOUS
 62
     1
 10
186.020467192873
 20
162.069708737729
 30
0.0
 11
186.020467192873
 21
171.064708584545
 31
0.0
  0
LINE
  5
   7B1
  8
0
  6
CONTINUOUS
 62
     1
 10
184.760467414602
 20
162.069708737729
 30
0.0
 11
184.760467414602
 21
171.064708584545
 31
0.0
  0
LINE
  5
   7B2
  8
0
  6
CONTINUOUS
 62
     1
 10
183.500467636331
 20
162.069708737729
 30
0.0
 11
183.500467636331
 21
171.064708584545
 31
0.0
  0
LINE
  5
   7B3
  8
0
  6
CONTINUOUS
 62
     1
 10
182.240467858061
 20
162.069708737729
 30
0.0
 11
182.240467858061
 21
171.064708584545
 31
0.0
  0
LINE
  5
   7B4
  8
0
  6
CONTINUOUS
 62
     1
 10
180.980467879518
 20
162.069708737729
 30
0.0
 11
180.980467879518
 21
171.064708584545
 31
0.0
  0
LINE
  5
   7B5
  8
0
  6
CONTINUOUS
 62
     1
 10
202.400464310392
 20
35.8597245829348
 30
0.0
 11
202.400464310392
 21
51.6447047264808
 31
0.0
  0
LINE
  5
   7B6
  8
0
  6
CONTINUOUS
 62
     1
 10
201.140464532122
 20
35.8597245829348
 30
0.0
 11
201.140464532122
 21
51.6447047264808
 31
0.0
  0
LINE
  5
   7B7
  8
0
  6
CONTINUOUS
 62
     1
 10
199.880464753851
 20
35.8597245829348
 30
0.0
 11
199.880464753851
 21
51.6447047264808
 31
0.0
  0
LINE
  5
   7B8
  8
0
  6
CONTINUOUS
 62
     1
 10
198.62046497558
 20
35.8597245829348
 30
0.0
 11
198.62046497558
 21
51.6447047264808
 31
0.0
  0
LINE
  5
   7B9
  8
0
  6
CONTINUOUS
 62
     1
 10
197.360465197309
 20
35.8597245829348
 30
0.0
 11
197.360465197309
 21
51.6447047264808
 31
0.0
  0
LINE
  5
   7BA
  8
0
  6
CONTINUOUS
 62
     1
 10
196.100465419039
 20
35.8597245829348
 30
0.0
 11
196.100465419039
 21
51.6447047264808
 31
0.0
  0
LINE
  5
   7BB
  8
0
  6
CONTINUOUS
 62
     1
 10
194.840465640768
 20
35.8597245829348
 30
0.0
 11
194.840465640768
 21
51.6447047264808
 31
0.0
  0
LINE
  5
   7BC
  8
0
  6
CONTINUOUS
 62
     1
 10
193.580465862497
 20
35.8597245829348
 30
0.0
 11
193.580465862497
 21
51.6447047264808
 31
0.0
  0
LINE
  5
   7BD
  8
0
  6
CONTINUOUS
 62
     1
 10
192.320466084226
 20
35.8597245829348
 30
0.0
 11
192.320466084226
 21
51.6447047264808
 31
0.0
  0
LINE
  5
   7BE
  8
0
  6
CONTINUOUS
 62
     1
 10
191.060466305956
 20
35.8597245829348
 30
0.0
 11
191.060466305956
 21
51.6447047264808
 31
0.0
  0
LINE
  5
   7BF
  8
0
  6
CONTINUOUS
 62
     1
 10
189.800466527685
 20
35.8597245829348
 30
0.0
 11
189.800466527685
 21
51.6447047264808
 31
0.0
  0
LINE
  5
   7C0
  8
0
  6
CONTINUOUS
 62
     1
 10
188.540466749414
 20
35.8597245829348
 30
0.0
 11
188.540466749414
 21
51.6447047264808
 31
0.0
  0
LINE
  5
   7C1
  8
0
  6
CONTINUOUS
 62
     1
 10
187.280466971144
 20
35.8597245829348
 30
0.0
 11
187.280466971144
 21
51.6447047264808
 31
0.0
  0
LINE
  5
   7C2
  8
0
  6
CONTINUOUS
 62
     1
 10
186.020467192873
 20
35.8597245829348
 30
0.0
 11
186.020467192873
 21
51.6447047264808
 31
0.0
  0
LINE
  5
   7C3
  8
0
  6
CONTINUOUS
 62
     1
 10
184.760467414602
 20
35.8597245829348
 30
0.0
 11
184.760467414602
 21
51.6447047264808
 31
0.0
  0
LINE
  5
   7C4
  8
0
  6
CONTINUOUS
 62
     1
 10
183.500467636331
 20
35.8597245829348
 30
0.0
 11
183.500467636331
 21
51.6447047264808
 31
0.0
  0
LINE
  5
   7C5
  8
0
  6
CONTINUOUS
 62
     1
 10
182.240467858061
 20
35.8597245829348
 30
0.0
 11
182.240467858061
 21
51.6447047264808
 31
0.0
  0
LINE
  5
   7C6
  8
0
  6
CONTINUOUS
 62
     1
 10
180.980467879518
 20
35.8597245829348
 30
0.0
 11
180.980467879518
 21
51.6447047264808
 31
0.0
  0
LINE
  5
   7C7
  8
0
  6
CONTINUOUS
 62
     7
 10
180.472964149758
 20
35.3347245918755
 30
0.0
 11
180.472964149758
 21
35.8597245829348
 31
0.0
  0
LINE
  5
   7C8
  8
0
  6
CONTINUOUS
 62
     1
 10
203.66042726766
 20
117.148874943222
 30
0.0
 11
203.66042726766
 21
161.54470874667
 31
0.0
  0
LINE
  5
   7C9
  8
0
  6
CONTINUOUS
 62
     1
 10
204.920427246202
 20
117.500233310275
 30
0.0
 11
204.920427246202
 21
161.54470874667
 31
0.0
  0
TEXT
  5
   7CA
  8
0
  6
CONTINUOUS
 62
     7
 10
239.793519539254
 20
-4.10470506756517
 30
0.0
 40
2.99999997871263
  1
Y
 41
0.91666663951344
 72
     1
 11
240.89351950711
 21
-2.60470507820885
 31
0.0
 73
     2
  0
TEXT
  5
   7CB
  8
0
  6
CONTINUOUS
 62
     7
 10
283.725555782727
 20
80.1650890017111
 30
0.0
 40
2.99999997871263
  1
X
 41
0.916666703091727
 72
     1
 11
284.825555823599
 21
81.6650889910674
 31
0.0
 73
     2
  0
TEXT
  5
   7CC
  8
0
  6
CONTINUOUS
 62
     7
 10
167.310097560192
 20
80.8200278791074
 30
0.0
 40
2.99999997871263
  1
X
 41
0.916666703091727
 72
     1
 11
168.410097601064
 21
82.3200278684637
 31
0.0
 73
     2
  0
INSERT
  5
   7CD
  8
0
  6
CONTINUOUS
 62
     7
  2
*UDIM1975
 10
0.0
 20
0.0
 30
0.0
  0
INSERT
  5
   7CE
  8
0
  6
CONTINUOUS
 62
     7
  2
*UDIM1976
 10
0.0
 20
0.0
 30
0.0
  0
INSERT
  5
   7CF
  8
0
  6
CONTINUOUS
 62
     7
  2
*UDIM1977
 10
0.0
 20
0.0
 30
0.0
  0
INSERT
  5
   7D0
  8
0
  6
CONTINUOUS
 62
     7
  2
*UDIM1978
 10
0.0
 20
0.0
 30
0.0
  0
INSERT
  5
   7D1
  8
0
  6
CONTINUOUS
 62
     7
  2
*UDIM1979
 10
0.0
 20
0.0
 30
0.0
  0
INSERT
  5
   7D2
  8
0
  6
CONTINUOUS
 62
     7
  2
*UDIM1980
 10
0.0
 20
0.0
 30
0.0
  0
INSERT
  5
   7D3
  8
0
  6
CONTINUOUS
 62
     7
  2
*UDIM1981
 10
0.0
 20
0.0
 30
0.0
  0
INSERT
  5
   7D4
  8
0
  6
CONTINUOUS
 62
     7
  2
*UDIM1982
 10
0.0
 20
0.0
 30
0.0
  0
LINE
  5
   7D5
  8
0
  6
CONTINUOUS
 62
     7
 10
191.137432112761
 20
-126.92338643461
 30
0.0
 11
191.137432112761
 21
-146.056603908679
 31
0.0
  0
LINE
  5
   7D6
  8
0
  6
CONTINUOUS
 62
     7
 10
189.537432088919
 20
-126.92338643461
 30
0.0
 11
189.537432088919
 21
-146.056603908679
 31
0.0
  0
LINE
  5
   7D7
  8
0
  6
CONTINUOUS
 62
     7
 10
191.137432112761
 20
-133.547435717914
 30
0.0
 11
189.537432088919
 21
-134.889995147803
 31
0.0
  0
LINE
  5
   7D8
  8
0
  6
CONTINUOUS
 62
     7
 10
189.537432088919
 20
-138.089995195487
 30
0.0
 11
191.137432112761
 21
-139.432554625376
 31
0.0
  0
LINE
  5
   7D9
  8
0
  6
CONTINUOUS
 62
     7
 10
189.537432088919
 20
-144.089995284894
 30
0.0
 11
191.137432112761
 21
-144.089995284894
 31
0.0
  0
CIRCLE
  5
   7DA
  8
0
  6
CONTINUOUS
 62
     7
 10
190.33743210084
 20
-136.489995171645
 30
0.0
 40
9.60000014305115
  0
LINE
  5
   7DB
  8
0
  6
CONTINUOUS
 62
     7
 10
184.737438120909
 20
-140.089995225289
 30
0.0
 11
186.737438150711
 21
-140.089995225289
 31
0.0
  0
LINE
  5
   7DC
  8
0
  6
CONTINUOUS
 62
     7
 10
187.537438162632
 20
-132.889995118001
 30
0.0
 11
187.537438162632
 21
-139.289995213368
 31
0.0
  0
LINE
  5
   7DD
  8
0
  6
CONTINUOUS
 62
     7
 10
187.537438162632
 20
-132.889995118001
 30
0.0
 11
189.537432088919
 21
-132.889995118001
 31
0.0
  0
LINE
  5
   7DE
  8
0
  6
CONTINUOUS
 62
     7
 10
184.737438120909
 20
-142.089995255091
 30
0.0
 11
186.737438150711
 21
-142.089995255091
 31
0.0
  0
LINE
  5
   7DF
  8
0
  6
CONTINUOUS
 62
     7
 10
183.937438108988
 20
-142.889995267012
 30
0.0
 11
183.937438108988
 21
-143.645418265414
 31
0.0
  0
ARC
  5
   7E0
  8
0
  6
CONTINUOUS
 62
     7
 10
186.737441468535
 20
-139.289995750439
 30
0.0
 40
0.79999759416018
 50
629.999840735313
 51
720.000252836193
  0
ARC
  5
   7E1
  8
0
  6
CONTINUOUS
 62
     7
 10
184.737449843714
 20
-142.890005416056
 30
0.0
 40
2.80001480421589
 50
450.000186734275
 51
513.408761128067
  0
ARC
  5
   7E2
  8
0
  6
CONTINUOUS
 62
     7
 10
184.737402722388
 20
-142.889962551186
 30
0.0
 40
0.799959868915134
 50
449.997764042825
 51
540.001169660043
  0
ARC
  5
   7E3
  8
0
  6
CONTINUOUS
 62
     7
 10
186.737453632617
 20
-139.290020850916
 30
0.0
 40
2.79997688647829
 50
629.999653243441
 51
720.000420168909
  0
INSERT
  5
   7E4
  8
0
  6
CONTINUOUS
 62
     7
  2
*HATCH365
 10
241.372955322266
 20
-112.355430603027
 30
0.0
 41
0.200000002980232
 42
0.200000002980232
 50
269.999999844103
 43
0.200000002980232
  0
INSERT
  5
   7E5
  8
0
  6
CONTINUOUS
 62
     7
  2
*HATCH366
 10
241.372955322266
 20
-112.355430603027
 30
0.0
 41
0.200000002980232
 42
0.200000002980232
 50
269.999999844103
 43
0.200000002980232
  0
LINE
  5
   7E6
  8
0
  6
DASHDOT
 62
     2
 10
241.372955322266
 20
-87.4932719008565
 30
0.0
 11
241.372955322266
 21
-136.092397896363
 31
0.0
  0
LINE
  5
   7E7
  8
0
  6
DASHDOT
 62
     2
 10
205.41893317516
 20
-112.355430603027
 30
0.0
 11
288.160135505651
 21
-112.355430603027
 31
0.0
  0
LINE
  5
   7E8
  8
0
  6
CONTINUOUS
 62
     7
 10
223.472955055535
 20
-96.2554303631187
 30
0.0
 11
257.472955562174
 21
-96.2554303631187
 31
0.0
  0
LINE
  5
   7E9
  8
0
  6
CONTINUOUS
 62
     7
 10
223.472955055535
 20
-128.455430842936
 30
0.0
 11
257.472955562174
 21
-128.455430842936
 31
0.0
  0
CIRCLE
  5
   7EA
  8
0
  6
CONTINUOUS
 62
     7
 10
261.572955623269
 20
-112.355430603027
 30
0.0
 40
0.800000011920929
  0
CIRCLE
  5
   7EB
  8
0
  6
CONTINUOUS
 62
     7
 10
245.322955381125
 20
-94.6554303392768
 30
0.0
 40
0.800000011920929
  0
CIRCLE
  5
   7EC
  8
0
  6
CONTINUOUS
 62
     7
 10
229.072955138981
 20
-94.6554303392768
 30
0.0
 40
0.700000010430813
  0
CIRCLE
  5
   7ED
  8
0
  6
CONTINUOUS
 62
     7
 10
261.572955623269
 20
-130.055430866778
 30
0.0
 40
0.700000010430813
  0
CIRCLE
  5
   7EE
  8
0
  6
CONTINUOUS
 62
     7
 10
245.322955381125
 20
-130.055430866778
 30
0.0
 40
0.800000011920929
  0
CIRCLE
  5
   7EF
  8
0
  6
CONTINUOUS
 62
     7
 10
229.072955138981
 20
-130.055430866778
 30
0.0
 40
0.800000011920929
  0
CIRCLE
  5
   7F0
  8
0
  6
CONTINUOUS
 62
     7
 10
261.572955623269
 20
-94.6554303392768
 30
0.0
 40
0.800000011920929
  0
LINE
  5
   7F1
  8
0
  6
DASHDOT
 62
     7
 10
261.572955623269
 20
-93.3554303199053
 30
0.0
 11
261.572955623269
 21
-111.215871227211
 31
0.0
  0
LINE
  5
   7F2
  8
0
  6
DASHDOT
 62
     7
 10
260.272955603898
 20
-94.6554303392768
 30
0.0
 11
262.872955642641
 21
-94.6554303392768
 31
0.0
  0
LINE
  5
   7F3
  8
0
  6
DASHDOT
 62
     7
 10
245.322955381125
 20
-87.4382683548842
 30
0.0
 11
245.322955381125
 21
-95.9554303586483
 31
0.0
  0
LINE
  5
   7F4
  8
0
  6
DASHDOT
 62
     7
 10
244.022955361754
 20
-94.6554303392768
 30
0.0
 11
246.622955400497
 21
-94.6554303392768
 31
0.0
  0
LINE
  5
   7F5
  8
0
  6
DASHDOT
 62
     7
 10
229.072955138981
 20
-93.3554303199053
 30
0.0
 11
229.072955138981
 21
-95.9554303586483
 31
0.0
  0
LINE
  5
   7F6
  8
0
  6
DASHDOT
 62
     7
 10
227.77295511961
 20
-94.6554303392768
 30
0.0
 11
230.372955158353
 21
-94.6554303392768
 31
0.0
  0
LINE
  5
   7F7
  8
0
  6
DASHDOT
 62
     7
 10
245.322955381125
 20
-128.755430847406
 30
0.0
 11
245.322955381125
 21
-131.355430886149
 31
0.0
  0
LINE
  5
   7F8
  8
0
  6
DASHDOT
 62
     7
 10
244.022955361754
 20
-130.055430866778
 30
0.0
 11
246.622955400497
 21
-130.055430866778
 31
0.0
  0
LINE
  5
   7F9
  8
0
  6
DASHDOT
 62
     7
 10
261.572955623269
 20
-128.755430847406
 30
0.0
 11
261.572955623269
 21
-131.355430886149
 31
0.0
  0
LINE
  5
   7FA
  8
0
  6
DASHDOT
 62
     7
 10
260.272955603898
 20
-130.055430866778
 30
0.0
 11
262.872955642641
 21
-130.055430866778
 31
0.0
  0
LINE
  5
   7FB
  8
0
  6
DASHDOT
 62
     7
 10
229.072955138981
 20
-128.755430847406
 30
0.0
 11
229.072955138981
 21
-131.355430886149
 31
0.0
  0
LINE
  5
   7FC
  8
0
  6
DASHDOT
 62
     7
 10
227.77295511961
 20
-130.055430866778
 30
0.0
 11
230.372955158353
 21
-130.055430866778
 31
0.0
  0
LINE
  5
   7FD
  8
0
  6
DASHDOT
 62
     7
 10
261.572955623269
 20
-111.055430583656
 30
0.0
 11
261.572955623269
 21
-128.578452408377
 31
0.0
  0
ARC
  5
   7FE
  8
0
  6
CONTINUOUS
 62
     7
 10
265.572955682874
 20
-115.755430653691
 30
0.0
 40
1.60000002384186
 50
359.999999844103
 51
539.999999844103
  0
ARC
  5
   7FF
  8
0
  6
CONTINUOUS
 62
     7
 10
265.572955682874
 20
-120.355430722237
 30
0.0
 40
1.60000002384186
 50
539.999999844103
 51
719.999999844103
  0
LINE
  5
   800
  8
0
  6
CONTINUOUS
 62
     7
 10
267.172955706716
 20
-115.755430653691
 30
0.0
 11
267.172955706716
 21
-120.355430722237
 31
0.0
  0
LINE
  5
   801
  8
0
  6
CONTINUOUS
 62
     7
 10
263.972955659032
 20
-115.755430653691
 30
0.0
 11
263.972955659032
 21
-120.355430722237
 31
0.0
  0
LINE
  5
   802
  8
0
  6
DASHDOT
 62
     7
 10
265.572955682874
 20
-113.555430620909
 30
0.0
 11
265.572955682874
 21
-117.955430686474
 31
0.0
  0
LINE
  5
   803
  8
0
  6
DASHDOT
 62
     7
 10
263.372955650091
 20
-115.755430653691
 30
0.0
 11
267.772955715656
 21
-115.755430653691
 31
0.0
  0
LINE
  5
   804
  8
0
  6
DASHDOT
 62
     7
 10
265.572955682874
 20
-118.155430689454
 30
0.0
 11
265.572955682874
 21
-122.555430755019
 31
0.0
  0
LINE
  5
   805
  8
0
  6
DASHDOT
 62
     7
 10
263.372955650091
 20
-120.355430722237
 30
0.0
 11
267.772955715656
 21
-120.355430722237
 31
0.0
  0
POINT
  5
   806
  8
0
  6
CONTINUOUS
 62
     7
 10
265.572955682874
 20
-114.155430629849
 30
0.0
  0
POINT
  5
   807
  8
0
  6
CONTINUOUS
 62
     7
 10
265.572955682874
 20
-121.955430746079
 30
0.0
  0
CIRCLE
  5
   808
  8
0
  6
CONTINUOUS
 62
     7
 10
249.82295544818
 20
-94.3554303348064
 30
0.0
 40
0.400000005960464
  0
CIRCLE
  5
   809
  8
0
  6
CONTINUOUS
 62
     7
 10
240.82295531407
 20
-94.3554303348064
 30
0.0
 40
0.400000005960464
  0
CIRCLE
  5
   80A
  8
0
  6
CONTINUOUS
 62
     7
 10
240.82295531407
 20
-94.3554303348064
 30
0.0
 40
0.736000010967255
  0
CIRCLE
  5
   80B
  8
0
  6
CONTINUOUS
 62
     7
 10
249.82295544818
 20
-94.3554303348064
 30
0.0
 40
0.736000010967255
  0
LINE
  5
   80C
  8
0
  6
DASHDOT
 62
     7
 10
249.82295544818
 20
-93.0194303148985
 30
0.0
 11
249.82295544818
 21
-95.6914303547144
 31
0.0
  0
LINE
  5
   80D
  8
0
  6
DASHDOT
 62
     7
 10
248.486955428273
 20
-94.3554303348064
 30
0.0
 11
251.158955468088
 21
-94.3554303348064
 31
0.0
  0
LINE
  5
   80E
  8
0
  6
DASHDOT
 62
     7
 10
240.82295531407
 20
-93.0194303148985
 30
0.0
 11
240.82295531407
 21
-95.6914303547144
 31
0.0
  0
LINE
  5
   80F
  8
0
  6
DASHDOT
 62
     7
 10
239.486955294162
 20
-94.3554303348064
 30
0.0
 11
242.158955333978
 21
-94.3554303348064
 31
0.0
  0
LINE
  5
   810
  8
0
  6
CONTINUOUS
 62
     7
 10
221.365614517314
 20
-91.0623960076496
 30
0.0
 11
279.991227297323
 21
-91.0623960076496
 31
0.0
  0
LINE
  5
   811
  8
0
  6
CONTINUOUS
 62
     7
 10
221.365614517314
 20
-132.55010930917
 30
0.0
 11
279.991227297323
 21
-132.55010930917
 31
0.0
  0
LINE
  5
   812
  8
0
  6
CONTINUOUS
 62
     7
 10
221.365614517314
 20
-91.0623960076496
 30
0.0
 11
221.365614517314
 21
-132.55010930917
 31
0.0
  0
LINE
  5
   813
  8
0
  6
CONTINUOUS
 62
     7
 10
257.472955562174
 20
-96.2554303631187
 30
0.0
 11
257.472955562174
 21
-128.455430842936
 31
0.0
  0
LINE
  5
   814
  8
0
  6
CONTINUOUS
 62
     7
 10
223.472955055535
 20
-96.2554303631187
 30
0.0
 11
223.472955055535
 21
-128.455430842936
 31
0.0
  0
LINE
  5
   815
  8
0
  6
CONTINUOUS
 62
     7
 10
282.754684539301
 20
-97.1746558069611
 30
0.0
 11
282.754684539301
 21
-103.929773509573
 31
0.0
  0
LINE
  5
   816
  8
0
  6
CONTINUOUS
 62
     7
 10
279.991227297323
 20
-91.0623960076496
 30
0.0
 11
279.991227297323
 21
-120.781087696481
 31
0.0
  0
LINE
  5
   817
  8
0
  6
CONTINUOUS
 62
     7
 10
279.991227297323
 20
-97.1746558069611
 30
0.0
 11
282.754684539301
 21
-97.1746558069611
 31
0.0
  0
LINE
  5
   818
  8
0
  6
CONTINUOUS
 62
     7
 10
279.991227297323
 20
-103.929773509573
 30
0.0
 11
282.754684539301
 21
-103.929773509573
 31
0.0
  0
LINE
  5
   819
  8
0
  6
CONTINUOUS
 62
     7
 10
279.991227297323
 20
-127.536205399094
 30
0.0
 11
282.754684539301
 21
-127.536205399094
 31
0.0
  0
LINE
  5
   81A
  8
0
  6
CONTINUOUS
 62
     7
 10
279.991227297323
 20
-120.781087696481
 30
0.0
 11
282.754684539301
 21
-120.781087696481
 31
0.0
  0
LINE
  5
   81B
  8
0
  6
CONTINUOUS
 62
     7
 10
282.754684539301
 20
-120.781087696481
 30
0.0
 11
282.754684539301
 21
-127.536205399094
 31
0.0
  0
LINE
  5
   81C
  8
0
  6
CONTINUOUS
 62
     7
 10
279.991227297323
 20
-120.781087696481
 30
0.0
 11
279.991227297323
 21
-132.55010930917
 31
0.0
  0
LINE
  5
   81D
  8
0
  6
DASHDOT
 62
     2
 10
281.372955918312
 20
-92.0571423958912
 30
0.0
 11
281.372955918312
 21
-155.514308693158
 31
0.0
  0
CIRCLE
  5
   81E
  8
0
  6
CONTINUOUS
 62
     1
 10
240.82295531407
 20
-94.3554303348064
 30
0.0
 40
1.53600002288818
  0
CIRCLE
  5
   81F
  8
0
  6
CONTINUOUS
 62
     1
 10
249.82295544818
 20
-94.3554303348064
 30
0.0
 40
1.53600002288818
  0
LINE
  5
   820
  8
0
  6
CONTINUOUS
 62
     7
 10
189.184708754305
 20
-134.889995147803
 30
0.0
 11
189.537432088919
 21
-134.889995147803
 31
0.0
  0
LINE
  5
   821
  8
0
  6
CONTINUOUS
 62
     7
 10
189.214886568671
 20
-138.089995195487
 30
0.0
 11
189.537432088919
 21
-138.089995195487
 31
0.0
  0
LINE
  5
   822
  8
0
  6
DASHDOT
 62
     7
 10
186.84811409081
 20
-136.489995171645
 30
0.0
 11
192.439041369206
 21
-136.489995171645
 31
0.0
  0
LINE
  5
   823
  8
0
  6
CONTINUOUS
 62
     1
 10
247.915867680614
 20
-105.231146998879
 30
0.0
 11
198.615754758644
 21
-131.628989440332
 31
0.0
  0
LINE
  5
   824
  8
0
  6
CONTINUOUS
 62
     1
 10
239.034936373807
 20
-105.374935010117
 30
0.0
 11
198.23038296848
 21
-131.025443099646
 31
0.0
  0
LINE
  5
   825
  8
0
  6
CONTINUOUS
 62
     1
 10
240.566267970519
 20
-95.8698304397896
 30
0.0
 11
239.034936373807
 21
-105.374935010117
 31
0.0
  0
LINE
  5
   826
  8
0
  6
CONTINUOUS
 62
     1
 10
249.593943810981
 20
-95.8742620372474
 30
0.0
 11
247.915867680614
 21
-105.231146998879
 31
0.0
  0
LINE
  5
   827
  8
0
  6
CONTINUOUS
 62
     7
 10
249.593943810981
 20
-95.8742620372474
 30
0.0
 11
249.764444596169
 21
-97.8909462593674
 31
0.0
  0
LINE
  5
   828
  8
0
  6
CONTINUOUS
 62
     7
 10
249.593943810981
 20
-95.8742620372474
 30
0.0
 11
248.727828357148
 21
-97.7175714721049
 31
0.0
  0
LINE
  5
   829
  8
0
  6
CONTINUOUS
 62
     7
 10
240.566267970519
 20
-95.8698304397896
 30
0.0
 11
240.773287731543
 21
-97.8910815483558
 31
0.0
  0
LINE
  5
   82A
  8
0
  6
CONTINUOUS
 62
     7
 10
240.566267970519
 20
-95.8698304397896
 30
0.0
 11
239.736462010964
 21
-97.7203714449795
 31
0.0
  0
TEXT
  5
   82B
  8
0
  6
CONTINUOUS
 62
     7
 10
288.838758910195
 20
-113.855430130756
 30
0.0
 40
2.99999994933605
  1
X
 50
359.999999844103
 41
0.916666607525612
 72
     1
 11
289.938758823372
 21
-112.355430159075
 31
0.0
 73
     2
  0
TEXT
  5
   82C
  8
0
  6
CONTINUOUS
 62
     7
 10
202.156247305518
 20
-113.008731819666
 30
0.0
 40
2.99999994933605
  1
X
 50
359.999999844103
 41
0.916666607525612
 72
     2
 11
204.356247123724
 21
-113.008731825641
 31
0.0
  0
INSERT
  5
   82D
  8
0
  6
CONTINUOUS
 62
     7
  2
*UDIM1983
 10
0.0
 20
0.0
 30
0.0
  0
INSERT
  5
   82E
  8
0
  6
CONTINUOUS
 62
     7
  2
*UDIM1984
 10
0.0
 20
0.0
 30
0.0
  0
TEXT
  5
   82F
  8
0
  6
CONTINUOUS
 62
     7
 10
239.793519593934
 20
-69.4623769444129
 30
0.0
 40
2.99999994933605
  1
Y
 50
359.999999844103
 41
0.916666607525612
 72
     1
 11
240.89351950711
 21
-67.9623769727323
 31
0.0
 73
     2
  0
TEXT
  5
   830
  8
0
  6
CONTINUOUS
 62
     7
 10
240.75046467042
 20
-163.599980972273
 30
0.0
 40
2.99999994933605
  1
Y
 50
359.999999844103
 41
0.916666607525612
 72
     2
 11
242.950464488625
 21
-163.599980978248
 31
0.0
  0
TEXT
  5
   831
  8
0
  6
CONTINUOUS
 62
     1
 10
233.059402461747
 20
-195.708282390911
 30
0.0
 40
2.99999994933605
  1
  S6X IV
 50
359.999999844103
 41
0.916666607525612
 72
     2
 11
254.509400712897
 21
-195.708282449167
 31
0.0
  0
TEXT
  5
   832
  8
0
  6
CONTINUOUS
 62
     1
 10
219.67497728702
 20
-177.398010208185
 30
0.0
 40
2.00000007748604
  1
4 POLE LOW VOLTAGE M.C.C.B SER.ISOMAX SUPERLIMIT.
 50
359.999999844103
 41
0.637500002980232
 72
     1
 11
250.774978637695
 21
-176.398010253906
 31
0.0
 73
     2
  0
TEXT
  5
   833
  8
0
  6
CONTINUOUS
 62
     1
 10
226.849977022599
 20
-180.398010227672
 30
0.0
 40
2.00000007748604
  1
WITHDRAWABLE VERSION REAR TERMINALS
 50
359.999999844103
 41
0.687500019669532
 72
     1
 11
250.774978637695
 21
-179.398010253906
 31
0.0
 73
     2
  0
TEXT
  5
   834
  8
0
  6
CONTINUOUS
 62
     1
 10
212.877375177559
 20
-185.468276922991
 30
0.0
 40
2.00000007748604
  1
INTERR.AUTOMATICO SERIE ISOMAX SUPERLIMITATORE
 50
359.999999844103
 41
0.749999884366991
 72
     1
 11
247.22737121582
 21
-184.468276977539
 31
0.0
 73
     2
  0
TEXT
  5
   835
  8
0
  6
CONTINUOUS
 62
     1
 10
210.627375437286
 20
-188.468276916881
 30
0.0
 40
2.00000007748604
  1
TETRAP ESECUZIONE ESTRAIBILE TERMINALI POSTERIORI
 50
359.999999844103
 41
0.749999884366991
 72
     1
 11
247.22737121582
 21
-187.468276977539
 31
0.0
 73
     2
  0
INSERT
  5
   836
  8
0
  6
CONTINUOUS
 62
     7
  2
*UDIM1985
 10
0.0
 20
0.0
 30
0.0
  0
INSERT
  5
   837
  8
0
  6
CONTINUOUS
 62
     7
  2
*UDIM1986
 10
0.0
 20
0.0
 30
0.0
  0
INSERT
  5
   838
  8
0
  6
CONTINUOUS
 62
     7
  2
*UDIM1987
 10
0.0
 20
0.0
 30
0.0
  0
INSERT
  5
   839
  8
0
  6
CONTINUOUS
 62
     7
  2
*UDIM1988
 10
0.0
 20
0.0
 30
0.0
  0
INSERT
  5
   83A
  8
0
  6
CONTINUOUS
 62
     7
  2
*UDIM1989
 10
0.0
 20
0.0
 30
0.0
  0
TEXT
  5
   83B
  8
0
  6
CONTINUOUS
 62
     1
 10
162.472581171211
 20
-193.442703257704
 30
0.0
 40
2.00000007748604
  1
M4504 98-11-17
 50
359.999999844103
 41
0.749999884366991
 72
     1
 11
172.822579979897
 21
-192.44270324707
 31
0.0
 73
     2
  0
TEXT
  5
   83C
  8
0
  6
CONTINUOUS
 62
     1
 10
130.357192990448
 20
-187.156173761542
 30
0.0
 40
2.00000007748604
  1
SCARPELLINI
 50
359.999999844103
 41
0.749999884366991
 72
     2
 11
146.557191121843
 21
-187.156173805539
 31
0.0
  0
INSERT
  5
   83D
  8
0
  6
CONTINUOUS
 62
     7
  2
*UDIM1990
 10
0.0
 20
0.0
 30
0.0
  0
INSERT
  5
   83E
  8
0
  6
CONTINUOUS
 62
     7
  2
*UDIM1991
 10
0.0
 20
0.0
 30
0.0
  0
TEXT
  5
   83F
  8
0
  6
CONTINUOUS
 62
     1
 10
136.882586582264
 20
-193.442705976728
 30
0.0
 40
2.00000007748604
  1
M 4352 96-12-17
 50
359.999999844103
 41
0.749999884366991
 72
     1
 11
147.982585304374
 21
-192.442705968131
 31
0.0
 73
     2
  0
TEXT
  5
   840
  8
0
  6
CONTINUOUS
 62
     1
 10
130.357194399867
 20
-178.689421944187
 30
0.0
 40
2.00000007748604
  1
96-11-29 ZANCHI.
 50
359.999999844103
 41
0.749999884366991
 72
     2
 11
154.057191665504
 21
-178.689422008554
 31
0.0
  0
TEXT
  5
   841
  8
0
  6
CONTINUOUS
 62
     1
 10
231.973708984804
 20
-204.689867840417
 30
0.0
 40
4.00000015497208
  1
605031/111
 50
359.999999844103
 41
0.93749995827675
 72
     2
 11
268.72370873968
 21
-204.689867940226
 31
0.0
  0
INSERT
  5
   842
  8
0
  6
CONTINUOUS
 62
     7
  2
*UDIM1992
 10
0.0
 20
0.0
 30
0.0
  0
INSERT
  5
   843
  8
0
  6
CONTINUOUS
 62
     7
  2
*UDIM1993
 10
0.0
 20
0.0
 30
0.0
  0
INSERT
  5
   844
  8
0
  6
CONTINUOUS
 62
     7
  2
*UDIM1994
 10
0.0
 20
0.0
 30
0.0
  0
INSERT
  5
   845
  8
0
  6
CONTINUOUS
 62
     7
  2
*UDIM1995
 10
0.0
 20
0.0
 30
0.0
  0
INSERT
  5
   846
  8
0
  6
CONTINUOUS
 62
     7
  2
*UDIM1996
 10
0.0
 20
0.0
 30
0.0
  0
INSERT
  5
   847
  8
0
  6
CONTINUOUS
 62
     7
  2
*UDIM1997
 10
0.0
 20
0.0
 30
0.0
  0
INSERT
  5
   848
  8
0
  6
CONTINUOUS
 62
     7
  2
*UDIM1998
 10
0.0
 20
0.0
 30
0.0
  0
INSERT
  5
   849
  8
0
  6
CONTINUOUS
 62
     7
  2
*UDIM1999
 10
0.0
 20
0.0
 30
0.0
  0
INSERT
  5
   84A
  8
0
  6
CONTINUOUS
 62
     7
  2
*UDIM2000
 10
0.0
 20
0.0
 30
0.0
  0
TEXT
  5
   84B
  8
0
  6
CONTINUOUS
 62
     7
 10
240.42241594149
 20
-87.2294675939574
 30
0.0
 40
2.50000001341104
  1
=  =
 50
359.999999844103
 41
0.899999922823905
 72
     2
 11
248.972415234966
 21
-87.2294676171782
 31
0.0
  0
INSERT
  5
   84C
  8
0
  6
CONTINUOUS
 62
     7
  2
*UDIM2001
 10
0.0
 20
0.0
 30
0.0
  0
TEXT
  5
   84D
  8
0
  6
CONTINUOUS
 62
     7
 10
178.794078250866
 20
-121.038547584201
 30
0.0
 40
2.99999994933605
  1
PART. Z
 50
359.999999844103
 41
0.91666673368878
 72
     1
 11
188.144078794809
 21
-119.538547634927
 31
0.0
 73
     2
  0
INSERT
  5
   84E
  8
255
  6
CONTINUOUS
 62
     7
  2
BASETT_1
 10
204.622950030331
 20
-45.747428894043
 30
0.0
 41
0.349999994039536
 42
0.349999994039536
 50
359.999999792138
 43
0.349999994039536
  0
LINE
  5
   84F
  8
0
  6
DOT
 62
     7
 10
209.872949940924
 20
-16.3307631514666
 30
0.0
 11
209.872949940924
 21
-30.3307629130481
 31
0.0
  0
LINE
  5
   850
  8
0
  6
DOT
 62
     7
 10
223.872949702506
 20
-16.3307631514666
 30
0.0
 11
223.872949702506
 21
-30.3307629130481
 31
0.0
  0
LINE
  5
   851
  8
0
  6
DOT
 62
     7
 10
234.372949523692
 20
-16.3307631514666
 30
0.0
 11
234.372949523692
 21
-30.3307629130481
 31
0.0
  0
LINE
  5
   852
  8
0
  6
DOT
 62
     7
 10
248.372949285273
 20
-16.3307631514666
 30
0.0
 11
248.372949285273
 21
-30.3307629130481
 31
0.0
  0
LINE
  5
   853
  8
0
  6
DOT
 62
     7
 10
258.872949106459
 20
-16.3307631514666
 30
0.0
 11
258.872949106459
 21
-30.3307629130481
 31
0.0
  0
LINE
  5
   854
  8
0
  6
DOT
 62
     7
 10
272.872948868041
 20
-16.3307631514666
 30
0.0
 11
272.872948868041
 21
-30.3307629130481
 31
0.0
  0
LINE
  5
   855
  8
0
  6
DOT
 62
     7
 10
272.872948868041
 20
-16.3307631514666
 30
0.0
 11
267.622948957448
 21
-16.3307631514666
 31
0.0
  0
LINE
  5
   856
  8
0
  6
DOT
 62
     7
 10
264.122949017052
 20
-16.3307631514666
 30
0.0
 11
258.872949106459
 21
-16.3307631514666
 31
0.0
  0
LINE
  5
   857
  8
0
  6
DOT
 62
     7
 10
248.372949285273
 20
-16.3307631514666
 30
0.0
 11
243.12294937468
 21
-16.3307631514666
 31
0.0
  0
LINE
  5
   858
  8
0
  6
DOT
 62
     7
 10
239.622949434285
 20
-16.3307631514666
 30
0.0
 11
234.372949523692
 21
-16.3307631514666
 31
0.0
  0
LINE
  5
   859
  8
0
  6
DOT
 62
     7
 10
223.872949702506
 20
-16.3307631514666
 30
0.0
 11
218.622949791913
 21
-16.3307631514666
 31
0.0
  0
LINE
  5
   85A
  8
0
  6
DOT
 62
     7
 10
215.122949851517
 20
-16.3307631514666
 30
0.0
 11
209.872949940924
 21
-16.3307631514666
 31
0.0
  0
LINE
  5
   85B
  8
0
  6
DOT
 62
     7
 10
185.372950358157
 20
-16.3307631514666
 30
0.0
 11
185.372950358157
 21
-30.3307629130481
 31
0.0
  0
LINE
  5
   85C
  8
0
  6
DOT
 62
     7
 10
199.372950119738
 20
-16.3307631514666
 30
0.0
 11
194.122950209145
 21
-16.3307631514666
 31
0.0
  0
LINE
  5
   85D
  8
0
  6
DOT
 62
     7
 10
190.62295026875
 20
-16.3307631514666
 30
0.0
 11
185.372950358157
 21
-16.3307631514666
 31
0.0
  0
LINE
  5
   85E
  8
0
  6
DOT
 62
     7
 10
199.372950119738
 20
-16.3307631514666
 30
0.0
 11
199.372950119738
 21
-30.3307629130481
 31
0.0
  0
INSERT
  5
   85F
  8
0
  6
CONTINUOUS
 62
     7
  2
*UDIM2002
 10
0.0
 20
0.0
 30
0.0
  0
INSERT
  5
   860
  8
0
  6
CONTINUOUS
 62
     7
  2
*UDIM2003
 10
0.0
 20
0.0
 30
0.0
  0
INSERT
  5
   861
  8
0
  6
CONTINUOUS
 62
     7
  2
*UDIM2004
 10
0.0
 20
0.0
 30
0.0
  0
INSERT
  5
   862
  8
0
  6
CONTINUOUS
 62
     7
  2
*UDIM2005
 10
0.0
 20
0.0
 30
0.0
  0
ENDSEC
  0
EOF
