  0
SECTION
  2
HEADER
  9
$ACADVER
  1
AC1009
  9
$DWGCODEPAGE
  3
iso8859-1
  9
$INSBASE
 10
0.0
 20
0.0
 30
0.0
  9
$EXTMIN
 10
1.0E20
 20
1.0E20
  9
$EXTMAX
 10
-1.0E20
 20
-1.0E20
  9
$LIMMIN
 10
0.0
 20
0.0
  9
$LIMMAX
 10
12.0
 20
9.0
  9
$ORTHOMODE
 70
     0
  9
$REGENMODE
 70
     1
  9
$FILLMODE
 70
     1
  9
$QTEXTMODE
 70
     0
  9
$MIRRTEXT
 70
     1
  9
$DRAGMODE
 70
     2
  9
$LTSCALE
 40
15.0
  9
$OSMODE
 70
     0
  9
$ATTMODE
 70
     1
  9
$TEXTSIZE
 40
0.2
  9
$TRACEWID
 40
0.05
  9
$TEXTSTYLE
  7
STANDARD
  9
$CLAYER
  8
0
  9
$CELTYPE
  6
DASHED
  9
$CECOLOR
 62
   256
  9
$DIMSCALE
 40
1.0
  9
$DIMASZ
 40
0.18
  9
$DIMEXO
 40
0.0625
  9
$DIMDLI
 40
0.38
  9
$DIMRND
 40
0.0
  9
$DIMDLE
 40
0.0
  9
$DIMEXE
 40
0.18
  9
$DIMTP
 40
0.0
  9
$DIMTM
 40
0.0
  9
$DIMTXT
 40
0.18
  9
$DIMCEN
 40
0.09
  9
$DIMTSZ
 40
0.0
  9
$DIMTOL
 70
     0
  9
$DIMLIM
 70
     0
  9
$DIMTIH
 70
     1
  9
$DIMTOH
 70
     1
  9
$DIMSE1
 70
     0
  9
$DIMSE2
 70
     0
  9
$DIMTAD
 70
     0
  9
$DIMZIN
 70
     0
  9
$DIMBLK
  1

  9
$DIMASO
 70
     1
  9
$DIMSHO
 70
     1
  9
$DIMPOST
  1

  9
$DIMAPOST
  1

  9
$DIMALT
 70
     0
  9
$DIMALTD
 70
     2
  9
$DIMALTF
 40
25.4
  9
$DIMLFAC
 40
1.0
  9
$DIMTOFL
 70
     0
  9
$DIMTVP
 40
0.0
  9
$DIMTIX
 70
     0
  9
$DIMSOXD
 70
     0
  9
$DIMSAH
 70
     0
  9
$DIMBLK1
  1

  9
$DIMBLK2
  1

  9
$DIMSTYLE
  2
STANDARD
  9
$DIMCLRD
 70
     0
  9
$DIMCLRE
 70
     0
  9
$DIMCLRT
 70
     0
  9
$DIMTFAC
 40
1.0
  9
$DIMGAP
 40
0.09
  9
$LUNITS
 70
     2
  9
$LUPREC
 70
     4
  9
$AXISMODE
 70
     0
  9
$AXISUNIT
 10
0.0
 20
0.0
  9
$SKETCHINC
 40
0.1
  9
$FILLETRAD
 40
0.0
  9
$AUNITS
 70
     0
  9
$AUPREC
 70
     0
  9
$MENU
  1
acad
  9
$ELEVATION
 40
0.0
  9
$PELEVATION
 40
0.0
  9
$THICKNESS
 40
0.0
  9
$LIMCHECK
 70
     0
  9
$BLIPMODE
 70
     1
  9
$CHAMFERA
 40
0.0
  9
$CHAMFERB
 40
0.0
  9
$SKPOLY
 70
     0
  9
$TDCREATE
 40
0.000000000
  9
$TDUPDATE
 40
0.000000000
  9
$TDINDWG
 40
0.0
  9
$TDUSRTIMER
 40
0.0
  9
$USRTIMER
 70
     1
  9
$ANGBASE
 50
0.0
  9
$ANGDIR
 70
     0
  9
$PDMODE
 70
     0
  9
$PDSIZE
 40
0.0
  9
$PLINEWID
 40
0.0
  9
$COORDS
 70
     1
  9
$SPLFRAME
 70
     0
  9
$SPLINETYPE
 70
     6
  9
$SPLINESEGS
 70
     8
  9
$ATTDIA
 70
     0
  9
$ATTREQ
 70
     1
  9
$HANDLING
 70
     1
  9
$HANDSEED
  5
   410
  9
$SURFTAB1
 70
     6
  9
$SURFTAB2
 70
     6
  9
$SURFTYPE
 70
     6
  9
$SURFU
 70
     6
  9
$SURFV
 70
     6
  9
$UCSNAME
  2

  9
$UCSORG
 10
0.0
 20
0.0
 30
0.0
  9
$UCSXDIR
 10
1.0
 20
0.0
 30
0.0
  9
$UCSYDIR
 10
0.0
 20
1.0
 30
0.0
  9
$PUCSNAME
  2

  9
$PUCSORG
 10
0.0
 20
0.0
 30
0.0
  9
$PUCSXDIR
 10
1.0
 20
0.0
 30
0.0
  9
$PUCSYDIR
 10
0.0
 20
1.0
 30
0.0
  9
$USERI1
 70
     0
  9
$USERI2
 70
     0
  9
$USERI3
 70
     0
  9
$USERI4
 70
     0
  9
$USERI5
 70
     0
  9
$USERR1
 40
0.0
  9
$USERR2
 40
0.0
  9
$USERR3
 40
0.0
  9
$USERR4
 40
0.0
  9
$USERR5
 40
0.0
  9
$WORLDVIEW
 70
     1
  9
$SHADEDGE
 70
     3
  9
$SHADEDIF
 70
    70
  9
$TILEMODE
 70
     1
  9
$MAXACTVP
 70
    16
  9
$PINSBASE
 10
0.0
 20
0.0
 30
0.0
  9
$PLIMCHECK
 70
     0
  9
$PEXTMIN
 10
1.0E20
 20
1.0E20
 30
1.0E20
  9
$PEXTMAX
 10
-1.0E20
 20
-1.0E20
 30
-1.0E20
  9
$PLIMMIN
 10
0.0
 20
0.0
  9
$PLIMMAX
 10
12.0
 20
9.0
  9
$UNITMODE
 70
     0
  9
$VISRETAIN
 70
     0
  0
ENDSEC
  0
SECTION
  2
TABLES
  0
TABLE
  2
VPORT
 70
     1
  0
VPORT
  2
*ACTIVE
 70
     0
 10
0.0
 20
0.0
 11
1.0
 21
1.0
 12
6.801242
 22
4.5
 13
0.0
 23
0.0
 14
1.0
 24
1.0
 15
0.0
 25
0.0
 16
0.0
 26
0.0
 36
1.0
 17
0.0
 27
0.0
 37
0.0
 40
9.0
 41
1.511387
 42
50.0
 43
0.0
 44
0.0
 50
0.0
 51
0.0
 71
     0
 72
   100
 73
     1
 74
     1
 75
     0
 76
     0
 77
     0
 78
     0
  0
ENDTAB
  0
TABLE
  2
LTYPE
 70
    41
  0
LTYPE
  2
BYBLOCK
 70
     0
  3

 72
    65
 73
     0
 40
0.0
  0
LTYPE
  2
BYLAYER
 70
     0
  3

 72
    65
 73
     0
 40
0.0
  0
LTYPE
  2
CONTINUOUS
 70
     0
  3
Solid line
 72
    65
 73
     0
 40
0.0
  0
LTYPE
  2
BORDER
 70
    64
  3
__ __ . __ __ . __ __ . __ __ . __ __ . __ __ .
 72
    65
 73
     6
 40
1.75
 49
0.5
 49
-0.25
 49
0.5
 49
-0.25
 49
0.0
 49
-0.25
  0
LTYPE
  2
BORDER2
 70
    64
  3
__.__.__.__.__.__.__.__.__.__.__.__.__.__.__.__
 72
    65
 73
     6
 40
0.875
 49
0.25
 49
-0.125
 49
0.25
 49
-0.125
 49
0.0
 49
-0.125
  0
LTYPE
  2
BORDERX2
 70
    64
  3
____  ____  .  ____  ____  .  ____  ____  .  __
 72
    65
 73
     6
 40
3.5
 49
1.0
 49
-0.5
 49
1.0
 49
-0.5
 49
0.0
 49
-0.5
  0
LTYPE
  2
CENTER
 70
    64
  3
____ _ ____ _ ____ _ ____ _ ____ _ ____ _ ____
 72
    65
 73
     4
 40
2.0
 49
1.25
 49
-0.25
 49
0.25
 49
-0.25
  0
LTYPE
  2
CENTER2
 70
    64
  3
___ _ ___ _ ___ _ ___ _ ___ _ ___ _ ___ _ ___ _
 72
    65
 73
     4
 40
1.125
 49
0.75
 49
-0.125
 49
0.125
 49
-0.125
  0
LTYPE
  2
CENTERX2
 70
    64
  3
________  __  ________  __  ________  __  _____
 72
    65
 73
     4
 40
4.0
 49
2.5
 49
-0.5
 49
0.5
 49
-0.5
  0
LTYPE
  2
DASHDOT
 70
    64
  3
__ . __ . __ . __ . __ . __ . __ . __ . __ . __
 72
    65
 73
     4
 40
1.0
 49
0.5
 49
-0.25
 49
0.0
 49
-0.25
  0
LTYPE
  2
DASHDOT2
 70
    64
  3
_._._._._._._._._._._._._._._._._._._._._._._._
 72
    65
 73
     4
 40
0.5
 49
0.25
 49
-0.125
 49
0.0
 49
-0.125
  0
LTYPE
  2
DASHDOTX2
 70
    64
  3
____  .  ____  .  ____  .  ____  .  ____  .  __
 72
    65
 73
     4
 40
2.0
 49
1.0
 49
-0.5
 49
0.0
 49
-0.5
  0
LTYPE
  2
DASHED
 70
    64
  3
__ __ __ __ __ __ __ __ __ __ __ __ __ __ __ __
 72
    65
 73
     2
 40
0.75
 49
0.5
 49
-0.25
  0
LTYPE
  2
DASHED2
 70
    64
  3
_ _ _ _ _ _ _ _ _ _ _ _ _ _ _ _ _ _ _ _ _ _ _ _
 72
    65
 73
     2
 40
0.375
 49
0.25
 49
-0.125
  0
LTYPE
  2
DASHEDX2
 70
    64
  3
____  ____  ____  ____  ____  ____  ____  ____
 72
    65
 73
     2
 40
1.5
 49
1.0
 49
-0.5
  0
LTYPE
  2
DIVIDE
 70
    64
  3
____ . . ____ . . ____ . . ____ . . ____ . . __
 72
    65
 73
     6
 40
1.25
 49
0.5
 49
-0.25
 49
0.0
 49
-0.25
 49
0.0
 49
-0.25
  0
LTYPE
  2
DIVIDE2
 70
    64
  3
__..__..__..__..__..__..__..__..__..__..__..__.
 72
    65
 73
     6
 40
0.625
 49
0.25
 49
-0.125
 49
0.0
 49
-0.125
 49
0.0
 49
-0.125
  0
LTYPE
  2
DIVIDEX2
 70
    64
  3
________  .  .  ________  .  .  ________  .  .
 72
    65
 73
     6
 40
2.5
 49
1.0
 49
-0.5
 49
0.0
 49
-0.5
 49
0.0
 49
-0.5
  0
LTYPE
  2
DOT
 70
    64
  3
. . . . . . . . . . . . . . . . . . . . . . . .
 72
    65
 73
     2
 40
0.25
 49
0.0
 49
-0.25
  0
LTYPE
  2
DOT2
 70
    64
  3
...............................................
 72
    65
 73
     2
 40
0.125
 49
0.0
 49
-0.125
  0
LTYPE
  2
DOTX2
 70
    64
  3
.  .  .  .  .  .  .  .  .  .  .  .  .  .  .  .
 72
    65
 73
     2
 40
0.5
 49
0.0
 49
-0.5
  0
LTYPE
  2
HIDDEN
 70
    64
  3
__ __ __ __ __ __ __ __ __ __ __ __ __ __ __ __
 72
    65
 73
     2
 40
0.375
 49
0.25
 49
-0.125
  0
LTYPE
  2
HIDDEN2
 70
    64
  3
_ _ _ _ _ _ _ _ _ _ _ _ _ _ _ _ _ _ _ _ _ _ _ _
 72
    65
 73
     2
 40
0.1875
 49
0.125
 49
-0.0625
  0
LTYPE
  2
HIDDENX2
 70
    64
  3
____ ____ ____ ____ ____ ____ ____ ____ ____ __
 72
    65
 73
     2
 40
0.75
 49
0.5
 49
-0.25
  0
LTYPE
  2
PHANTOM
 70
    64
  3
______  __  __  ______  __  __  ______  __  __
 72
    65
 73
     6
 40
2.5
 49
1.25
 49
-0.25
 49
0.25
 49
-0.25
 49
0.25
 49
-0.25
  0
LTYPE
  2
PHANTOM2
 70
    64
  3
___ _ _ ___ _ _ ___ _ _ ___ _ _ ___ _ _ ___ _ _
 72
    65
 73
     6
 40
1.25
 49
0.625
 49
-0.125
 49
0.125
 49
-0.125
 49
0.125
 49
-0.125
  0
LTYPE
  2
PHANTOMX2
 70
    64
  3
____________    ____    ____    ____________
 72
    65
 73
     6
 40
5.0
 49
2.5
 49
-0.5
 49
0.5
 49
-0.5
 49
0.5
 49
-0.5
  0
LTYPE
  2
ACAD_ISO02W100
 70
    64
  3
__ __ __ __ __ __ __ __ __ __ __ __ __ __ __ __
 72
    65
 73
     2
 40
15.0
 49
12.0
 49
-3.0
  0
LTYPE
  2
ACAD_ISO03W100
 70
    64
  3
__    __    __    __    __    __    __    __
 72
    65
 73
     2
 40
30.0
 49
12.0
 49
-18.0
  0
LTYPE
  2
ACAD_ISO04W100
 70
    64
  3
____ . ____ . ____ . ____ . ____ . ____ . ____
 72
    65
 73
     4
 40
30.5
 49
24.0
 49
-3.0
 49
0.5
 49
-3.0
  0
LTYPE
  2
ACAD_ISO05W100
 70
    64
  3
____ .. ____ .. ____ .. ____ .. ____ .. ____ ..
 72
    65
 73
     6
 40
34.0
 49
24.0
 49
-3.0
 49
0.5
 49
-3.0
 49
0.5
 49
-3.0
  0
LTYPE
  2
ACAD_ISO06W100
 70
    64
  3
____ ... ____ ... ____ ... ____ ... ____ ... __
 72
    65
 73
     8
 40
37.5
 49
24.0
 49
-3.0
 49
0.5
 49
-3.0
 49
0.5
 49
-3.0
 49
0.5
 49
-3.0
  0
LTYPE
  2
ACAD_ISO07W100
 70
    64
  3
. . . . . . . . . . . . . . . . . . . . . . . .
 72
    65
 73
     2
 40
3.5
 49
0.5
 49
-3.0
  0
LTYPE
  2
ACAD_ISO08W100
 70
    64
  3
____ __ ____ __ ____ __ ____ ____ __ __ ____ __
 72
    65
 73
     4
 40
36.0
 49
24.0
 49
-3.0
 49
6.0
 49
-3.0
  0
LTYPE
  2
ACAD_ISO09W100
 70
    64
  3
____ __ __ ____ __ __ ____ __ __ ____ __ __ ___
 72
    65
 73
     6
 40
45.0
 49
24.0
 49
-3.0
 49
6.0
 49
-3.0
 49
6.0
 49
-3.0
  0
LTYPE
  2
ACAD_ISO10W100
 70
    64
  3
__ . __ . __ . __ . __ . __ . __ . __ . __ . __
 72
    65
 73
     4
 40
18.5
 49
12.0
 49
-3.0
 49
0.5
 49
-3.0
  0
LTYPE
  2
ACAD_ISO11W100
 70
    64
  3
__ __ . __ __ . __ __ . __ __ . __ __ . __ __ .
 72
    65
 73
     6
 40
33.5
 49
12.0
 49
-3.0
 49
12.0
 49
-3.0
 49
0.5
 49
-3.0
  0
LTYPE
  2
ACAD_ISO12W100
 70
    64
  3
__ . . __ . . __ . . __ . . __ . . __ . . __ .
 72
    65
 73
     6
 40
22.0
 49
12.0
 49
-3.0
 49
0.5
 49
-3.0
 49
0.5
 49
-3.0
  0
LTYPE
  2
ACAD_ISO13W100
 70
    64
  3
__ __ . . __ __ . . __ __ . . __ __ . . __ __ .
 72
    65
 73
     8
 40
37.0
 49
12.0
 49
-3.0
 49
12.0
 49
-3.0
 49
0.5
 49
-3.0
 49
0.5
 49
-3.0
  0
LTYPE
  2
ACAD_ISO14W100
 70
    64
  3
__ . . . __ . . . __ . . . __ . . . __ . . . __
 72
    65
 73
     8
 40
25.5
 49
12.0
 49
-3.0
 49
0.5
 49
-3.0
 49
0.5
 49
-3.0
 49
0.5
 49
-3.0
  0
LTYPE
  2
ACAD_ISO15W100
 70
    64
  3
__ __ . . . __ __ . . . __ __ . . . __ __ . . .
 72
    65
 73
    10
 40
40.5
 49
12.0
 49
-3.0
 49
12.0
 49
-3.0
 49
0.5
 49
-3.0
 49
0.5
 49
-3.0
 49
0.5
 49
-3.0
  0
ENDTAB
  0
TABLE
  2
STYLE
 70
     4
  0
STYLE
  2
STANDARD
 70
    64
 40
0.0
 41
1.0
 50
0.0
 71
     0
 42
0.2
  3
txt
  4

  0
STYLE
  2
TOLERANCE
 70
    64
 40
0.0
 41
1.0
 50
0.0
 71
     0
 42
0.2
  3
../igesfont/iges1003.shx
  4

  0
STYLE
  2
ROMANS
 70
    64
 40
0.0
 41
1.0
 50
0.0
 71
     0
 42
0.2
  3
romans.shx
  4

  0
STYLE
  2
ROMANC
 70
    64
 40
0.0
 41
1.0
 50
0.0
 71
     0
 42
0.2
  3
romanc.shx
  4

  0
ENDTAB
  0
TABLE
  2
DIMSTYLE
 70
     2
  0
DIMSTYLE
  2
UNNAMED
 70
     0
  3

  4

  5

  6

  7

 40
1.0
 41
0.18
 42
0.0625
 43
0.38
 44
0.18
 45
0.0
 46
0.0
 47
0.0
 48
0.0
140
0.18
141
0.09
142
0.0
143
25.4
144
1.0
145
0.0
146
1.0
147
0.09
 71
     0
 72
     0
 73
     1
 74
     1
 75
     0
 76
     0
 77
     0
 78
     0
170
     0
171
     2
172
     0
173
     0
174
     0
175
     0
176
     0
177
     0
178
     0
  0
DIMSTYLE
  2
STANDARD
 70
     0
  3

  4

  5

  6

  7

 40
1.0
 41
0.18
 42
0.0625
 43
0.38
 44
0.18
 45
0.0
 46
0.0
 47
0.0
 48
0.0
140
0.18
141
0.09
142
0.0
143
25.4
144
1.0
145
0.0
146
1.0
147
0.09
 71
     0
 72
     0
 73
     1
 74
     1
 75
     0
 76
     0
 77
     0
 78
     0
170
     0
171
     2
172
     0
173
     0
174
     0
175
     0
176
     0
177
     0
178
     0
  0
ENDTAB
  0
TABLE
  2
LAYER
 70
     2
  0
LAYER
  2
0
 70
     0
 62
     7
  6
CONTINUOUS
  0
LAYER
  2
255
 70
     0
 62
     7
  6
CONTINUOUS
  0
ENDTAB
  0
ENDSEC
  0
SECTION
  2
BLOCKS
  0
BLOCK
  5
     B
  8
0
  6
CONTINUOUS
 62
     5
  2
*UDIM2141
 70
    65
 10
0.0
 20
0.0
 30
0.0
  3
*UDIM2141
  0
TEXT
  5
     C
  8
0
  6
CONTINUOUS
 62
     5
 10
-372.683006298732
 20
-73.6196668363904
 30
0.0
 40
3.00000002980232
  1
52,25
 50
449.999999896069
 41
0.933333333333333
 72
     1
 11
-374.183006301522
 21
-66.9196667671204
 31
0.0
 73
     2
  0
LINE
  5
     D
  8
0
  6
CONTINUOUS
 62
     5
 10
-360.101255777881
 20
-61.5541839599609
 30
0.0
 11
-373.683006286621
 21
-61.5541839599609
 31
0.0
  0
LINE
  5
     E
  8
0
  6
CONTINUOUS
 62
     5
 10
-371.683006286621
 20
-60.2196667005618
 30
0.0
 11
-371.683006286621
 21
-74.6166839599609
 31
0.0
  0
LINE
  5
     F
  8
0
  6
CONTINUOUS
 62
     5
 10
-371.162061856669
 20
-64.5086072371679
 30
0.0
 11
-371.683006286621
 21
-61.5541839599609
 31
0.0
  0
LINE
  5
    10
  8
0
  6
CONTINUOUS
 62
     5
 10
-371.683006286621
 20
-61.5541839599609
 30
0.0
 11
-372.203950716573
 21
-64.5086072371679
 31
0.0
  0
LINE
  5
    11
  8
0
  6
CONTINUOUS
 62
     5
 10
-372.203950716573
 20
-71.662260682754
 30
0.0
 11
-371.683006286621
 21
-74.6166839599609
 31
0.0
  0
LINE
  5
    12
  8
0
  6
CONTINUOUS
 62
     5
 10
-371.683006286621
 20
-74.6166839599609
 30
0.0
 11
-371.162061856669
 21
-71.662260682754
 31
0.0
  0
ENDBLK
  5
    13
  8
0
  6
CONTINUOUS
 62
     5
  0
BLOCK
  5
    14
  8
0
  6
CONTINUOUS
 62
     7
  2
*UDIM2142
 70
    65
 10
0.0
 20
0.0
 30
0.0
  3
*UDIM2142
  0
TEXT
  5
    15
  8
0
  6
CONTINUOUS
 62
     7
 10
-341.043310192954
 20
-116.910736079462
 30
0.0
 40
3.00000002980232
  1
45
 50
359.999999896069
 41
0.933333333333333
 72
     1
 11
-338.543310165405
 21
-115.410736069083
 31
0.0
 73
     2
  0
LINE
  5
    16
  8
0
  6
CONTINUOUS
 62
     7
 10
-344.018310546875
 20
-106.63209761173
 30
0.0
 11
-344.018310546875
 21
-119.910736083984
 31
0.0
  0
LINE
  5
    17
  8
0
  6
CONTINUOUS
 62
     7
 10
-355.268310546875
 20
-93.2830639375242
 30
0.0
 11
-355.268310546875
 21
-119.910736083984
 31
0.0
  0
LINE
  5
    18
  8
0
  6
CONTINUOUS
 62
     7
 10
-336.04331014057
 20
-117.910736083984
 30
0.0
 11
-355.268310546875
 21
-117.910736083984
 31
0.0
  0
LINE
  5
    19
  8
0
  6
CONTINUOUS
 62
     7
 10
-346.972733824082
 20
-118.431680513936
 30
0.0
 11
-344.018310546875
 21
-117.910736083984
 31
0.0
  0
LINE
  5
    1A
  8
0
  6
CONTINUOUS
 62
     7
 10
-344.018310546875
 20
-117.910736083984
 30
0.0
 11
-346.972733824082
 21
-117.389791654033
 31
0.0
  0
LINE
  5
    1B
  8
0
  6
CONTINUOUS
 62
     7
 10
-352.313887269668
 20
-117.389791654033
 30
0.0
 11
-355.268310546875
 21
-117.910736083984
 31
0.0
  0
LINE
  5
    1C
  8
0
  6
CONTINUOUS
 62
     7
 10
-355.268310546875
 20
-117.910736083984
 30
0.0
 11
-352.313887269668
 21
-118.431680513936
 31
0.0
  0
ENDBLK
  5
    1D
  8
0
  6
CONTINUOUS
 62
     7
  0
BLOCK
  5
    1E
  8
0
  6
CONTINUOUS
 62
     7
  2
*UDIM2143
 70
    65
 10
0.0
 20
0.0
 30
0.0
  3
*UDIM2143
  0
TEXT
  5
    1F
  8
0
  6
CONTINUOUS
 62
     7
 10
-334.793310192954
 20
-107.740047450312
 30
0.0
 40
3.00000002980232
  1
25
 50
359.999999896069
 41
0.933333333333333
 72
     1
 11
-332.293310165405
 21
-106.240047439933
 31
0.0
 73
     2
  0
LINE
  5
    20
  8
0
  6
CONTINUOUS
 62
     7
 10
-337.768310546875
 20
-93.4086897946119
 30
0.0
 11
-337.768310546875
 21
-110.740047454834
 31
0.0
  0
LINE
  5
    21
  8
0
  6
CONTINUOUS
 62
     7
 10
-344.018310546875
 20
-106.63209761173
 30
0.0
 11
-344.018310546875
 21
-110.740047454834
 31
0.0
  0
LINE
  5
    22
  8
0
  6
CONTINUOUS
 62
     7
 10
-329.79331014057
 20
-108.740047454834
 30
0.0
 11
-344.018310546875
 21
-108.740047454834
 31
0.0
  0
LINE
  5
    23
  8
0
  6
CONTINUOUS
 62
     7
 10
-334.813887269668
 20
-108.219103024882
 30
0.0
 11
-337.768310546875
 21
-108.740047454834
 31
0.0
  0
LINE
  5
    24
  8
0
  6
CONTINUOUS
 62
     7
 10
-337.768310546875
 20
-108.740047454834
 30
0.0
 11
-334.813887269668
 21
-109.260991884786
 31
0.0
  0
LINE
  5
    25
  8
0
  6
CONTINUOUS
 62
     7
 10
-346.972733824082
 20
-109.260991884786
 30
0.0
 11
-344.018310546875
 21
-108.740047454834
 31
0.0
  0
LINE
  5
    26
  8
0
  6
CONTINUOUS
 62
     7
 10
-344.018310546875
 20
-108.740047454834
 30
0.0
 11
-346.972733824082
 21
-108.219103024882
 31
0.0
  0
ENDBLK
  5
    27
  8
0
  6
CONTINUOUS
 62
     7
  0
BLOCK
  5
    28
  8
0
  6
CONTINUOUS
 62
     7
  2
*UDIM2144
 70
    65
 10
0.0
 20
0.0
 30
0.0
  3
*UDIM2144
  0
TEXT
  5
    29
  8
0
  6
CONTINUOUS
 62
     7
 10
-315.629703528778
 20
-78.2291816056786
 30
0.0
 40
3.00000002980232
  1
100
 50
449.999999896069
 41
0.933333333333333
 72
     1
 11
-317.12970353663
 21
-74.3291815642241
 31
0.0
 73
     2
  0
LINE
  5
    2A
  8
0
  6
CONTINUOUS
 62
     7
 10
-333.227336074522
 20
-61.5541842738774
 30
0.0
 11
-312.629703521729
 21
-61.5541907398137
 31
0.0
  0
LINE
  5
    2B
  8
0
  6
CONTINUOUS
 62
     7
 10
-333.604213645785
 20
-86.5541842738774
 30
0.0
 11
-312.629703521729
 21
-86.5541908581218
 31
0.0
  0
LINE
  5
    2C
  8
0
  6
CONTINUOUS
 62
     7
 10
-314.629703521729
 20
-61.5541901119808
 30
0.0
 11
-314.629703521729
 21
-86.5541902302889
 31
0.0
  0
LINE
  5
    2D
  8
0
  6
CONTINUOUS
 62
     7
 10
-314.108759091777
 20
-64.5086133891877
 30
0.0
 11
-314.629703521729
 21
-61.5541901119808
 31
0.0
  0
LINE
  5
    2E
  8
0
  6
CONTINUOUS
 62
     7
 10
-314.629703521729
 20
-61.5541901119808
 30
0.0
 11
-315.15064795168
 21
-64.5086133891877
 31
0.0
  0
LINE
  5
    2F
  8
0
  6
CONTINUOUS
 62
     7
 10
-315.15064795168
 20
-83.5997669530819
 30
0.0
 11
-314.629703521729
 21
-86.5541902302889
 31
0.0
  0
LINE
  5
    30
  8
0
  6
CONTINUOUS
 62
     7
 10
-314.629703521729
 20
-86.5541902302889
 30
0.0
 11
-314.108759091777
 21
-83.5997669530819
 31
0.0
  0
ENDBLK
  5
    31
  8
0
  6
CONTINUOUS
 62
     7
  0
BLOCK
  5
    32
  8
0
  6
CONTINUOUS
 62
     7
  2
*UDIM2145
 70
    65
 10
0.0
 20
0.0
 30
0.0
  3
*UDIM2145
  0
TEXT
  5
    33
  8
0
  6
CONTINUOUS
 62
     7
 10
-380.478058675679
 20
-95.9899486308639
 30
0.0
 40
3.00000002980232
  1
5
 50
382.649428501941
 41
0.933333333333334
 72
     1
 11
-380.040529926731
 21
-94.1820303078779
 31
0.0
 73
     2
  0
TEXT
  5
    34
  8
0
  6
CONTINUOUS
 62
     7
 10
-383.385125472043
 20
-97.2029872551709
 30
0.0
 40
3.00000002980232
  1
Ø
 50
382.649428501941
 41
0.933333333333334
 72
     1
 11
-382.947596723096
 21
-95.3950689321849
 31
0.0
 73
     2
  0
TEXT
  5
    35
  8
0
  6
CONTINUOUS
 62
     7
 10
-377.940143199268
 20
-94.9309466382483
 30
0.0
 40
3.00000002980232
  1
 (M4)
 50
382.649428501941
 41
0.933333333333333
 72
     1
 11
-372.334495662286
 21
-90.9665152001082
 31
0.0
 73
     2
  0
LINE
  5
    36
  8
0
  6
CONTINUOUS
 62
     7
 10
-354.691511581161
 20
-86.3135016939924
 30
0.0
 11
-383.000033843224
 21
-98.1258656011039
 31
0.0
  0
LINE
  5
    37
  8
0
  6
CONTINUOUS
 62
     7
 10
-352.165549653596
 20
-84.6950096981864
 30
0.0
 11
-354.691511581161
 21
-86.3135016939924
 31
0.0
  0
LINE
  5
    38
  8
0
  6
CONTINUOUS
 62
     7
 10
-354.691511581161
 20
-86.3135016939924
 30
0.0
 11
-351.764326978893
 21
-85.6565463650355
 31
0.0
  0
LINE
  5
    39
  8
0
  6
CONTINUOUS
 62
     7
 10
-358.371071440154
 20
-88.4133582217355
 30
0.0
 11
-355.845109512589
 21
-86.7948662259295
 31
0.0
  0
LINE
  5
    3A
  8
0
  6
CONTINUOUS
 62
     7
 10
-355.845109512589
 20
-86.7948662259295
 30
0.0
 11
-358.772294114857
 21
-87.4518215548864
 31
0.0
  0
ENDBLK
  5
    3B
  8
0
  6
CONTINUOUS
 62
     7
  0
BLOCK
  5
    3C
  8
0
  6
CONTINUOUS
 62
     7
  2
*HATCH1288
 70
    65
 10
0.0
 20
0.0
 30
0.0
  3
*HATCH1288
  0
LINE
  5
    3D
  8
0
  6
CONTINUOUS
 62
    52
 10
186.918792724609
 20
-4.00005149841309
 30
0.0
 11
184.918792724609
 21
-6.00005149841309
 31
0.0
  0
LINE
  5
    3E
  8
0
  6
CONTINUOUS
 62
    52
 10
191.161437988281
 20
-4.00005149841309
 30
0.0
 11
189.161437988281
 21
-6.00005149841309
 31
0.0
  0
LINE
  5
    3F
  8
0
  6
CONTINUOUS
 62
    52
 10
195.404083251953
 20
-4.00005149841309
 30
0.0
 11
193.404083251953
 21
-6.00005149841309
 31
0.0
  0
LINE
  5
    40
  8
0
  6
CONTINUOUS
 62
    52
 10
199.646728515625
 20
-4.00005149841309
 30
0.0
 11
197.646728515625
 21
-6.00005149841309
 31
0.0
  0
LINE
  5
    41
  8
0
  6
CONTINUOUS
 62
    52
 10
203.889373779297
 20
-4.00005149841309
 30
0.0
 11
201.889373779297
 21
-6.00005149841309
 31
0.0
  0
LINE
  5
    42
  8
0
  6
CONTINUOUS
 62
    52
 10
208.132019042969
 20
-4.00005149841309
 30
0.0
 11
206.132019042969
 21
-6.00005149841309
 31
0.0
  0
LINE
  5
    43
  8
0
  6
CONTINUOUS
 62
    52
 10
212.374664306641
 20
-4.00005149841309
 30
0.0
 11
210.374664306641
 21
-6.00005149841309
 31
0.0
  0
LINE
  5
    44
  8
0
  6
CONTINUOUS
 62
    52
 10
216.617309570313
 20
-4.00005149841309
 30
0.0
 11
214.617309570313
 21
-6.00005149841309
 31
0.0
  0
LINE
  5
    45
  8
0
  6
CONTINUOUS
 62
    52
 10
220.859954833984
 20
-4.00005149841309
 30
0.0
 11
218.859954833984
 21
-6.00005149841309
 31
0.0
  0
LINE
  5
    46
  8
0
  6
CONTINUOUS
 62
    52
 10
225.102600097656
 20
-4.00005149841309
 30
0.0
 11
223.102600097656
 21
-6.00005149841309
 31
0.0
  0
LINE
  5
    47
  8
0
  6
CONTINUOUS
 62
    52
 10
229.345245361328
 20
-4.00005149841309
 30
0.0
 11
227.345245361328
 21
-6.00005149841309
 31
0.0
  0
LINE
  5
    48
  8
0
  6
CONTINUOUS
 62
    52
 10
233.587890625
 20
-4.00005149841309
 30
0.0
 11
231.587890625
 21
-6.00005149841309
 31
0.0
  0
ENDBLK
  5
    49
  8
0
  6
CONTINUOUS
 62
     7
  0
BLOCK
  5
    4A
  8
0
  6
CONTINUOUS
 62
     7
  2
*HATCH1289
 70
    65
 10
0.0
 20
0.0
 30
0.0
  3
*HATCH1289
  0
LINE
  5
    4B
  8
0
  6
CONTINUOUS
 62
    52
 10
169.948226928711
 20
-4.00005149841309
 30
0.0
 11
167.948226928711
 21
-6.00005149841309
 31
0.0
  0
LINE
  5
    4C
  8
0
  6
CONTINUOUS
 62
    52
 10
174.190872192383
 20
-4.00005149841309
 30
0.0
 11
172.190872192383
 21
-6.00005149841309
 31
0.0
  0
LINE
  5
    4D
  8
0
  6
CONTINUOUS
 62
    52
 10
177.480621337891
 20
-4.95293474197388
 30
0.0
 11
176.433502197266
 21
-6.00005149841309
 31
0.0
  0
ENDBLK
  5
    4E
  8
0
  6
CONTINUOUS
 62
     7
  0
BLOCK
  5
    4F
  8
0
  6
CONTINUOUS
 62
     7
  2
*HATCH1290
 70
    65
 10
0.0
 20
0.0
 30
0.0
  3
*HATCH1290
  0
LINE
  5
    50
  8
0
  6
CONTINUOUS
 62
    52
 10
44.7903175354004
 20
-4.00005149841309
 30
0.0
 11
42.7903175354004
 21
-6.00005149841309
 31
0.0
  0
LINE
  5
    51
  8
0
  6
CONTINUOUS
 62
    52
 10
49.0329551696777
 20
-4.00005149841309
 30
0.0
 11
47.0329551696777
 21
-6.00005149841309
 31
0.0
  0
LINE
  5
    52
  8
0
  6
CONTINUOUS
 62
    52
 10
53.2755928039551
 20
-4.00005149841309
 30
0.0
 11
51.2755928039551
 21
-6.00005149841309
 31
0.0
  0
ENDBLK
  5
    53
  8
0
  6
CONTINUOUS
 62
     7
  0
BLOCK
  5
    54
  8
0
  6
CONTINUOUS
 62
     7
  2
*HATCH1291
 70
    65
 10
0.0
 20
0.0
 30
0.0
  3
*HATCH1291
  0
LINE
  5
    55
  8
0
  6
CONTINUOUS
 62
    52
 10
-23.0919361114502
 20
-4.00005149841309
 30
0.0
 11
-25.0919361114502
 21
-6.00005149841309
 31
0.0
  0
LINE
  5
    56
  8
0
  6
CONTINUOUS
 62
    52
 10
-18.8492946624756
 20
-4.00005149841309
 30
0.0
 11
-20.8492946624756
 21
-6.00005149841309
 31
0.0
  0
LINE
  5
    57
  8
0
  6
CONTINUOUS
 62
    52
 10
-14.606653213501
 20
-4.00005149841309
 30
0.0
 11
-16.606653213501
 21
-6.00005149841309
 31
0.0
  0
LINE
  5
    58
  8
0
  6
CONTINUOUS
 62
    52
 10
-10.3640117645264
 20
-4.00005149841309
 30
0.0
 11
-12.3640117645264
 21
-6.00005149841309
 31
0.0
  0
LINE
  5
    59
  8
0
  6
CONTINUOUS
 62
    52
 10
-6.12137031555176
 20
-4.00005149841309
 30
0.0
 11
-8.12137031555176
 21
-6.00005149841309
 31
0.0
  0
LINE
  5
    5A
  8
0
  6
CONTINUOUS
 62
    52
 10
-1.87872910499573
 20
-4.00005149841309
 30
0.0
 11
-3.87872910499573
 21
-6.00005149841309
 31
0.0
  0
LINE
  5
    5B
  8
0
  6
CONTINUOUS
 62
    52
 10
2.36391186714172
 20
-4.00005149841309
 30
0.0
 11
0.363911867141724
 21
-6.00005149841309
 31
0.0
  0
LINE
  5
    5C
  8
0
  6
CONTINUOUS
 62
    52
 10
6.60655307769775
 20
-4.00005149841309
 30
0.0
 11
4.60655307769775
 21
-6.00005149841309
 31
0.0
  0
LINE
  5
    5D
  8
0
  6
CONTINUOUS
 62
    52
 10
10.8491945266724
 20
-4.00005149841309
 30
0.0
 11
8.84919452667236
 21
-6.00005149841309
 31
0.0
  0
LINE
  5
    5E
  8
0
  6
CONTINUOUS
 62
    52
 10
15.091835975647
 20
-4.00005149841309
 30
0.0
 11
13.091835975647
 21
-6.00005149841309
 31
0.0
  0
LINE
  5
    5F
  8
0
  6
CONTINUOUS
 62
    52
 10
19.3344764709473
 20
-4.00005149841309
 30
0.0
 11
17.3344764709473
 21
-6.00005149841309
 31
0.0
  0
LINE
  5
    60
  8
0
  6
CONTINUOUS
 62
    52
 10
23.5771179199219
 20
-4.00005149841309
 30
0.0
 11
21.5771179199219
 21
-6.00005149841309
 31
0.0
  0
LINE
  5
    61
  8
0
  6
CONTINUOUS
 62
    52
 10
27.8197593688965
 20
-4.00005149841309
 30
0.0
 11
25.8197593688965
 21
-6.00005149841309
 31
0.0
  0
LINE
  5
    62
  8
0
  6
CONTINUOUS
 62
    52
 10
32.0624008178711
 20
-4.00005149841309
 30
0.0
 11
30.0624008178711
 21
-6.00005149841309
 31
0.0
  0
LINE
  5
    63
  8
0
  6
CONTINUOUS
 62
    52
 10
35.4806251525879
 20
-4.82446241378784
 30
0.0
 11
34.3050346374512
 21
-6.00005149841309
 31
0.0
  0
ENDBLK
  5
    64
  8
0
  6
CONTINUOUS
 62
     7
  0
BLOCK
  5
    65
  8
0
  6
CONTINUOUS
 62
     7
  2
*UDIM2146
 70
    65
 10
0.0
 20
0.0
 30
0.0
  3
*UDIM2146
  0
TEXT
  5
    66
  8
0
  6
CONTINUOUS
 62
     7
 10
-233.092231858136
 20
128.771389962235
 30
0.0
 40
3.00000002980232
  1
5
 50
359.999999948034
 41
0.933333333333334
 72
     1
 11
-231.992231845856
 21
130.271389976144
 31
0.0
 73
     2
  0
LINE
  5
    67
  8
0
  6
CONTINUOUS
 62
     7
 10
-236.092231750488
 20
110.267544746399
 30
0.0
 11
-236.092231750488
 21
129.771389961243
 31
0.0
  0
LINE
  5
    68
  8
0
  6
CONTINUOUS
 62
     7
 10
-238.592231750488
 20
110.267547607422
 30
0.0
 11
-238.592231750488
 21
129.771389961243
 31
0.0
  0
LINE
  5
    69
  8
0
  6
CONTINUOUS
 62
     7
 10
-230.892231834928
 20
127.771389961243
 30
0.0
 11
-238.592231750488
 21
127.771389961243
 31
0.0
  0
LINE
  5
    6A
  8
0
  6
CONTINUOUS
 62
     7
 10
-233.137808473281
 20
128.292334391194
 30
0.0
 11
-236.092231750488
 21
127.771389961243
 31
0.0
  0
LINE
  5
    6B
  8
0
  6
CONTINUOUS
 62
     7
 10
-236.092231750488
 20
127.771389961243
 30
0.0
 11
-233.137808473281
 21
127.250445531291
 31
0.0
  0
LINE
  5
    6C
  8
0
  6
CONTINUOUS
 62
     7
 10
-241.546655027695
 20
127.250445531291
 30
0.0
 11
-238.592231750488
 21
127.771389961243
 31
0.0
  0
LINE
  5
    6D
  8
0
  6
CONTINUOUS
 62
     7
 10
-238.592231750488
 20
127.771389961243
 30
0.0
 11
-241.546655027695
 21
128.292334391194
 31
0.0
  0
ENDBLK
  5
    6E
  8
0
  6
CONTINUOUS
 62
     7
  0
BLOCK
  5
    6F
  8
0
  6
CONTINUOUS
 62
     7
  2
*UDIM2147
 70
    65
 10
0.0
 20
0.0
 30
0.0
  3
*UDIM2147
  0
TEXT
  5
    70
  8
0
  6
CONTINUOUS
 62
     7
 10
-249.117247041426
 20
128.771389963498
 30
0.0
 40
3.00000002980232
  1
31
 50
359.999999948034
 41
0.933333333333333
 72
     1
 11
-246.617247015238
 21
130.271389976144
 31
0.0
 73
     2
  0
LINE
  5
    71
  8
0
  6
CONTINUOUS
 62
     7
 10
-254.092262268066
 20
106.026590734368
 30
0.0
 11
-254.092262268066
 21
129.771389961243
 31
0.0
  0
LINE
  5
    72
  8
0
  6
CONTINUOUS
 62
     7
 10
-238.592231750488
 20
127.771389961243
 30
0.0
 11
-254.092262268066
 21
127.771389961243
 31
0.0
  0
LINE
  5
    73
  8
0
  6
CONTINUOUS
 62
     7
 10
-241.546655027695
 20
127.250445531291
 30
0.0
 11
-238.592231750488
 21
127.771389961243
 31
0.0
  0
LINE
  5
    74
  8
0
  6
CONTINUOUS
 62
     7
 10
-238.592231750488
 20
127.771389961243
 30
0.0
 11
-241.546655027695
 21
128.292334391194
 31
0.0
  0
LINE
  5
    75
  8
0
  6
CONTINUOUS
 62
     7
 10
-251.137838990859
 20
128.292334391194
 30
0.0
 11
-254.092262268066
 21
127.771389961243
 31
0.0
  0
LINE
  5
    76
  8
0
  6
CONTINUOUS
 62
     7
 10
-254.092262268066
 20
127.771389961243
 30
0.0
 11
-251.137838990859
 21
127.250445531291
 31
0.0
  0
ENDBLK
  5
    77
  8
0
  6
CONTINUOUS
 62
     7
  0
BLOCK
  5
    78
  8
0
  6
CONTINUOUS
 62
     7
  2
*UDIM2148
 70
    65
 10
0.0
 20
0.0
 30
0.0
  3
*UDIM2148
  0
TEXT
  5
    79
  8
0
  6
CONTINUOUS
 62
     7
 10
-261.34225474632
 20
128.771389962235
 30
0.0
 40
3.00000002980232
  1
3
 50
359.999999948034
 41
0.933333333333334
 72
     1
 11
-260.242254734039
 21
130.271389976144
 31
0.0
 73
     2
  0
TEXT
  5
    7A
  8
0
  6
CONTINUOUS
 62
     7
 10
-264.092254780096
 20
128.771389962235
 30
0.0
 40
3.00000002980232
  1
_
 50
359.999999948034
 41
0.933333333333334
 72
     1
 11
-262.992254767815
 21
130.271389976144
 31
0.0
 73
     2
  0
LINE
  5
    7B
  8
0
  6
CONTINUOUS
 62
     7
 10
-255.592254638672
 20
106.026590734368
 30
0.0
 11
-255.592254638672
 21
129.771389961243
 31
0.0
  0
LINE
  5
    7C
  8
0
  6
CONTINUOUS
 62
     7
 10
-254.092262268066
 20
127.771389961243
 30
0.0
 11
-264.092254778743
 21
127.771389961243
 31
0.0
  0
LINE
  5
    7D
  8
0
  6
CONTINUOUS
 62
     7
 10
-251.137838990859
 20
128.292334391194
 30
0.0
 11
-254.092262268066
 21
127.771389961243
 31
0.0
  0
LINE
  5
    7E
  8
0
  6
CONTINUOUS
 62
     7
 10
-254.092262268066
 20
127.771389961243
 30
0.0
 11
-251.137838990859
 21
127.250445531291
 31
0.0
  0
LINE
  5
    7F
  8
0
  6
CONTINUOUS
 62
     7
 10
-258.546677915879
 20
127.250445531291
 30
0.0
 11
-255.592254638672
 21
127.771389961243
 31
0.0
  0
LINE
  5
    80
  8
0
  6
CONTINUOUS
 62
     7
 10
-255.592254638672
 20
127.771389961243
 30
0.0
 11
-258.546677915879
 21
128.292334391194
 31
0.0
  0
ENDBLK
  5
    81
  8
0
  6
CONTINUOUS
 62
     7
  0
BLOCK
  5
    82
  8
0
  6
CONTINUOUS
 62
     7
  2
*UDIM2149
 70
    65
 10
0.0
 20
0.0
 30
0.0
  3
*UDIM2149
  0
TEXT
  5
    83
  8
0
  6
CONTINUOUS
 62
     7
 10
-171.842244255902
 20
-35.7520627965543
 30
0.0
 40
3.00000002980232
  1
2
 50
359.999999948034
 41
0.933333333333334
 72
     1
 11
-170.742244243622
 21
-34.2520627826452
 31
0.0
 73
     2
  0
LINE
  5
    84
  8
0
  6
CONTINUOUS
 62
     7
 10
-174.842244148254
 20
-18.7542955478792
 30
0.0
 11
-174.842244148254
 21
-38.7520627975464
 31
0.0
  0
LINE
  5
    85
  8
0
  6
CONTINUOUS
 62
     7
 10
-175.842244148254
 20
-18.2885421232216
 30
0.0
 11
-175.842244148254
 21
-38.7520627975464
 31
0.0
  0
LINE
  5
    86
  8
0
  6
CONTINUOUS
 62
     7
 10
-169.642244232694
 20
-36.7520627975464
 30
0.0
 11
-175.842244148254
 21
-36.7520627975464
 31
0.0
  0
LINE
  5
    87
  8
0
  6
CONTINUOUS
 62
     7
 10
-171.887820871047
 20
-36.2311183675947
 30
0.0
 11
-174.842244148254
 21
-36.7520627975464
 31
0.0
  0
LINE
  5
    88
  8
0
  6
CONTINUOUS
 62
     7
 10
-174.842244148254
 20
-36.7520627975464
 30
0.0
 11
-171.887820871047
 21
-37.273007227498
 31
0.0
  0
LINE
  5
    89
  8
0
  6
CONTINUOUS
 62
     7
 10
-178.796667425461
 20
-37.273007227498
 30
0.0
 11
-175.842244148254
 21
-36.7520627975464
 31
0.0
  0
LINE
  5
    8A
  8
0
  6
CONTINUOUS
 62
     7
 10
-175.842244148254
 20
-36.7520627975464
 30
0.0
 11
-178.796667425461
 21
-36.2311183675947
 31
0.0
  0
ENDBLK
  5
    8B
  8
0
  6
CONTINUOUS
 62
     7
  0
BLOCK
  5
    8C
  8
0
  6
CONTINUOUS
 62
     7
  2
*UDIM2150
 70
    65
 10
0.0
 20
0.0
 30
0.0
  3
*UDIM2150
  0
TEXT
  5
    8D
  8
0
  6
CONTINUOUS
 62
     7
 10
-221.942250903969
 20
-35.7520627915033
 30
0.0
 40
3.00000002980232
  1
156,5
 50
359.999999948034
 41
0.933333333333333
 72
     1
 11
-215.242250836057
 21
-34.2520627826452
 31
0.0
 73
     2
  0
LINE
  5
    8E
  8
0
  6
CONTINUOUS
 62
     7
 10
-254.092260074939
 20
-3.75723801372406
 30
0.0
 11
-254.092260074939
 21
-38.7520627975464
 31
0.0
  0
LINE
  5
    8F
  8
0
  6
CONTINUOUS
 62
     7
 10
-175.842244148254
 20
-36.7520627975464
 30
0.0
 11
-254.092260074939
 21
-36.7520627975464
 31
0.0
  0
LINE
  5
    90
  8
0
  6
CONTINUOUS
 62
     7
 10
-178.796667425461
 20
-37.273007227498
 30
0.0
 11
-175.842244148254
 21
-36.7520627975464
 31
0.0
  0
LINE
  5
    91
  8
0
  6
CONTINUOUS
 62
     7
 10
-175.842244148254
 20
-36.7520627975464
 30
0.0
 11
-178.796667425461
 21
-36.2311183675947
 31
0.0
  0
LINE
  5
    92
  8
0
  6
CONTINUOUS
 62
     7
 10
-251.137836797732
 20
-36.2311183675947
 30
0.0
 11
-254.092260074939
 21
-36.7520627975464
 31
0.0
  0
LINE
  5
    93
  8
0
  6
CONTINUOUS
 62
     7
 10
-254.092260074939
 20
-36.7520627975464
 30
0.0
 11
-251.137836797732
 21
-37.273007227498
 31
0.0
  0
ENDBLK
  5
    94
  8
0
  6
CONTINUOUS
 62
     7
  0
BLOCK
  5
    95
  8
0
  6
CONTINUOUS
 62
     7
  2
*UDIM2151
 70
    65
 10
0.0
 20
0.0
 30
0.0
  3
*UDIM2151
  0
TEXT
  5
    96
  8
0
  6
CONTINUOUS
 62
     7
 10
-220.01691516878
 20
-24.393710132896
 30
0.0
 40
3.00000002980232
  1
153
 50
359.999999948034
 41
0.933333333333333
 72
     1
 11
-216.116915128684
 21
-22.8937101215124
 31
0.0
 73
     2
  0
LINE
  5
    97
  8
0
  6
CONTINUOUS
 62
     7
 10
-177.591576873759
 20
23.392552377621
 30
0.0
 11
-177.591592816404
 21
-27.3937101364135
 31
0.0
  0
LINE
  5
    98
  8
0
  6
CONTINUOUS
 62
     7
 10
-254.092260753227
 20
-3.75723801372383
 30
0.0
 11
-254.092276785566
 21
-27.3937101364131
 31
0.0
  0
LINE
  5
    99
  8
0
  6
CONTINUOUS
 62
     7
 10
-177.591592188571
 20
-25.3937101364136
 30
0.0
 11
-254.09227542899
 21
-25.3937101364136
 31
0.0
  0
LINE
  5
    9A
  8
0
  6
CONTINUOUS
 62
     7
 10
-180.546015465778
 20
-25.9146545663652
 30
0.0
 11
-177.591592188571
 21
-25.3937101364136
 31
0.0
  0
LINE
  5
    9B
  8
0
  6
CONTINUOUS
 62
     7
 10
-177.591592188571
 20
-25.3937101364136
 30
0.0
 11
-180.546015465778
 21
-24.8727657064619
 31
0.0
  0
LINE
  5
    9C
  8
0
  6
CONTINUOUS
 62
     7
 10
-251.137852151783
 20
-24.8727657064619
 30
0.0
 11
-254.09227542899
 21
-25.3937101364136
 31
0.0
  0
LINE
  5
    9D
  8
0
  6
CONTINUOUS
 62
     7
 10
-254.09227542899
 20
-25.3937101364136
 30
0.0
 11
-251.137852151783
 21
-25.9146545663652
 31
0.0
  0
ENDBLK
  5
    9E
  8
0
  6
CONTINUOUS
 62
     7
  0
BLOCK
  5
    9F
  8
0
  6
CONTINUOUS
 62
     7
  2
*UDIM2152
 70
    65
 10
0.0
 20
0.0
 30
0.0
  3
*UDIM2152
  0
TEXT
  5
    A0
  8
0
  6
CONTINUOUS
 62
     7
 10
-216.33098227534
 20
-44.461756698932
 30
0.0
 40
3.00000002980232
  1
184,55
 50
359.999999948034
 41
0.933333333333333
 72
     1
 11
-208.23098219352
 21
-42.9617566913366
 31
0.0
 73
     2
  0
LINE
  5
    A1
  8
0
  6
CONTINUOUS
 62
     7
 10
-161.819698330524
 20
44.5175523757935
 30
0.0
 11
-161.819728116806
 21
-47.4617567062377
 31
0.0
  0
LINE
  5
    A2
  8
0
  6
CONTINUOUS
 62
     7
 10
-254.092260581999
 20
-3.75723801372393
 30
0.0
 11
-254.092282742799
 21
-47.4617567062375
 31
0.0
  0
LINE
  5
    A3
  8
0
  6
CONTINUOUS
 62
     7
 10
-161.819727469133
 20
-45.4617567062378
 30
0.0
 11
-254.09228172868
 21
-45.4617567062378
 31
0.0
  0
LINE
  5
    A4
  8
0
  6
CONTINUOUS
 62
     7
 10
-164.774150746339
 20
-45.9827011361895
 30
0.0
 11
-161.819727469133
 21
-45.4617567062378
 31
0.0
  0
LINE
  5
    A5
  8
0
  6
CONTINUOUS
 62
     7
 10
-161.819727469133
 20
-45.4617567062378
 30
0.0
 11
-164.774150746339
 21
-44.9408122762861
 31
0.0
  0
LINE
  5
    A6
  8
0
  6
CONTINUOUS
 62
     7
 10
-251.137858451473
 20
-44.9408122762861
 30
0.0
 11
-254.09228172868
 21
-45.4617567062378
 31
0.0
  0
LINE
  5
    A7
  8
0
  6
CONTINUOUS
 62
     7
 10
-254.09228172868
 20
-45.4617567062378
 30
0.0
 11
-251.137858451473
 21
-45.9827011361895
 31
0.0
  0
ENDBLK
  5
    A8
  8
0
  6
CONTINUOUS
 62
     7
  0
BLOCK
  5
    A9
  8
0
  6
CONTINUOUS
 62
     7
  2
*UDIM2153
 70
    65
 10
0.0
 20
0.0
 30
0.0
  3
*UDIM2153
  0
TEXT
  5
    AA
  8
0
  6
CONTINUOUS
 62
     7
 10
-150.776773456291
 20
46.4675523303214
 30
0.0
 40
3.00000002980232
  1
105
 50
89.9999999480344
 41
0.933333333333333
 72
     1
 11
-152.27677346766
 21
50.367552370423
 31
0.0
 73
     2
  0
LINE
  5
    AB
  8
0
  6
CONTINUOUS
 62
     7
 10
-174.842244148254
 20
24.3925523769735
 30
0.0
 11
-147.776773452759
 21
24.3925523769735
 31
0.0
  0
LINE
  5
    AC
  8
0
  6
CONTINUOUS
 62
     7
 10
-174.842244148254
 20
76.8925523757935
 30
0.0
 11
-147.776773452759
 21
76.8925523757935
 31
0.0
  0
LINE
  5
    AD
  8
0
  6
CONTINUOUS
 62
     7
 10
-149.776773452759
 20
24.3925523769735
 30
0.0
 11
-149.776773452759
 21
76.8925523757935
 31
0.0
  0
LINE
  5
    AE
  8
0
  6
CONTINUOUS
 62
     7
 10
-150.29771788271
 20
27.3469756541804
 30
0.0
 11
-149.776773452759
 21
24.3925523769735
 31
0.0
  0
LINE
  5
    AF
  8
0
  6
CONTINUOUS
 62
     7
 10
-149.776773452759
 20
24.3925523769735
 30
0.0
 11
-149.255829022807
 21
27.3469756541804
 31
0.0
  0
LINE
  5
    B0
  8
0
  6
CONTINUOUS
 62
     7
 10
-149.255829022807
 20
73.9381290985865
 30
0.0
 11
-149.776773452759
 21
76.8925523757935
 31
0.0
  0
LINE
  5
    B1
  8
0
  6
CONTINUOUS
 62
     7
 10
-149.776773452759
 20
76.8925523757935
 30
0.0
 11
-150.29771788271
 21
73.9381290985865
 31
0.0
  0
ENDBLK
  5
    B2
  8
0
  6
CONTINUOUS
 62
     7
  0
BLOCK
  5
    B3
  8
0
  6
CONTINUOUS
 62
     7
  2
MOSTRINA
 70
    64
 10
0.0
 20
0.0
 30
0.0
  3
MOSTRINA
  0
LINE
  5
    B4
  8
0
  6
CONTINUOUS
 62
     3
 10
173.338256835938
 20
30.7306251525879
 30
0.0
 11
173.338256835938
 21
189.230621337891
 31
0.0
  0
LINE
  5
    B5
  8
0
  6
CONTINUOUS
 62
     3
 10
57.5882568359375
 20
29.4806251525879
 30
0.0
 11
172.088256835938
 21
29.4806251525879
 31
0.0
  0
LINE
  5
    B6
  8
0
  6
CONTINUOUS
 62
     3
 10
56.3382568359375
 20
30.7306251525879
 30
0.0
 11
56.3382568359375
 21
189.230621337891
 31
0.0
  0
LINE
  5
    B7
  8
0
  6
CONTINUOUS
 62
     3
 10
57.5882568359375
 20
190.480621337891
 30
0.0
 11
172.088256835938
 21
190.480621337891
 31
0.0
  0
LINE
  5
    B8
  8
0
  6
CONTINUOUS
 62
     3
 10
167.838256835938
 20
56.9806251525879
 30
0.0
 11
167.838256835938
 21
162.980625152588
 31
0.0
  0
LINE
  5
    B9
  8
0
  6
CONTINUOUS
 62
     3
 10
61.8382568359375
 20
56.9806251525879
 30
0.0
 11
167.838256835938
 21
56.9806251525879
 31
0.0
  0
LINE
  5
    BA
  8
0
  6
CONTINUOUS
 62
     3
 10
61.8382568359375
 20
56.9806251525879
 30
0.0
 11
61.8382568359375
 21
162.980625152588
 31
0.0
  0
LINE
  5
    BB
  8
0
  6
CONTINUOUS
 62
     3
 10
61.8382568359375
 20
162.980621337891
 30
0.0
 11
167.838256835938
 21
162.980621337891
 31
0.0
  0
LINE
  5
    BC
  8
0
  6
CONTINUOUS
 62
     3
 10
168.838256835938
 20
48.4806251525879
 30
0.0
 11
168.838256835938
 21
49.4806251525879
 31
0.0
  0
LINE
  5
    BD
  8
0
  6
CONTINUOUS
 62
     3
 10
61.8382568359375
 20
50.4806251525879
 30
0.0
 11
167.838256835938
 21
50.4806251525879
 31
0.0
  0
LINE
  5
    BE
  8
0
  6
CONTINUOUS
 62
     3
 10
60.8382568359375
 20
48.4806251525879
 30
0.0
 11
60.8382568359375
 21
49.4806251525879
 31
0.0
  0
LINE
  5
    BF
  8
0
  6
CONTINUOUS
 62
     3
 10
61.8382568359375
 20
49.4806251525879
 30
0.0
 11
167.838256835938
 21
49.4806251525879
 31
0.0
  0
LINE
  5
    C0
  8
0
  6
CONTINUOUS
 62
     3
 10
60.8382568359375
 20
29.4806251525879
 30
0.0
 11
60.8382568359375
 21
48.4806251525879
 31
0.0
  0
LINE
  5
    C1
  8
0
  6
CONTINUOUS
 62
     3
 10
60.8382568359375
 20
49.4806213378906
 30
0.0
 11
60.8382568359375
 21
190.480621337891
 31
0.0
  0
LINE
  5
    C2
  8
0
  6
CONTINUOUS
 62
     3
 10
61.8382568359375
 20
29.4806251525879
 30
0.0
 11
61.8382568359375
 21
49.4806251525879
 31
0.0
  0
LINE
  5
    C3
  8
0
  6
CONTINUOUS
 62
     3
 10
61.8382568359375
 20
162.980621337891
 30
0.0
 11
61.8382568359375
 21
169.480621337891
 31
0.0
  0
LINE
  5
    C4
  8
0
  6
CONTINUOUS
 62
     3
 10
61.8382568359375
 20
50.4806251525879
 30
0.0
 11
61.8382568359375
 21
56.9806251525879
 31
0.0
  0
LINE
  5
    C5
  8
0
  6
CONTINUOUS
 62
     3
 10
168.838256835938
 20
29.4806251525879
 30
0.0
 11
168.838256835938
 21
48.4806251525879
 31
0.0
  0
LINE
  5
    C6
  8
0
  6
CONTINUOUS
 62
     3
 10
168.838256835938
 20
49.4806251525879
 30
0.0
 11
168.838256835938
 21
190.480621337891
 31
0.0
  0
LINE
  5
    C7
  8
0
  6
CONTINUOUS
 62
     3
 10
167.838256835938
 20
50.4806251525879
 30
0.0
 11
167.838256835938
 21
56.9806251525879
 31
0.0
  0
LINE
  5
    C8
  8
0
  6
CONTINUOUS
 62
     3
 10
167.838256835938
 20
162.980621337891
 30
0.0
 11
167.838256835938
 21
169.480621337891
 31
0.0
  0
LINE
  5
    C9
  8
0
  6
CONTINUOUS
 62
     3
 10
167.838256835938
 20
29.4806251525879
 30
0.0
 11
167.838256835938
 21
49.4806251525879
 31
0.0
  0
LINE
  5
    CA
  8
0
  6
CONTINUOUS
 62
     3
 10
60.8382568359375
 20
170.480621337891
 30
0.0
 11
168.838256835938
 21
170.480621337891
 31
0.0
  0
LINE
  5
    CB
  8
0
  6
CONTINUOUS
 62
     3
 10
61.8382568359375
 20
169.480621337891
 30
0.0
 11
167.838256835938
 21
169.480621337891
 31
0.0
  0
ARC
  5
    CC
  8
0
  6
CONTINUOUS
 62
     3
 10
57.5882568359375
 20
30.7306251525879
 30
0.0
 40
1.25
 50
180.0
 51
270.0
  0
ARC
  5
    CD
  8
0
  6
CONTINUOUS
 62
     3
 10
172.088256835938
 20
30.7306251525879
 30
0.0
 40
1.25
 50
270.0
 51
360.0
  0
ARC
  5
    CE
  8
0
  6
CONTINUOUS
 62
     3
 10
172.088256835938
 20
189.230621337891
 30
0.0
 40
1.25
 50
0.0
 51
90.0
  0
ARC
  5
    CF
  8
0
  6
CONTINUOUS
 62
     3
 10
57.5882568359375
 20
189.230621337891
 30
0.0
 40
1.25
 50
90.0
 51
180.0
  0
LINE
  5
    D0
  8
0
  6
DOT
 62
     3
 10
60.3382577409677
 20
179.7306252571
 30
0.0
 11
60.8382568359375
 21
179.7306252571
 31
0.0
  0
LINE
  5
    D1
  8
0
  6
DOT
 62
     3
 10
60.3382577409676
 20
181.2306252571
 30
0.0
 11
60.8382568359375
 21
181.2306252571
 31
0.0
  0
LINE
  5
    D2
  8
0
  6
CONTINUOUS
 62
     3
 10
168.338257745313
 20
179.730625257273
 30
0.0
 11
168.838256835938
 21
179.730625257273
 31
0.0
  0
LINE
  5
    D3
  8
0
  6
CONTINUOUS
 62
     3
 10
168.338257745314
 20
181.230625257273
 30
0.0
 11
168.838256835938
 21
181.230625257273
 31
0.0
  0
ARC
  5
    D4
  8
0
  6
DOT
 62
     3
 10
60.3382577401871
 20
180.480625257147
 30
0.0
 40
0.749999999345164
 50
90.0
 51
270.0
  0
ARC
  5
    D5
  8
0
  6
CONTINUOUS
 62
     3
 10
61.338257740822
 20
180.480625256974
 30
0.0
 40
0.750000000009701
 50
270.0
 51
450.0
  0
LINE
  5
    D6
  8
0
  6
CONTINUOUS
 62
     3
 10
60.8382568359375
 20
181.2306252571
 30
0.0
 11
61.3382577409688
 21
181.2306252571
 31
0.0
  0
LINE
  5
    D7
  8
0
  6
CONTINUOUS
 62
     3
 10
60.8382568359375
 20
179.7306252571
 30
0.0
 11
61.3382577409689
 21
179.7306252571
 31
0.0
  0
ARC
  5
    D8
  8
0
  6
CONTINUOUS
 62
     3
 10
168.338257745503
 20
180.480625256952
 30
0.0
 40
0.750000000048506
 50
90.0000000038822
 51
269.999999996024
  0
ARC
  5
    D9
  8
0
  6
DOT
 62
     3
 10
169.338257745421
 20
180.480625256965
 30
0.0
 40
0.750000000029104
 50
270.000000002449
 51
449.999999997486
  0
LINE
  5
    DA
  8
0
  6
DOT
 62
     3
 10
168.838256835938
 20
181.230625257273
 30
0.0
 11
169.338257745315
 21
181.230625257273
 31
0.0
  0
LINE
  5
    DB
  8
0
  6
DOT
 62
     3
 10
168.838256835938
 20
179.730625257273
 30
0.0
 11
169.338257745315
 21
179.730625257273
 31
0.0
  0
POINT
  5
    DC
  8
0
  6
CONTINUOUS
 62
     3
 10
114.838256835938
 20
109.980621337891
 30
0.0
  0
ENDBLK
  5
    DD
  8
0
  6
CONTINUOUS
 62
     7
  0
BLOCK
  5
    DE
  8
0
  6
CONTINUOUS
 62
     7
  2
*UDIM2154
 70
    65
 10
0.0
 20
0.0
 30
0.0
  3
*UDIM2154
  0
TEXT
  5
    DF
  8
0
  6
CONTINUOUS
 62
     7
 10
-302.867103580193
 20
46.4675561534189
 30
0.0
 40
3.00000002980232
  1
161
 50
89.9999999480344
 41
0.933333333333333
 72
     1
 11
-304.367103591561
 21
50.3675561935205
 31
0.0
 73
     2
  0
LINE
  5
    E0
  8
0
  6
CONTINUOUS
 62
     7
 10
-314.393432007565
 20
10.3925575405855
 30
0.0
 11
-299.86710357666
 21
10.3925575405855
 31
0.0
  0
LINE
  5
    E1
  8
0
  6
CONTINUOUS
 62
     7
 10
-314.393432007565
 20
90.8925556332369
 30
0.0
 11
-299.86710357666
 21
90.8925556332369
 31
0.0
  0
LINE
  5
    E2
  8
0
  6
CONTINUOUS
 62
     7
 10
-301.86710357666
 20
10.3925575405855
 30
0.0
 11
-301.86710357666
 21
90.8925556332369
 31
0.0
  0
LINE
  5
    E3
  8
0
  6
CONTINUOUS
 62
     7
 10
-302.388048006612
 20
13.3469808177925
 30
0.0
 11
-301.86710357666
 21
10.3925575405855
 31
0.0
  0
LINE
  5
    E4
  8
0
  6
CONTINUOUS
 62
     7
 10
-301.86710357666
 20
10.3925575405855
 30
0.0
 11
-301.346159146709
 21
13.3469808177925
 31
0.0
  0
LINE
  5
    E5
  8
0
  6
CONTINUOUS
 62
     7
 10
-301.346159146709
 20
87.9381323560299
 30
0.0
 11
-301.86710357666
 21
90.8925556332369
 31
0.0
  0
LINE
  5
    E6
  8
0
  6
CONTINUOUS
 62
     7
 10
-301.86710357666
 20
90.8925556332369
 30
0.0
 11
-302.388048006612
 21
87.9381323560299
 31
0.0
  0
ENDBLK
  5
    E7
  8
0
  6
CONTINUOUS
 62
     7
  0
BLOCK
  5
    E8
  8
0
  6
CONTINUOUS
 62
     7
  2
*UDIM2155
 70
    65
 10
0.0
 20
0.0
 30
0.0
  3
*UDIM2155
  0
TEXT
  5
    E9
  8
0
  6
CONTINUOUS
 62
     7
 10
-348.193432649667
 20
128.069546703042
 30
0.0
 40
3.00000002980232
  1
117
 50
359.999999948034
 41
0.933333333333333
 72
     1
 11
-344.293432609572
 21
129.569546714425
 31
0.0
 73
     2
  0
LINE
  5
    EA
  8
0
  6
CONTINUOUS
 62
     7
 10
-314.768432007565
 20
91.2675556332368
 30
0.0
 11
-314.768432007565
 21
129.069546699524
 31
0.0
  0
LINE
  5
    EB
  8
0
  6
CONTINUOUS
 62
     7
 10
-373.268432007564
 20
91.2675556332369
 30
0.0
 11
-373.268432007564
 21
129.069546699524
 31
0.0
  0
LINE
  5
    EC
  8
0
  6
CONTINUOUS
 62
     7
 10
-314.768432007565
 20
127.069546699524
 30
0.0
 11
-373.268432007564
 21
127.069546699524
 31
0.0
  0
LINE
  5
    ED
  8
0
  6
CONTINUOUS
 62
     7
 10
-317.722855284772
 20
126.548602269572
 30
0.0
 11
-314.768432007565
 21
127.069546699524
 31
0.0
  0
LINE
  5
    EE
  8
0
  6
CONTINUOUS
 62
     7
 10
-314.768432007565
 20
127.069546699524
 30
0.0
 11
-317.722855284772
 21
127.590491129476
 31
0.0
  0
LINE
  5
    EF
  8
0
  6
CONTINUOUS
 62
     7
 10
-370.314008730358
 20
127.590491129476
 30
0.0
 11
-373.268432007564
 21
127.069546699524
 31
0.0
  0
LINE
  5
    F0
  8
0
  6
CONTINUOUS
 62
     7
 10
-373.268432007564
 20
127.069546699524
 30
0.0
 11
-370.314008730358
 21
126.548602269572
 31
0.0
  0
ENDBLK
  5
    F1
  8
0
  6
CONTINUOUS
 62
     7
  0
BLOCK
  5
    F2
  8
0
  6
CONTINUOUS
 62
     5
  2
*UDIM2156
 70
    65
 10
0.0
 20
0.0
 30
0.0
  3
*UDIM2156
  0
TEXT
  5
    F3
  8
0
  6
CONTINUOUS
 62
     5
 10
-399.422019012158
 20
69.08004465464
 30
0.0
 40
3.00000002980232
  1
107,25
 50
89.9999999480344
 41
0.933333333333333
 72
     1
 11
-400.922019019723
 21
77.1800447364648
 31
0.0
 73
     2
  0
LINE
  5
    F4
  8
0
  6
CONTINUOUS
 62
     5
 10
-384.536383377131
 20
50.6425556332369
 30
0.0
 11
-400.422019004822
 21
50.6425556332369
 31
0.0
  0
LINE
  5
    F5
  8
0
  6
CONTINUOUS
 62
     5
 10
-365.568460513443
 20
104.26754112338
 30
0.0
 11
-400.422019004822
 21
104.26754112338
 31
0.0
  0
LINE
  5
    F6
  8
0
  6
CONTINUOUS
 62
     5
 10
-398.422019004822
 20
50.6425556332369
 30
0.0
 11
-398.422019004822
 21
104.26754112338
 31
0.0
  0
LINE
  5
    F7
  8
0
  6
CONTINUOUS
 62
     5
 10
-398.942963434774
 20
53.5969789104438
 30
0.0
 11
-398.422019004822
 21
50.6425556332369
 31
0.0
  0
LINE
  5
    F8
  8
0
  6
CONTINUOUS
 62
     5
 10
-398.422019004822
 20
50.6425556332369
 30
0.0
 11
-397.90107457487
 21
53.5969789104438
 31
0.0
  0
LINE
  5
    F9
  8
0
  6
CONTINUOUS
 62
     5
 10
-397.90107457487
 20
101.313117846173
 30
0.0
 11
-398.422019004822
 21
104.26754112338
 31
0.0
  0
LINE
  5
    FA
  8
0
  6
CONTINUOUS
 62
     5
 10
-398.422019004822
 20
104.26754112338
 30
0.0
 11
-398.942963434774
 21
101.313117846173
 31
0.0
  0
ENDBLK
  5
    FB
  8
0
  6
CONTINUOUS
 62
     5
  0
BLOCK
  5
    FC
  8
0
  6
CONTINUOUS
 62
     5
  2
*UDIM2157
 70
    65
 10
0.0
 20
0.0
 30
0.0
  3
*UDIM2157
  0
TEXT
  5
    FD
  8
0
  6
CONTINUOUS
 62
     5
 10
-381.641954428065
 20
66.1050523109071
 30
0.0
 40
3.00000002980232
  1
89,75
 50
89.9999999480344
 41
0.933333333333333
 72
     1
 11
-383.141954436898
 21
72.8050523788242
 31
0.0
 73
     2
  0
LINE
  5
    FE
  8
0
  6
CONTINUOUS
 62
     5
 10
-370.643423905146
 20
95.5175518185415
 30
0.0
 11
-382.641954421997
 21
95.5175518185415
 31
0.0
  0
LINE
  5
    FF
  8
0
  6
CONTINUOUS
 62
     5
 10
-380.641954421997
 20
50.6425556332369
 30
0.0
 11
-380.641954421997
 21
95.5175518185415
 31
0.0
  0
LINE
  5
   100
  8
0
  6
CONTINUOUS
 62
     5
 10
-381.162898851949
 20
53.5969789104438
 30
0.0
 11
-380.641954421997
 21
50.6425556332369
 31
0.0
  0
LINE
  5
   101
  8
0
  6
CONTINUOUS
 62
     5
 10
-380.641954421997
 20
50.6425556332369
 30
0.0
 11
-380.121009992045
 21
53.5969789104438
 31
0.0
  0
LINE
  5
   102
  8
0
  6
CONTINUOUS
 62
     5
 10
-380.121009992045
 20
92.5631285413345
 30
0.0
 11
-380.641954421997
 21
95.5175518185415
 31
0.0
  0
LINE
  5
   103
  8
0
  6
CONTINUOUS
 62
     5
 10
-380.641954421997
 20
95.5175518185415
 30
0.0
 11
-381.162898851949
 21
92.5631285413345
 31
0.0
  0
ENDBLK
  5
   104
  8
0
  6
CONTINUOUS
 62
     5
  0
BLOCK
  5
   105
  8
0
  6
CONTINUOUS
 62
     7
  2
*UDIM2158
 70
    65
 10
0.0
 20
0.0
 30
0.0
  3
*UDIM2158
  0
TEXT
  5
   106
  8
0
  6
CONTINUOUS
 62
     7
 10
-390.325242046074
 20
50.434776519422
 30
0.0
 40
3.00000002980232
  1
175
 50
89.9999999480344
 41
0.933333333333333
 72
     1
 11
-391.825242057443
 21
54.3347765595236
 31
0.0
 73
     2
  0
LINE
  5
   107
  8
0
  6
CONTINUOUS
 62
     7
 10
-370.643423905146
 20
8.01755181854159
 30
0.0
 11
-391.325242042542
 21
8.01755181854159
 31
0.0
  0
LINE
  5
   108
  8
0
  6
CONTINUOUS
 62
     7
 10
-370.643423905146
 20
95.5175518185415
 30
0.0
 11
-391.325242042542
 21
95.5175518185415
 31
0.0
  0
LINE
  5
   109
  8
0
  6
CONTINUOUS
 62
     7
 10
-389.325242042542
 20
8.01755181854159
 30
0.0
 11
-389.325242042542
 21
95.5175518185415
 31
0.0
  0
LINE
  5
   10A
  8
0
  6
CONTINUOUS
 62
     7
 10
-389.846186472493
 20
10.9719750957486
 30
0.0
 11
-389.325242042542
 21
8.01755181854159
 31
0.0
  0
LINE
  5
   10B
  8
0
  6
CONTINUOUS
 62
     7
 10
-389.325242042542
 20
8.01755181854159
 30
0.0
 11
-388.80429761259
 21
10.9719750957486
 31
0.0
  0
LINE
  5
   10C
  8
0
  6
CONTINUOUS
 62
     7
 10
-388.80429761259
 20
92.5631285413345
 30
0.0
 11
-389.325242042542
 21
95.5175518185415
 31
0.0
  0
LINE
  5
   10D
  8
0
  6
CONTINUOUS
 62
     7
 10
-389.325242042542
 20
95.5175518185415
 30
0.0
 11
-389.846186472493
 21
92.5631285413345
 31
0.0
  0
ENDBLK
  5
   10E
  8
0
  6
CONTINUOUS
 62
     7
  0
BLOCK
  5
   10F
  8
0
  6
CONTINUOUS
 62
     7
  2
*UDIM2159
 70
    65
 10
0.0
 20
0.0
 30
0.0
  3
*UDIM2159
  0
TEXT
  5
   110
  8
0
  6
CONTINUOUS
 62
     7
 10
-308.42444403722
 20
6.21912899638071
 30
0.0
 40
3.00000002980232
  1
8,2
 50
378.059147877059
 41
0.933333333333333
 72
     1
 11
-305.181567634887
 21
8.85422918159061
 31
0.0
 73
     2
  0
TEXT
  5
   111
  8
0
  6
CONTINUOUS
 62
     7
 10
-311.419265606188
 20
5.24263330636135
 30
0.0
 40
3.00000002980232
  1
Ø
 50
378.059147877059
 41
0.933333333333334
 72
     1
 11
-310.838452840245
 21
7.00973732131381
 31
0.0
 73
     2
  0
LINE
  5
   112
  8
0
  6
CONTINUOUS
 62
     7
 10
-328.467469965865
 20
-1.36794351460625
 30
0.0
 11
-300.698696705642
 21
7.68638132830297
 31
0.0
  0
LINE
  5
   113
  8
0
  6
CONTINUOUS
 62
     7
 10
-331.114857439236
 20
-2.77909182922091
 30
0.0
 11
-328.467469965865
 21
-1.36794351460625
 31
0.0
  0
LINE
  5
   114
  8
0
  6
CONTINUOUS
 62
     7
 10
-328.467469965865
 20
-1.36794351460625
 30
0.0
 11
-331.437841558431
 21
-1.78852953681409
 31
0.0
  0
LINE
  5
   115
  8
0
  6
CONTINUOUS
 62
     7
 10
-321.922006575893
 20
1.31421685662622
 30
0.0
 11
-324.569394049264
 21
-9.69314579884468E-2
 31
0.0
  0
LINE
  5
   116
  8
0
  6
CONTINUOUS
 62
     7
 10
-324.569394049264
 20
-9.69314579884468E-2
 30
0.0
 11
-321.599022456698
 21
0.323654564219394
 31
0.0
  0
ENDBLK
  5
   117
  8
0
  6
CONTINUOUS
 62
     7
  0
BLOCK
  5
   118
  8
0
  6
CONTINUOUS
 62
     7
  2
*UDIM2160
 70
    65
 10
0.0
 20
0.0
 30
0.0
  3
*UDIM2160
  0
TEXT
  5
   119
  8
0
  6
CONTINUOUS
 62
     7
 10
-353.543398231675
 20
-15.59762859119
 30
0.0
 40
3.00000002980232
  1
20
 50
359.999999948034
 41
0.933333333333333
 72
     1
 11
-351.043398205486
 21
-14.0976285785437
 31
0.0
 73
     2
  0
LINE
  5
   11A
  8
0
  6
CONTINUOUS
 62
     7
 10
-356.518398859575
 20
3.26754705017007
 30
0.0
 11
-356.518406957021
 21
-18.5976285934447
 31
0.0
  0
LINE
  5
   11B
  8
0
  6
CONTINUOUS
 62
     7
 10
-366.518398859575
 20
3.26754705017007
 30
0.0
 11
-366.518406957021
 21
-18.5976285934447
 31
0.0
  0
LINE
  5
   11C
  8
0
  6
CONTINUOUS
 62
     7
 10
-348.543398180651
 20
-16.5976285934448
 30
0.0
 11
-366.518406216351
 21
-16.5976285934448
 31
0.0
  0
LINE
  5
   11D
  8
0
  6
CONTINUOUS
 62
     7
 10
-353.563982939144
 20
-16.0766841634932
 30
0.0
 11
-356.518406216351
 21
-16.5976285934448
 31
0.0
  0
LINE
  5
   11E
  8
0
  6
CONTINUOUS
 62
     7
 10
-356.518406216351
 20
-16.5976285934448
 30
0.0
 11
-353.563982939144
 21
-17.1185730233965
 31
0.0
  0
LINE
  5
   11F
  8
0
  6
CONTINUOUS
 62
     7
 10
-369.472829493558
 20
-17.1185730233965
 30
0.0
 11
-366.518406216351
 21
-16.5976285934448
 31
0.0
  0
LINE
  5
   120
  8
0
  6
CONTINUOUS
 62
     7
 10
-366.518406216351
 20
-16.5976285934448
 30
0.0
 11
-369.472829493558
 21
-16.0766841634932
 31
0.0
  0
ENDBLK
  5
   121
  8
0
  6
CONTINUOUS
 62
     7
  0
BLOCK
  5
   122
  8
0
  6
CONTINUOUS
 62
     7
  2
*UDIM2161
 70
    65
 10
0.0
 20
0.0
 30
0.0
  3
*UDIM2161
  0
TEXT
  5
   123
  8
0
  6
CONTINUOUS
 62
     7
 10
-407.865254404425
 20
-14.2574472469736
 30
0.0
 40
3.00000002980232
  1
10
 50
89.9999999480344
 41
0.933333333333333
 72
     1
 11
-409.365254417062
 21
-11.7574472207797
 31
0.0
 73
     2
  0
LINE
  5
   124
  8
0
  6
CONTINUOUS
 62
     7
 10
-331.893465525889
 20
-5.73244818145841
 30
0.0
 11
-408.865254402161
 21
-5.73244818145841
 31
0.0
  0
LINE
  5
   125
  8
0
  6
CONTINUOUS
 62
     7
 10
-330.568460513443
 20
-0.732437486297346
 30
0.0
 11
-408.865254402161
 21
-0.732437486297346
 31
0.0
  0
LINE
  5
   126
  8
0
  6
CONTINUOUS
 62
     7
 10
-406.865254402161
 20
-14.257447245615
 30
0.0
 11
-406.865254402161
 21
-0.732437486297346
 31
0.0
  0
LINE
  5
   127
  8
0
  6
CONTINUOUS
 62
     7
 10
-406.344309972209
 20
-8.68687145866538
 30
0.0
 11
-406.865254402161
 21
-5.73244818145841
 31
0.0
  0
LINE
  5
   128
  8
0
  6
CONTINUOUS
 62
     7
 10
-406.865254402161
 20
-5.73244818145841
 30
0.0
 11
-407.386198832112
 21
-8.68687145866538
 31
0.0
  0
LINE
  5
   129
  8
0
  6
CONTINUOUS
 62
     7
 10
-407.386198832112
 20
2.22198579090962
 30
0.0
 11
-406.865254402161
 21
-0.732437486297346
 31
0.0
  0
LINE
  5
   12A
  8
0
  6
CONTINUOUS
 62
     7
 10
-406.865254402161
 20
-0.732437486297346
 30
0.0
 11
-406.344309972209
 21
2.22198579090962
 31
0.0
  0
ENDBLK
  5
   12B
  8
0
  6
CONTINUOUS
 62
     7
  0
BLOCK
  5
   12C
  8
0
  6
CONTINUOUS
 62
     7
  2
*UDIM2162
 70
    65
 10
0.0
 20
0.0
 30
0.0
  3
*UDIM2162
  0
TEXT
  5
   12D
  8
0
  6
CONTINUOUS
 62
     7
 10
-407.865254405693
 20
51.9604301201147
 30
0.0
 40
3.00000002980232
  1
210
 50
89.9999999480344
 41
0.933333333333333
 72
     1
 11
-409.365254417062
 21
55.8604301602163
 31
0.0
 73
     2
  0
LINE
  5
   12E
  8
0
  6
CONTINUOUS
 62
     7
 10
-330.568460513443
 20
104.26754112338
 30
0.0
 11
-408.865254402161
 21
104.26754112338
 31
0.0
  0
LINE
  5
   12F
  8
0
  6
CONTINUOUS
 62
     7
 10
-406.865254402161
 20
-0.732437486297346
 30
0.0
 11
-406.865254402161
 21
104.26754112338
 31
0.0
  0
LINE
  5
   130
  8
0
  6
CONTINUOUS
 62
     7
 10
-407.386198832112
 20
2.22198579090962
 30
0.0
 11
-406.865254402161
 21
-0.732437486297346
 31
0.0
  0
LINE
  5
   131
  8
0
  6
CONTINUOUS
 62
     7
 10
-406.865254402161
 20
-0.732437486297346
 30
0.0
 11
-406.344309972209
 21
2.22198579090962
 31
0.0
  0
LINE
  5
   132
  8
0
  6
CONTINUOUS
 62
     7
 10
-406.344309972209
 20
101.313117846173
 30
0.0
 11
-406.865254402161
 21
104.26754112338
 31
0.0
  0
LINE
  5
   133
  8
0
  6
CONTINUOUS
 62
     7
 10
-406.865254402161
 20
104.26754112338
 30
0.0
 11
-407.386198832112
 21
101.313117846173
 31
0.0
  0
ENDBLK
  5
   134
  8
0
  6
CONTINUOUS
 62
     7
  0
BLOCK
  5
   135
  8
0
  6
CONTINUOUS
 62
     7
  2
*UDIM2163
 70
    65
 10
0.0
 20
0.0
 30
0.0
  3
*UDIM2163
  0
TEXT
  5
   136
  8
0
  6
CONTINUOUS
 62
     7
 10
-407.865254404425
 20
112.242544918888
 30
0.0
 40
3.00000002980232
  1
10
 50
89.9999999480344
 41
0.933333333333333
 72
     1
 11
-409.365254417062
 21
114.742544945082
 31
0.0
 73
     2
  0
LINE
  5
   137
  8
0
  6
CONTINUOUS
 62
     7
 10
-331.893465525889
 20
109.267551818541
 30
0.0
 11
-408.865254402161
 21
109.267551818541
 31
0.0
  0
LINE
  5
   138
  8
0
  6
CONTINUOUS
 62
     7
 10
-406.865254402161
 20
104.26754112338
 30
0.0
 11
-406.865254402161
 21
117.242544969917
 31
0.0
  0
LINE
  5
   139
  8
0
  6
CONTINUOUS
 62
     7
 10
-406.344309972209
 20
101.313117846173
 30
0.0
 11
-406.865254402161
 21
104.26754112338
 31
0.0
  0
LINE
  5
   13A
  8
0
  6
CONTINUOUS
 62
     7
 10
-406.865254402161
 20
104.26754112338
 30
0.0
 11
-407.386198832112
 21
101.313117846173
 31
0.0
  0
LINE
  5
   13B
  8
0
  6
CONTINUOUS
 62
     7
 10
-407.386198832112
 20
112.221975095748
 30
0.0
 11
-406.865254402161
 21
109.267551818541
 31
0.0
  0
LINE
  5
   13C
  8
0
  6
CONTINUOUS
 62
     7
 10
-406.865254402161
 20
109.267551818541
 30
0.0
 11
-406.344309972209
 21
112.221975095748
 31
0.0
  0
ENDBLK
  5
   13D
  8
0
  6
CONTINUOUS
 62
     7
  0
BLOCK
  5
   13E
  8
0
  6
CONTINUOUS
 62
     7
  2
*UDIM2164
 70
    65
 10
0.0
 20
0.0
 30
0.0
  3
*UDIM2164
  0
TEXT
  5
   13F
  8
0
  6
CONTINUOUS
 62
     7
 10
-338.043421203206
 20
-26.8612928367954
 30
0.0
 40
3.00000002980232
  1
35
 50
359.999999948034
 41
0.933333333333333
 72
     1
 11
-335.543421177018
 21
-25.3612928241491
 31
0.0
 73
     2
  0
LINE
  5
   140
  8
0
  6
CONTINUOUS
 62
     7
 10
-326.518410819826
 20
10.2674253046831
 30
0.0
 11
-326.518426153417
 21
-29.8612928390502
 31
0.0
  0
LINE
  5
   141
  8
0
  6
CONTINUOUS
 62
     7
 10
-326.518425389197
 20
-27.8612928390503
 30
0.0
 11
-344.018431556057
 21
-27.8612928390503
 31
0.0
  0
LINE
  5
   142
  8
0
  6
CONTINUOUS
 62
     7
 10
-329.472848666404
 20
-28.382237269002
 30
0.0
 11
-326.518425389197
 21
-27.8612928390503
 31
0.0
  0
LINE
  5
   143
  8
0
  6
CONTINUOUS
 62
     7
 10
-326.518425389197
 20
-27.8612928390503
 30
0.0
 11
-329.472848666404
 21
-27.3403484090986
 31
0.0
  0
LINE
  5
   144
  8
0
  6
CONTINUOUS
 62
     7
 10
-341.06400827885
 20
-27.3403484090986
 30
0.0
 11
-344.018431556057
 21
-27.8612928390503
 31
0.0
  0
LINE
  5
   145
  8
0
  6
CONTINUOUS
 62
     7
 10
-344.018431556057
 20
-27.8612928390503
 30
0.0
 11
-341.06400827885
 21
-28.382237269002
 31
0.0
  0
ENDBLK
  5
   146
  8
0
  6
CONTINUOUS
 62
     7
  0
BLOCK
  5
   147
  8
0
  6
CONTINUOUS
 62
     7
  2
*UDIM2165
 70
    65
 10
0.0
 20
0.0
 30
0.0
  3
*UDIM2165
  0
TEXT
  5
   148
  8
0
  6
CONTINUOUS
 62
     7
 10
-355.543432637498
 20
-26.8612928367954
 30
0.0
 40
3.00000002980232
  1
35
 50
359.999999948034
 41
0.933333333333333
 72
     1
 11
-353.043432611309
 21
-25.3612928241491
 31
0.0
 73
     2
  0
LINE
  5
   149
  8
0
  6
CONTINUOUS
 62
     7
 10
-361.51843914863
 20
7.01755181854172
 30
0.0
 11
-361.518457855343
 21
-29.86129283905
 31
0.0
  0
LINE
  5
   14A
  8
0
  6
CONTINUOUS
 62
     7
 10
-344.018431556057
 20
-27.8612928390503
 30
0.0
 11
-361.518456840848
 21
-27.8612928390503
 31
0.0
  0
LINE
  5
   14B
  8
0
  6
CONTINUOUS
 62
     7
 10
-346.972854833264
 20
-28.382237269002
 30
0.0
 11
-344.018431556057
 21
-27.8612928390503
 31
0.0
  0
LINE
  5
   14C
  8
0
  6
CONTINUOUS
 62
     7
 10
-344.018431556057
 20
-27.8612928390503
 30
0.0
 11
-346.972854833264
 21
-27.3403484090986
 31
0.0
  0
LINE
  5
   14D
  8
0
  6
CONTINUOUS
 62
     7
 10
-358.564033563641
 20
-27.3403484090986
 30
0.0
 11
-361.518456840848
 21
-27.8612928390503
 31
0.0
  0
LINE
  5
   14E
  8
0
  6
CONTINUOUS
 62
     7
 10
-361.518456840848
 20
-27.8612928390503
 30
0.0
 11
-358.564033563641
 21
-28.382237269002
 31
0.0
  0
ENDBLK
  5
   14F
  8
0
  6
CONTINUOUS
 62
     7
  0
BLOCK
  5
   150
  8
0
  6
CONTINUOUS
 62
     7
  2
*UDIM2166
 70
    65
 10
0.0
 20
0.0
 30
0.0
  3
*UDIM2166
  0
TEXT
  5
   151
  8
0
  6
CONTINUOUS
 62
     7
 10
-348.193432651786
 20
117.567952159584
 30
0.0
 40
3.00000002980232
  1
105
 50
359.999999948034
 41
0.933333333333333
 72
     1
 11
-344.29343261169
 21
119.067952170968
 31
0.0
 73
     2
  0
LINE
  5
   152
  8
0
  6
CONTINUOUS
 62
     7
 10
-317.768439323043
 20
77.6425556332368
 30
0.0
 11
-317.768426475886
 21
118.567952156067
 31
0.0
  0
LINE
  5
   153
  8
0
  6
CONTINUOUS
 62
     7
 10
-370.26843154228
 20
77.6425556332367
 30
0.0
 11
-370.268412500874
 21
118.567952156067
 31
0.0
  0
LINE
  5
   154
  8
0
  6
CONTINUOUS
 62
     7
 10
-317.768427103719
 20
116.567952156067
 30
0.0
 11
-370.268413431416
 21
116.567952156067
 31
0.0
  0
LINE
  5
   155
  8
0
  6
CONTINUOUS
 62
     7
 10
-320.722850380926
 20
116.047007726115
 30
0.0
 11
-317.768427103719
 21
116.567952156067
 31
0.0
  0
LINE
  5
   156
  8
0
  6
CONTINUOUS
 62
     7
 10
-317.768427103719
 20
116.567952156067
 30
0.0
 11
-320.722850380926
 21
117.088896586019
 31
0.0
  0
LINE
  5
   157
  8
0
  6
CONTINUOUS
 62
     7
 10
-367.313990154209
 20
117.088896586019
 30
0.0
 11
-370.268413431416
 21
116.567952156067
 31
0.0
  0
LINE
  5
   158
  8
0
  6
CONTINUOUS
 62
     7
 10
-370.268413431416
 20
116.567952156067
 30
0.0
 11
-367.313990154209
 21
116.047007726115
 31
0.0
  0
ENDBLK
  5
   159
  8
0
  6
CONTINUOUS
 62
     7
  0
BLOCK
  5
   15A
  8
0
  6
CONTINUOUS
 62
     7
  2
*UDIM2167
 70
    65
 10
0.0
 20
0.0
 30
0.0
  3
*UDIM2167
  0
TEXT
  5
   15B
  8
0
  6
CONTINUOUS
 62
     7
 10
-117.244636849705
 20
54.0505541713699
 30
0.0
 40
3.00000002980232
  1
7
 50
397.208926617964
 41
0.933333333333334
 72
     1
 11
-117.275642375261
 21
55.910403285177
 31
0.0
 73
     2
  0
TEXT
  5
   15C
  8
0
  6
CONTINUOUS
 62
     7
 10
-119.753409346795
 20
52.1456760596716
 30
0.0
 40
3.00000002980232
  1
Ø
 50
397.208926617964
 41
0.933333333333334
 72
     1
 11
-119.784414872351
 21
54.0055251734787
 31
0.0
 73
     2
  0
LINE
  5
   15D
  8
0
  6
CONTINUOUS
 62
     7
 10
-100.920390176346
 20
65.1897468208082
 30
0.0
 11
-119.148686133589
 21
51.3492403489054
 31
0.0
  0
LINE
  5
   15E
  8
0
  6
CONTINUOUS
 62
     7
 10
-98.882409160362
 20
67.3912538906332
 30
0.0
 11
-100.920390176346
 21
65.1897468208082
 31
0.0
  0
LINE
  5
   15F
  8
0
  6
CONTINUOUS
 62
     7
 10
-100.920390176346
 20
65.1897468208082
 30
0.0
 11
-98.2523547864594
 21
66.5614563958691
 31
0.0
  0
LINE
  5
   160
  8
0
  6
CONTINUOUS
 62
     7
 10
-104.352133686318
 20
61.9299741367105
 30
0.0
 11
-102.314152670334
 21
64.1314812065355
 31
0.0
  0
LINE
  5
   161
  8
0
  6
CONTINUOUS
 62
     7
 10
-102.314152670334
 20
64.1314812065355
 30
0.0
 11
-104.98218806022
 21
62.7597716314747
 31
0.0
  0
ENDBLK
  5
   162
  8
0
  6
CONTINUOUS
 62
     7
  0
BLOCK
  5
   163
  8
0
  6
CONTINUOUS
 62
     7
  2
*UDIM2168
 70
    65
 10
0.0
 20
0.0
 30
0.0
  3
*UDIM2168
  0
TEXT
  5
   164
  8
0
  6
CONTINUOUS
 62
     7
 10
-95.7922714721172
 20
116.38458634482
 30
0.0
 40
3.00000002980232
  1
112
 50
359.999999844103
 41
0.933333333333333
 72
     1
 11
-91.8922714293003
 21
117.88458634913
 31
0.0
 73
     2
  0
LINE
  5
   165
  8
0
  6
CONTINUOUS
 62
     7
 10
-105.61727142334
 20
97.4106140136719
 30
0.0
 11
-105.61727142334
 21
117.384586334229
 31
0.0
  0
LINE
  5
   166
  8
0
  6
CONTINUOUS
 62
     7
 10
-77.6172714233399
 20
97.4106140136719
 30
0.0
 11
-77.6172714233399
 21
117.384586334229
 31
0.0
  0
LINE
  5
   167
  8
0
  6
CONTINUOUS
 62
     7
 10
-105.61727142334
 20
115.384586334229
 30
0.0
 11
-77.6172714233399
 21
115.384586334229
 31
0.0
  0
LINE
  5
   168
  8
0
  6
CONTINUOUS
 62
     7
 10
-102.662848146133
 20
115.90553076418
 30
0.0
 11
-105.61727142334
 21
115.384586334229
 31
0.0
  0
LINE
  5
   169
  8
0
  6
CONTINUOUS
 62
     7
 10
-105.61727142334
 20
115.384586334229
 30
0.0
 11
-102.662848146133
 21
114.863641904277
 31
0.0
  0
LINE
  5
   16A
  8
0
  6
CONTINUOUS
 62
     7
 10
-80.5716947005468
 20
114.863641904277
 30
0.0
 11
-77.6172714233399
 21
115.384586334229
 31
0.0
  0
LINE
  5
   16B
  8
0
  6
CONTINUOUS
 62
     7
 10
-77.6172714233399
 20
115.384586334229
 30
0.0
 11
-80.5716947005468
 21
115.90553076418
 31
0.0
  0
ENDBLK
  5
   16C
  8
0
  6
CONTINUOUS
 62
     7
  0
BLOCK
  5
   16D
  8
0
  6
CONTINUOUS
 62
     7
  2
*UDIM2169
 70
    65
 10
0.0
 20
0.0
 30
0.0
  3
*UDIM2169
  0
TEXT
  5
   16E
  8
0
  6
CONTINUOUS
 62
     7
 10
-94.3922714582094
 20
109.726415640945
 30
0.0
 40
3.00000002980232
  1
80
 50
359.999999844103
 41
0.933333333333333
 72
     1
 11
-91.8922714293003
 21
111.226415649056
 31
0.0
 73
     2
  0
LINE
  5
   16F
  8
0
  6
CONTINUOUS
 62
     7
 10
-101.61727142334
 20
102.785614013672
 30
0.0
 11
-101.61727142334
 21
110.726415634155
 31
0.0
  0
LINE
  5
   170
  8
0
  6
CONTINUOUS
 62
     7
 10
-81.6172714233399
 20
102.785614013672
 30
0.0
 11
-81.6172714233399
 21
110.726415634155
 31
0.0
  0
LINE
  5
   171
  8
0
  6
CONTINUOUS
 62
     7
 10
-101.61727142334
 20
108.726415634155
 30
0.0
 11
-81.6172714233399
 21
108.726415634155
 31
0.0
  0
LINE
  5
   172
  8
0
  6
CONTINUOUS
 62
     7
 10
-98.6628481461329
 20
109.247360064107
 30
0.0
 11
-101.61727142334
 21
108.726415634155
 31
0.0
  0
LINE
  5
   173
  8
0
  6
CONTINUOUS
 62
     7
 10
-101.61727142334
 20
108.726415634155
 30
0.0
 11
-98.6628481461329
 21
108.205471204204
 31
0.0
  0
LINE
  5
   174
  8
0
  6
CONTINUOUS
 62
     7
 10
-84.5716947005468
 20
108.205471204204
 30
0.0
 11
-81.6172714233399
 21
108.726415634155
 31
0.0
  0
LINE
  5
   175
  8
0
  6
CONTINUOUS
 62
     7
 10
-81.6172714233399
 20
108.726415634155
 30
0.0
 11
-84.5716947005468
 21
109.247360064107
 31
0.0
  0
ENDBLK
  5
   176
  8
0
  6
CONTINUOUS
 62
     7
  0
BLOCK
  5
   177
  8
0
  6
CONTINUOUS
 62
     7
  2
*UDIM2170
 70
    65
 10
0.0
 20
0.0
 30
0.0
  3
*UDIM2170
  0
TEXT
  5
   178
  8
0
  6
CONTINUOUS
 62
     7
 10
-126.5362548934
 20
78.2356139648964
 30
0.0
 40
3.00000002980232
  1
142
 50
449.999999844103
 41
0.933333333333333
 72
     1
 11
-128.036254897714
 21
82.1356140077114
 31
0.0
 73
     2
  0
LINE
  5
   179
  8
0
  6
CONTINUOUS
 62
     7
 10
-104.24227142334
 20
100.160614013672
 30
0.0
 11
-127.536254882813
 21
100.160614013672
 31
0.0
  0
LINE
  5
   17A
  8
0
  6
CONTINUOUS
 62
     7
 10
-104.24227142334
 20
64.6606140136719
 30
0.0
 11
-127.536254882813
 21
64.6606140136719
 31
0.0
  0
LINE
  5
   17B
  8
0
  6
CONTINUOUS
 62
     7
 10
-125.536254882813
 20
100.160614013672
 30
0.0
 11
-125.536254882813
 21
64.6606140136719
 31
0.0
  0
LINE
  5
   17C
  8
0
  6
CONTINUOUS
 62
     7
 10
-125.015310452861
 20
97.2061907364649
 30
0.0
 11
-125.536254882813
 21
100.160614013672
 31
0.0
  0
LINE
  5
   17D
  8
0
  6
CONTINUOUS
 62
     7
 10
-125.536254882813
 20
100.160614013672
 30
0.0
 11
-126.057199312764
 21
97.2061907364649
 31
0.0
  0
LINE
  5
   17E
  8
0
  6
CONTINUOUS
 62
     7
 10
-126.057199312764
 20
67.6150372908788
 30
0.0
 11
-125.536254882813
 21
64.6606140136719
 31
0.0
  0
LINE
  5
   17F
  8
0
  6
CONTINUOUS
 62
     7
 10
-125.536254882813
 20
64.6606140136719
 30
0.0
 11
-125.015310452861
 21
67.6150372908788
 31
0.0
  0
ENDBLK
  5
   180
  8
0
  6
CONTINUOUS
 62
     7
  0
BLOCK
  5
   181
  8
0
  6
CONTINUOUS
 62
     7
  2
*UDIM2171
 70
    65
 10
0.0
 20
0.0
 30
0.0
  3
*UDIM2171
  0
TEXT
  5
   182
  8
0
  6
CONTINUOUS
 62
     7
 10
-120.129335414029
 20
78.2356139648964
 30
0.0
 40
3.00000002980232
  1
112
 50
449.999999844103
 41
0.933333333333333
 72
     1
 11
-121.629335418344
 21
82.1356140077114
 31
0.0
 73
     2
  0
LINE
  5
   183
  8
0
  6
CONTINUOUS
 62
     7
 10
-106.61727142334
 20
96.4106140136719
 30
0.0
 11
-121.129335403442
 21
96.4106140136719
 31
0.0
  0
LINE
  5
   184
  8
0
  6
CONTINUOUS
 62
     7
 10
-106.61727142334
 20
68.4106140136719
 30
0.0
 11
-121.129335403442
 21
68.4106140136719
 31
0.0
  0
LINE
  5
   185
  8
0
  6
CONTINUOUS
 62
     7
 10
-119.129335403442
 20
96.4106140136719
 30
0.0
 11
-119.129335403442
 21
68.4106140136719
 31
0.0
  0
LINE
  5
   186
  8
0
  6
CONTINUOUS
 62
     7
 10
-118.608390973491
 20
93.4561907364649
 30
0.0
 11
-119.129335403442
 21
96.4106140136719
 31
0.0
  0
LINE
  5
   187
  8
0
  6
CONTINUOUS
 62
     7
 10
-119.129335403442
 20
96.4106140136719
 30
0.0
 11
-119.650279833394
 21
93.4561907364649
 31
0.0
  0
LINE
  5
   188
  8
0
  6
CONTINUOUS
 62
     7
 10
-119.650279833394
 20
71.3650372908788
 30
0.0
 11
-119.129335403442
 21
68.4106140136719
 31
0.0
  0
LINE
  5
   189
  8
0
  6
CONTINUOUS
 62
     7
 10
-119.129335403442
 20
68.4106140136719
 30
0.0
 11
-118.608390973491
 21
71.3650372908788
 31
0.0
  0
ENDBLK
  5
   18A
  8
0
  6
CONTINUOUS
 62
     7
  0
ENDSEC
  0
SECTION
  2
ENTITIES
  0
LINE
  5
   18B
  8
0
  6
DASHDOT
 62
     7
 10
-344.018310546875
 20
-44.9114404364716
 30
0.0
 11
-344.018310546875
 21
-105.63209761173
 31
0.0
  0
LINE
  5
   18C
  8
0
  6
CONTINUOUS
 62
     3
 10
-360.893310546875
 20
-46.3214992387998
 30
0.0
 11
-360.893310546875
 21
-102.195079281055
 31
0.0
  0
LINE
  5
   18D
  8
0
  6
CONTINUOUS
 62
     3
 10
-332.143310546875
 20
-46.3214992387998
 30
0.0
 11
-332.143310546875
 21
-101.930693255618
 31
0.0
  0
LINE
  5
   18E
  8
0
  6
CONTINUOUS
 62
     3
 10
-327.805290449575
 20
-49.1791839599609
 30
0.0
 11
-363.372534918861
 21
-49.1791839599609
 31
0.0
  0
LINE
  5
   18F
  8
0
  6
CONTINUOUS
 62
     3
 10
-328.574172505577
 20
-98.9291839599609
 30
0.0
 11
-363.623786633037
 21
-98.9291839599609
 31
0.0
  0
CIRCLE
  5
   190
  8
0
  6
CONTINUOUS
 62
     7
 10
-352.216933464882
 20
-53.4093743768784
 30
0.0
 40
0.1
  0
LINE
  5
   191
  8
0
  6
CONTINUOUS
 62
     7
 10
-337.768310546875
 20
-56.1028170962757
 30
0.0
 11
-337.768310546875
 21
-92.4086897946119
 31
0.0
  0
LINE
  5
   192
  8
0
  6
DASHDOT
 62
     7
 10
-355.268310546875
 20
-55.0978102395744
 30
0.0
 11
-355.268310546875
 21
-92.2830639375242
 31
0.0
  0
LINE
  5
   193
  8
0
  6
DASHDOT
 62
     7
 10
-334.227336074522
 20
-61.5541839599609
 30
0.0
 11
-359.101255777881
 21
-61.5541839599609
 31
0.0
  0
LINE
  5
   194
  8
0
  6
DASHDOT
 62
     7
 10
-334.604213645785
 20
-86.5541839599609
 30
0.0
 11
-358.724378206618
 21
-86.5541839599609
 31
0.0
  0
CIRCLE
  5
   195
  8
0
  6
CONTINUOUS
 62
     7
 10
-355.268310546875
 20
-61.5541839599609
 30
0.0
 40
0.625
  0
CIRCLE
  5
   196
  8
0
  6
CONTINUOUS
 62
     7
 10
-337.768310546875
 20
-61.5541839599609
 30
0.0
 40
0.625
  0
CIRCLE
  5
   197
  8
0
  6
CONTINUOUS
 62
     7
 10
-337.768310546875
 20
-86.5541839599609
 30
0.0
 40
0.625
  0
CIRCLE
  5
   198
  8
0
  6
CONTINUOUS
 62
     7
 10
-355.268310546875
 20
-86.5541839599609
 30
0.0
 40
0.625
  0
LINE
  5
   199
  8
0
  6
DASHDOT
 62
     7
 10
-323.166861252684
 20
-74.6166839599609
 30
0.0
 11
-377.747525091225
 21
-74.6166839599609
 31
0.0
  0
INSERT
  5
   19A
  8
0
  6
CONTINUOUS
 62
     5
  2
*UDIM2141
 10
0.0
 20
0.0
 30
0.0
  0
INSERT
  5
   19B
  8
0
  6
CONTINUOUS
 62
     7
  2
*UDIM2142
 10
0.0
 20
0.0
 30
0.0
  0
INSERT
  5
   19C
  8
0
  6
CONTINUOUS
 62
     7
  2
*UDIM2143
 10
0.0
 20
0.0
 30
0.0
  0
INSERT
  5
   19D
  8
0
  6
CONTINUOUS
 62
     7
  2
*UDIM2144
 10
0.0
 20
0.0
 30
0.0
  0
INSERT
  5
   19E
  8
0
  6
CONTINUOUS
 62
     7
  2
*UDIM2145
 10
0.0
 20
0.0
 30
0.0
  0
TEXT
  5
   19F
  8
0
  6
CONTINUOUS
 62
     7
 10
-344.905533793302
 20
-126.563900021709
 30
0.0
 40
3.00000002980232
  1
Y
 50
359.999999896069
 41
0.916666604744064
 72
     2
 11
-342.705533924432
 21
-126.563900025689
 31
0.0
  0
TEXT
  5
   1A0
  8
0
  6
CONTINUOUS
 62
     7
 10
-345.302189829679
 20
-40.3120117465625
 30
0.0
 40
3.00000002980232
  1
Y
 50
359.999999896069
 41
0.916666604744064
 72
     2
 11
-343.102189960809
 21
-40.3120117505421
 31
0.0
  0
TEXT
  5
   1A1
  8
0
  6
CONTINUOUS
 62
     7
 10
-381.331104281278
 20
-76.4148331562648
 30
0.0
 40
3.00000002980232
  1
X
 50
359.999999896069
 41
0.916666604744064
 72
     2
 11
-379.131104412408
 21
-76.4148331602444
 31
0.0
  0
TEXT
  5
   1A2
  8
0
  6
CONTINUOUS
 62
     7
 10
-309.935184481473
 20
-76.1391732374797
 30
0.0
 40
3.00000002980232
  1
X
 50
359.999999896069
 41
0.916666604744064
 72
     2
 11
-307.735184612603
 21
-76.1391732414593
 31
0.0
  0
LINE
  5
   1A3
  8
0
  6
CONTINUOUS
 62
     3
 10
-192.342231750488
 20
10.6675596237183
 30
0.0
 11
-228.342231750488
 21
10.6675596237183
 31
0.0
  0
LINE
  5
   1A4
  8
0
  6
CONTINUOUS
 62
     7
 10
-228.342231750488
 20
8.01755858482011
 30
0.0
 11
-228.342231750488
 21
29.4146685701721
 31
0.0
  0
LINE
  5
   1A5
  8
0
  6
CONTINUOUS
 62
     7
 10
-228.342231750488
 20
29.4146547317505
 30
0.0
 11
-228.342231750488
 21
95.5175523757935
 31
0.0
  0
LINE
  5
   1A6
  8
0
  6
CONTINUOUS
 62
     7
 10
-229.342231750488
 20
84.08336353302
 30
0.0
 11
-229.342231750488
 21
89.0175371170044
 31
0.0
  0
LINE
  5
   1A7
  8
0
  6
CONTINUOUS
 62
     7
 10
-194.092233510965
 20
58.7675393502499
 30
0.0
 11
-194.092243194455
 21
62.8925512036723
 31
0.0
  0
LINE
  5
   1A8
  8
0
  6
CONTINUOUS
 62
     7
 10
-192.842261361656
 20
86.0175488917558
 30
0.0
 11
-192.488699969231
 21
86.163995097169
 31
0.0
  0
LINE
  5
   1A9
  8
0
  6
CONTINUOUS
 62
     7
 10
-192.488693597675
 20
86.1639845341298
 30
0.0
 11
-192.342247380796
 21
86.5175382833547
 31
0.0
  0
LINE
  5
   1AA
  8
0
  6
CONTINUOUS
 62
     7
 10
-194.092239924783
 20
82.5175518332489
 30
0.0
 11
-194.092232295389
 21
86.0175518335289
 31
0.0
  0
LINE
  5
   1AB
  8
0
  6
CONTINUOUS
 62
     7
 10
-192.842247009277
 20
86.0175523757935
 30
0.0
 11
-194.092231750488
 21
86.0175523757935
 31
0.0
  0
LINE
  5
   1AC
  8
0
  6
CONTINUOUS
 62
     7
 10
-194.092239379883
 20
62.8925523757935
 30
0.0
 11
-194.092239379883
 21
82.5175523757935
 31
0.0
  0
LINE
  5
   1AD
  8
0
  6
CONTINUOUS
 62
     7
 10
-196.342231750488
 20
37.5175523757935
 30
0.0
 11
-196.342231750488
 21
57.7675523757935
 31
0.0
  0
LINE
  5
   1AE
  8
0
  6
CONTINUOUS
 62
     7
 10
-196.342216769384
 20
57.7675799143659
 30
0.0
 11
-196.20824461212
 21
58.2675799006721
 31
0.0
  0
LINE
  5
   1AF
  8
0
  6
CONTINUOUS
 62
     7
 10
-196.208227578373
 20
58.2675989282094
 30
0.0
 11
-195.842207394366
 21
58.6336267330308
 31
0.0
  0
LINE
  5
   1B0
  8
0
  6
CONTINUOUS
 62
     7
 10
-195.842259142989
 20
58.6335671930445
 30
0.0
 11
-195.342251540409
 21
58.7675393502499
 31
0.0
  0
LINE
  5
   1B1
  8
0
  6
CONTINUOUS
 62
     7
 10
-192.342231750488
 20
37.5175523757935
 30
0.0
 11
-196.342231750488
 21
37.5175523757935
 31
0.0
  0
LINE
  5
   1B2
  8
0
  6
CONTINUOUS
 62
     7
 10
-192.342253094061
 20
30.0175459998125
 30
0.0
 11
-192.842291220571
 21
30.5175459819692
 31
0.0
  0
LINE
  5
   1B3
  8
0
  6
CONTINUOUS
 62
     7
 10
-192.842279459714
 20
36.0175576789131
 30
0.0
 11
-192.342233704304
 21
36.517557660759
 31
0.0
  0
LINE
  5
   1B4
  8
0
  6
CONTINUOUS
 62
     7
 10
-192.842285764267
 20
36.0175376032072
 30
0.0
 11
-224.226189267685
 21
36.0175376032072
 31
0.0
  0
LINE
  5
   1B5
  8
0
  6
CONTINUOUS
 62
     7
 10
-192.84227848053
 20
30.5175523757935
 30
0.0
 11
-224.226212501526
 21
30.5175523757935
 31
0.0
  0
LINE
  5
   1B6
  8
0
  6
CONTINUOUS
 62
     7
 10
-224.226191502245
 20
36.0175304248684
 30
0.0
 11
-226.09223401055
 21
36.5175380534498
 31
0.0
  0
LINE
  5
   1B7
  8
0
  6
CONTINUOUS
 62
     7
 10
-226.092217838808
 20
36.5175326621403
 30
0.0
 11
-227.842234032623
 21
36.9864504542684
 31
0.0
  0
LINE
  5
   1B8
  8
0
  6
CONTINUOUS
 62
     7
 10
-228.34223119481
 20
29.4146703124595
 30
0.0
 11
-224.226211492816
 21
30.5175526807296
 31
0.0
  0
LINE
  5
   1B9
  8
0
  6
CONTINUOUS
 62
     7
 10
-228.342225249986
 20
38.1647041728705
 30
0.0
 11
-227.842226707157
 21
38.2986763301392
 31
0.0
  0
LINE
  5
   1BA
  8
0
  6
CONTINUOUS
 62
     7
 10
-226.342232227325
 20
26.2675447463989
 30
0.0
 11
-228.342231750488
 21
26.2675447463989
 31
0.0
  0
LINE
  5
   1BB
  8
0
  6
CONTINUOUS
 62
     7
 10
-226.342232227325
 20
10.6675596237183
 30
0.0
 11
-226.342232227325
 21
26.2675447463989
 31
0.0
  0
LINE
  5
   1BC
  8
0
  6
CONTINUOUS
 62
     7
 10
-227.842231750488
 20
29.5486345291138
 30
0.0
 11
-227.842231750488
 21
51.7675447463989
 31
0.0
  0
LINE
  5
   1BD
  8
0
  6
CONTINUOUS
 62
     7
 10
-226.092231750488
 20
36.5175523757935
 30
0.0
 11
-226.092231750488
 21
49.0175523757935
 31
0.0
  0
LINE
  5
   1BE
  8
0
  6
CONTINUOUS
 62
     7
 10
-226.842232704163
 20
51.7675447463989
 30
0.0
 11
-228.342232227325
 21
51.7675447463989
 31
0.0
  0
LINE
  5
   1BF
  8
0
  6
CONTINUOUS
 62
     7
 10
-226.467226619521
 20
51.6670606718929
 30
0.0
 11
-226.842227553018
 21
51.767539789836
 31
0.0
  0
LINE
  5
   1C0
  8
0
  6
CONTINUOUS
 62
     7
 10
-226.467226619521
 20
51.6670606718929
 30
0.0
 11
-226.842227553018
 21
51.767539789836
 31
0.0
  0
LINE
  5
   1C1
  8
0
  6
CONTINUOUS
 62
     7
 10
-226.192711171731
 20
51.3925372871669
 30
0.0
 11
-226.467230133574
 21
51.6670581465145
 31
0.0
  0
LINE
  5
   1C2
  8
0
  6
CONTINUOUS
 62
     7
 10
-226.092239246573
 20
51.017530689734
 30
0.0
 11
-226.192719799213
 21
51.3925306885426
 31
0.0
  0
LINE
  5
   1C3
  8
0
  6
CONTINUOUS
 62
     7
 10
-226.092222690582
 20
49.0175455212644
 30
0.0
 11
-226.092222690582
 21
51.0175378918699
 31
0.0
  0
LINE
  5
   1C4
  8
0
  6
CONTINUOUS
 62
     7
 10
-226.192708854312
 20
48.6425415726944
 30
0.0
 11
-226.145097624782
 21
48.8202301686369
 31
0.0
  0
LINE
  5
   1C5
  8
0
  6
CONTINUOUS
 62
     7
 10
-226.145098541941
 20
48.8202253256951
 30
0.0
 11
-226.09222922328
 21
49.0175443531978
 31
0.0
  0
LINE
  5
   1C6
  8
0
  6
CONTINUOUS
 62
     7
 10
-226.467231904979
 20
48.3680058663913
 30
0.0
 11
-226.192712479926
 21
48.6425267261441
 31
0.0
  0
LINE
  5
   1C7
  8
0
  6
CONTINUOUS
 62
     7
 10
-226.842238176619
 20
48.2675343577787
 30
0.0
 11
-226.467238181797
 21
48.3680134680128
 31
0.0
  0
LINE
  5
   1C8
  8
0
  6
CONTINUOUS
 62
     7
 10
-226.842232227325
 20
48.2675447463989
 30
0.0
 11
-227.842231750488
 21
48.2675447463989
 31
0.0
  0
LINE
  5
   1C9
  8
0
  6
CONTINUOUS
 62
     7
 10
-228.342231750488
 20
14.5175452232361
 30
0.0
 11
-229.342231750488
 21
14.5175452232361
 31
0.0
  0
LINE
  5
   1CA
  8
0
  6
CONTINUOUS
 62
     7
 10
-228.342231750488
 20
89.0175371170044
 30
0.0
 11
-229.342231750488
 21
89.0175371170044
 31
0.0
  0
LINE
  5
   1CB
  8
0
  6
CONTINUOUS
 62
     7
 10
-228.342231750488
 20
84.08336353302
 30
0.0
 11
-229.342231750488
 21
84.08336353302
 31
0.0
  0
LINE
  5
   1CC
  8
0
  6
CONTINUOUS
 62
     7
 10
-224.692725077335
 20
30.3925467081871
 30
0.0
 11
-226.09224351512
 21
30.7675466791681
 31
0.0
  0
LINE
  5
   1CD
  8
0
  6
CONTINUOUS
 62
     7
 10
-226.092248439789
 20
30.7675514459659
 30
0.0
 11
-226.092248439789
 21
35.7675514459659
 31
0.0
  0
LINE
  5
   1CE
  8
0
  6
CONTINUOUS
 62
     7
 10
-226.092248293522
 20
35.7675447588397
 30
0.0
 11
-224.692717937983
 21
36.142544755491
 31
0.0
  0
LINE
  5
   1CF
  8
0
  6
CONTINUOUS
 62
     7
 10
-228.342231750488
 20
19.5175447463989
 30
0.0
 11
-229.342231750488
 21
19.5175447463989
 31
0.0
  0
LINE
  5
   1D0
  8
0
  6
CONTINUOUS
 62
     7
 10
-226.192707160601
 20
48.3778954438789
 30
0.0
 11
-226.092227091071
 21
48.8202324652653
 31
0.0
  0
LINE
  5
   1D1
  8
0
  6
CONTINUOUS
 62
     7
 10
-226.092232704163
 20
48.8202333450317
 30
0.0
 11
-226.145101547241
 21
48.8202333450317
 31
0.0
  0
LINE
  5
   1D2
  8
0
  6
CONTINUOUS
 62
     7
 10
-226.159220138601
 20
41.7675395938586
 30
0.0
 11
-226.092234059497
 21
41.8172679854386
 31
0.0
  0
LINE
  5
   1D3
  8
0
  6
CONTINUOUS
 62
     7
 10
-226.159215684469
 20
41.7675220370588
 30
0.0
 11
-226.192710154537
 21
41.7923862319558
 31
0.0
  0
LINE
  5
   1D4
  8
0
  6
CONTINUOUS
 62
     7
 10
-226.092232227325
 20
46.7675523757935
 30
0.0
 11
-226.192712783813
 21
46.7675523757935
 31
0.0
  0
LINE
  5
   1D5
  8
0
  6
CONTINUOUS
 62
     7
 10
-226.192715517257
 20
43.7426590604824
 30
0.0
 11
-226.159221047189
 21
43.7675232553794
 31
0.0
  0
LINE
  5
   1D6
  8
0
  6
CONTINUOUS
 62
     7
 10
-226.092230127539
 20
43.7178077201951
 30
0.0
 11
-226.159216206644
 21
43.7675361117751
 31
0.0
  0
LINE
  5
   1D7
  8
0
  6
CONTINUOUS
 62
     7
 10
-226.138128742508
 20
47.6285884417128
 30
0.0
 11
-226.192715612039
 21
47.9334743024839
 31
0.0
  0
LINE
  5
   1D8
  8
0
  6
CONTINUOUS
 62
     7
 10
-226.092232627465
 20
46.7675538004533
 30
0.0
 11
-226.138126295558
 21
47.6285919756235
 31
0.0
  0
LINE
  5
   1D9
  8
0
  6
CONTINUOUS
 62
     7
 10
-226.192714958899
 20
41.7924009893218
 30
0.0
 11
-226.450394892393
 21
41.8436552561763
 31
0.0
  0
LINE
  5
   1DA
  8
0
  6
CONTINUOUS
 62
     7
 10
-226.450393509308
 20
41.8436582742425
 30
0.0
 11
-226.467233013445
 21
41.854911630433
 31
0.0
  0
LINE
  5
   1DB
  8
0
  6
CONTINUOUS
 62
     7
 10
-226.467240425003
 20
43.6801652493398
 30
0.0
 11
-226.450399967772
 21
43.6914186057626
 31
0.0
  0
LINE
  5
   1DC
  8
0
  6
CONTINUOUS
 62
     7
 10
-226.450396670647
 20
43.6914162098397
 30
0.0
 11
-226.192717690254
 21
43.7426704687178
 31
0.0
  0
LINE
  5
   1DD
  8
0
  6
CONTINUOUS
 62
     7
 10
-226.192712783813
 20
46.7675523757935
 30
0.0
 11
-226.467232227325
 21
46.7675523757935
 31
0.0
  0
LINE
  5
   1DE
  8
0
  6
CONTINUOUS
 62
     7
 10
-226.467234470394
 20
41.8549047338268
 30
0.0
 11
-226.842234461691
 21
41.9220433902326
 31
0.0
  0
LINE
  5
   1DF
  8
0
  6
CONTINUOUS
 62
     7
 10
-226.842235041979
 20
43.6130282140097
 30
0.0
 11
-226.467235050683
 21
43.6801668704154
 31
0.0
  0
LINE
  5
   1E0
  8
0
  6
CONTINUOUS
 62
     7
 10
-226.467232227325
 20
46.7675523757935
 30
0.0
 11
-226.842232227325
 21
46.7675523757935
 31
0.0
  0
LINE
  5
   1E1
  8
0
  6
CONTINUOUS
 62
     7
 10
-226.842232227325
 20
43.6130342483521
 30
0.0
 11
-227.842231750488
 21
43.6130342483521
 31
0.0
  0
LINE
  5
   1E2
  8
0
  6
CONTINUOUS
 62
     7
 10
-226.842232227325
 20
46.7675523757935
 30
0.0
 11
-227.842231750488
 21
46.7675523757935
 31
0.0
  0
LINE
  5
   1E3
  8
0
  6
CONTINUOUS
 62
     7
 10
-226.842232227325
 20
41.9220552444458
 30
0.0
 11
-227.842231750488
 21
41.9220552444458
 31
0.0
  0
LINE
  5
   1E4
  8
0
  6
CONTINUOUS
 62
     3
 10
-181.242233275771
 20
92.8675584793091
 30
0.0
 11
-228.342231750488
 21
92.8675584793091
 31
0.0
  0
LINE
  5
   1E5
  8
0
  6
CONTINUOUS
 62
     3
 10
-181.242233275771
 20
10.6675596237183
 30
0.0
 11
-192.342231749892
 21
10.6675596237183
 31
0.0
  0
LINE
  5
   1E6
  8
0
  6
CONTINUOUS
 62
     3
 10
-192.342231749892
 20
10.6675596237183
 30
0.0
 11
-192.342231749892
 21
30.3925523757935
 31
0.0
  0
LINE
  5
   1E7
  8
0
  6
CONTINUOUS
 62
     3
 10
-192.342231749891
 20
36.1425447463989
 30
0.0
 11
-192.342231749891
 21
37.5175828933716
 31
0.0
  0
LINE
  5
   1E8
  8
0
  6
CONTINUOUS
 62
     3
 10
-192.342231750488
 20
86.5175760183957
 30
0.0
 11
-192.342231750488
 21
92.8675584793091
 31
0.0
  0
LINE
  5
   1E9
  8
0
  6
CONTINUOUS
 62
     3
 10
-177.592231749892
 20
58.2419862747192
 30
0.0
 11
-177.592231749892
 21
63.0173921585083
 31
0.0
  0
LINE
  5
   1EA
  8
0
  6
CONTINUOUS
 62
     3
 10
-177.592235926152
 20
29.5174041552635
 30
0.0
 11
-177.592258814335
 21
32.7927637859164
 31
0.0
  0
LINE
  5
   1EB
  8
0
  6
CONTINUOUS
 62
     3
 10
-181.242233275771
 20
10.6675615310669
 30
0.0
 11
-181.242233275771
 21
21.6425612722128
 31
0.0
  0
LINE
  5
   1EC
  8
0
  6
CONTINUOUS
 62
     3
 10
-181.242234805178
 20
36.1425523757935
 30
0.0
 11
-192.342233279299
 21
36.1425523757935
 31
0.0
  0
LINE
  5
   1ED
  8
0
  6
CONTINUOUS
 62
     3
 10
-181.242234459973
 20
30.3925523757935
 30
0.0
 11
-192.342232934094
 21
30.3925523757935
 31
0.0
  0
LINE
  5
   1EE
  8
0
  6
CONTINUOUS
 62
     1
 10
-178.592232226729
 20
82.1425523757935
 30
0.0
 11
-181.242233275771
 21
82.1425523757935
 31
0.0
  0
LINE
  5
   1EF
  8
0
  6
CONTINUOUS
 62
     1
 10
-176.628842669586
 20
24.4291719472699
 30
0.0
 11
-176.613677817975
 21
24.4657837424282
 31
0.0
  0
LINE
  5
   1F0
  8
0
  6
CONTINUOUS
 62
     1
 10
-176.628842669586
 20
24.4291719472699
 30
0.0
 11
-176.613677817975
 21
24.4657837424282
 31
0.0
  0
LINE
  5
   1F1
  8
0
  6
CONTINUOUS
 62
     1
 10
-176.628842669586
 20
24.4291719472699
 30
0.0
 11
-176.613677817975
 21
24.4657837424282
 31
0.0
  0
LINE
  5
   1F2
  8
0
  6
CONTINUOUS
 62
     1
 10
-179.842231749892
 20
21.6425604820251
 30
0.0
 11
-180.092231749892
 21
21.6425604820251
 31
0.0
  0
LINE
  5
   1F3
  8
0
  6
CONTINUOUS
 62
     1
 10
-178.592232226729
 20
21.6425741059478
 30
0.0
 11
-181.242233275771
 21
21.6425741059478
 31
0.0
  0
LINE
  5
   1F4
  8
0
  6
CONTINUOUS
 62
     2
 10
-173.091576589645
 20
24.6425528526306
 30
0.0
 11
-173.091576589645
 21
25.6425514221191
 31
0.0
  0
LINE
  5
   1F5
  8
0
  6
CONTINUOUS
 62
     2
 10
-177.591576559842
 20
24.3925523776209
 30
0.0
 11
-177.591576559842
 21
76.8925523776209
 31
0.0
  0
LINE
  5
   1F6
  8
0
  6
CONTINUOUS
 62
     2
 10
-175.842244148254
 20
76.8925523757935
 30
0.0
 11
-178.592232226729
 21
76.8925523757935
 31
0.0
  0
LINE
  5
   1F7
  8
0
  6
CONTINUOUS
 62
     2
 10
-175.842244148254
 20
24.3925523769735
 30
0.0
 11
-178.592232226729
 21
24.3925523769735
 31
0.0
  0
LINE
  5
   1F8
  8
0
  6
CONTINUOUS
 62
     2
 10
-173.091606689605
 20
34.1425445681173
 30
0.0
 11
-173.091673923644
 21
40.1425445680239
 31
0.0
  0
LINE
  5
   1F9
  8
0
  6
CONTINUOUS
 62
     2
 10
-173.091677520197
 20
40.6425393643592
 30
0.0
 11
-173.091650817318
 21
50.39253936498
 31
0.0
  0
LINE
  5
   1FA
  8
0
  6
CONTINUOUS
 62
     7
 10
-194.092235565061
 20
58.7675393502499
 30
0.0
 11
-195.342251540409
 21
58.7675393502499
 31
0.0
  0
LINE
  5
   1FB
  8
0
  6
CONTINUOUS
 62
     7
 10
-178.592232226729
 20
76.8925523757935
 30
0.0
 11
-178.592232226729
 21
82.1425523757935
 31
0.0
  0
LINE
  5
   1FC
  8
0
  6
CONTINUOUS
 62
     7
 10
-178.592232226729
 20
21.6425605501447
 30
0.0
 11
-178.592232226729
 21
24.3925523769735
 31
0.0
  0
LINE
  5
   1FD
  8
0
  6
CONTINUOUS
 62
     3
 10
-181.242233275771
 20
82.1425523757935
 30
0.0
 11
-181.242233275771
 21
92.8675584793091
 31
0.0
  0
LINE
  5
   1FE
  8
0
  6
CONTINUOUS
 62
     3
 10
-181.242233275771
 20
21.6425612722128
 30
0.0
 11
-181.242233275771
 21
82.1425523757935
 31
0.0
  0
ARC
  5
   1FF
  8
0
  6
CONTINUOUS
 62
     7
 10
-162.754211845815
 20
39.6206115505074
 30
0.0
 40
0.499999897877905
 50
348.623601716676
 51
436.688817054576
  0
ARC
  5
   200
  8
0
  6
CONTINUOUS
 62
     7
 10
-163.352582574363
 20
36.6467022704585
 30
0.0
 40
0.50000037262337
 50
260.594020543651
 51
348.623601716676
  0
LINE
  5
   201
  8
0
  6
DASHDOT
 62
     7
 10
-155.353918008882
 20
36.5662845739766
 30
0.0
 11
-180.412263737872
 21
41.6081923440169
 31
0.0
  0
LINE
  5
   202
  8
0
  6
CONTINUOUS
 62
     7
 10
-162.639092114201
 20
40.1071780771627
 30
0.0
 11
-173.091672213368
 21
42.5802175276085
 31
0.0
  0
LINE
  5
   203
  8
0
  6
CONTINUOUS
 62
     7
 10
-162.862406080686
 20
36.5480754616942
 30
0.0
 11
-162.264035516431
 21
39.5219847748001
 31
0.0
  0
LINE
  5
   204
  8
0
  6
CONTINUOUS
 62
     7
 10
-163.434297068902
 20
36.153424507158
 30
0.0
 11
-173.091647149698
 21
37.7532239288077
 31
0.0
  0
ARC
  5
   205
  8
0
  6
DASHDOT
 62
     7
 10
-199.841832806441
 20
45.5175523757935
 30
0.0
 40
38.0221347997541
 50
337.492314704898
 51
359.999999948034
  0
LINE
  5
   206
  8
0
  6
DASHDOT
 62
     7
 10
-161.819698006687
 20
45.5175523757934
 30
0.0
 11
-161.819698006687
 21
48.3926521931622
 31
0.0
  0
LINE
  5
   207
  8
0
  6
CONTINUOUS
 62
     7
 10
-229.342231750488
 20
14.5175452232361
 30
0.0
 11
-229.342231750488
 21
19.5175447463989
 31
0.0
  0
LINE
  5
   208
  8
0
  6
CONTINUOUS
 62
   210
 10
-253.092251277616
 20
36.7675399783975
 30
0.0
 11
-251.092251277616
 21
36.7675476077921
 31
0.0
  0
LINE
  5
   209
  8
0
  6
CONTINUOUS
 62
   210
 10
-253.092253184965
 20
33.2675399783648
 30
0.0
 11
-251.092253184965
 21
33.2675476077593
 31
0.0
  0
LINE
  5
   20A
  8
0
  6
CONTINUOUS
 62
     7
 10
-253.342254638672
 20
9.76755237579346
 30
0.0
 11
-253.342254638672
 21
22.2675523757935
 31
0.0
  0
LINE
  5
   20B
  8
0
  6
CONTINUOUS
 62
     3
 10
-253.342254638672
 20
81.2675523757935
 30
0.0
 11
-253.342254638672
 21
93.7675523757935
 31
0.0
  0
LINE
  5
   20C
  8
0
  6
CONTINUOUS
 62
     7
 10
-229.342231750488
 20
10.6675539016724
 30
0.0
 11
-247.842254638672
 21
10.6675539016724
 31
0.0
  0
LINE
  5
   20D
  8
0
  6
CONTINUOUS
 62
   210
 10
-229.342231750488
 20
9.26755237579346
 30
0.0
 11
-247.842254638672
 21
9.26755237579346
 31
0.0
  0
LINE
  5
   20E
  8
0
  6
CONTINUOUS
 62
   210
 10
-229.342231750488
 20
94.2675523757935
 30
0.0
 11
-247.842254638672
 21
94.2675523757935
 31
0.0
  0
LINE
  5
   20F
  8
0
  6
CONTINUOUS
 62
     3
 10
-229.342231750488
 20
92.8675584793091
 30
0.0
 11
-247.842254638672
 21
92.8675584793091
 31
0.0
  0
LINE
  5
   210
  8
0
  6
CONTINUOUS
 62
   210
 10
-229.342231750488
 20
9.26755237579346
 30
0.0
 11
-229.342231750488
 21
94.2675523757935
 31
0.0
  0
LINE
  5
   211
  8
0
  6
CONTINUOUS
 62
   210
 10
-251.092254638672
 20
31.7675294876099
 30
0.0
 11
-251.092254638672
 21
33.2675476077538
 31
0.0
  0
LINE
  5
   212
  8
0
  6
CONTINUOUS
 62
   210
 10
-247.842254638672
 20
9.26755237579346
 30
0.0
 11
-247.842254638672
 21
9.76755237579346
 31
0.0
  0
LINE
  5
   213
  8
0
  6
CONTINUOUS
 62
     3
 10
-247.842254638672
 20
67.7675523757935
 30
0.0
 11
-251.092254638672
 21
67.7675523757935
 31
0.0
  0
LINE
  5
   214
  8
0
  6
CONTINUOUS
 62
   210
 10
-247.842254638672
 20
71.7675523757935
 30
0.0
 11
-247.842254638672
 21
80.0175523757935
 31
0.0
  0
LINE
  5
   215
  8
0
  6
CONTINUOUS
 62
     7
 10
-247.842254638672
 20
28.2675218582153
 30
0.0
 11
-251.092254638672
 21
28.2675218582153
 31
0.0
  0
LINE
  5
   216
  8
0
  6
CONTINUOUS
 62
     7
 10
-251.092254638672
 20
28.2675218582153
 30
0.0
 11
-251.092254638672
 21
30.0175523757935
 31
0.0
  0
LINE
  5
   217
  8
0
  6
CONTINUOUS
 62
     7
 10
-229.842217256997
 20
36.0175399892106
 30
0.0
 11
-251.092247774575
 21
36.0175399892106
 31
0.0
  0
LINE
  5
   218
  8
0
  6
CONTINUOUS
 62
     7
 10
-229.842219607748
 20
36.0175395446338
 30
0.0
 11
-229.342234881933
 21
36.517547156011
 31
0.0
  0
LINE
  5
   219
  8
0
  6
CONTINUOUS
 62
     7
 10
-229.842224121094
 20
30.517560005188
 30
0.0
 11
-251.092254638672
 21
30.517560005188
 31
0.0
  0
LINE
  5
   21A
  8
0
  6
CONTINUOUS
 62
     7
 10
-229.3422305353
 20
30.0175454496415
 30
0.0
 11
-229.842215261115
 21
30.5175530610187
 31
0.0
  0
LINE
  5
   21B
  8
0
  6
CONTINUOUS
 62
   210
 10
-254.092260074939
 20
23.517550323667
 30
0.0
 11
-254.092252445545
 21
30.017550323667
 31
0.0
  0
LINE
  5
   21C
  8
0
  6
CONTINUOUS
 62
   210
 10
-254.09225448439
 20
73.517546798889
 30
0.0
 11
-254.092262113784
 21
80.017546798889
 31
0.0
  0
LINE
  5
   21D
  8
0
  6
CONTINUOUS
 62
     3
 10
-251.092254638672
 20
67.7675523757935
 30
0.0
 11
-251.092254638672
 21
69.7675523757935
 31
0.0
  0
LINE
  5
   21E
  8
0
  6
CONTINUOUS
 62
   210
 10
-229.342231750488
 20
22.7675523757935
 30
0.0
 11
-229.342231750488
 21
23.2675523757935
 31
0.0
  0
LINE
  5
   21F
  8
0
  6
CONTINUOUS
 62
     2
 10
-253.092254638672
 20
80.2675523757935
 30
0.0
 11
-253.842254638672
 21
80.2675523757935
 31
0.0
  0
LINE
  5
   220
  8
0
  6
CONTINUOUS
 62
     2
 10
-253.092254638672
 20
23.2675523757935
 30
0.0
 11
-253.842254638672
 21
23.2675523757935
 31
0.0
  0
LINE
  5
   221
  8
0
  6
CONTINUOUS
 62
     2
 10
-253.092254638672
 20
80.0175523757935
 30
0.0
 11
-253.092254638672
 21
80.2675523757935
 31
0.0
  0
LINE
  5
   222
  8
0
  6
CONTINUOUS
 62
     2
 10
-253.092254638672
 20
30.0176057815552
 30
0.0
 11
-253.092254638672
 21
73.5175523757935
 31
0.0
  0
LINE
  5
   223
  8
0
  6
CONTINUOUS
 62
     2
 10
-253.092254638672
 20
23.2675523757935
 30
0.0
 11
-253.092254638672
 21
23.5175905227661
 31
0.0
  0
LINE
  5
   224
  8
0
  6
CONTINUOUS
 62
     2
 10
-253.842254638672
 20
23.2675523757935
 30
0.0
 11
-253.842254638672
 21
23.5175447463989
 31
0.0
  0
LINE
  5
   225
  8
0
  6
CONTINUOUS
 62
     2
 10
-253.842254638672
 20
30.0175447463989
 30
0.0
 11
-253.842254638672
 21
73.5175142288208
 31
0.0
  0
LINE
  5
   226
  8
0
  6
CONTINUOUS
 62
     2
 10
-253.842254638672
 20
80.0175142288208
 30
0.0
 11
-253.842254638672
 21
80.2675523757935
 31
0.0
  0
LINE
  5
   227
  8
0
  6
CONTINUOUS
 62
     3
 10
-253.842254638672
 20
81.0175523757935
 30
0.0
 11
-253.842254638672
 21
94.0175523757935
 31
0.0
  0
LINE
  5
   228
  8
0
  6
CONTINUOUS
 62
     3
 10
-249.842247009277
 20
93.7675523757935
 30
0.0
 11
-249.842247009277
 21
94.5175523757935
 31
0.0
  0
LINE
  5
   229
  8
0
  6
CONTINUOUS
 62
     3
 10
-249.842247009277
 20
80.5175523757935
 30
0.0
 11
-249.842247009277
 21
81.2675676345825
 31
0.0
  0
LINE
  5
   22A
  8
0
  6
CONTINUOUS
 62
   210
 10
-247.842254638672
 20
22.2675523757935
 30
0.0
 11
-249.842247009277
 21
22.2675523757935
 31
0.0
  0
LINE
  5
   22B
  8
0
  6
CONTINUOUS
 62
     7
 10
-248.342239379883
 20
22.2675523757935
 30
0.0
 11
-253.342254638672
 21
22.2675523757935
 31
0.0
  0
LINE
  5
   22C
  8
0
  6
CONTINUOUS
 62
     7
 10
-247.842254638672
 20
9.76755237579346
 30
0.0
 11
-253.342254638672
 21
9.76755237579346
 31
0.0
  0
LINE
  5
   22D
  8
0
  6
CONTINUOUS
 62
     3
 10
-248.342239379883
 20
81.2675523757935
 30
0.0
 11
-253.342254638672
 21
81.2675523757935
 31
0.0
  0
LINE
  5
   22E
  8
0
  6
CONTINUOUS
 62
   210
 10
-247.842254638672
 20
81.2675523757935
 30
0.0
 11
-249.842247009277
 21
81.2675523757935
 31
0.0
  0
LINE
  5
   22F
  8
0
  6
CONTINUOUS
 62
     3
 10
-249.842247009277
 20
93.7675523757935
 30
0.0
 11
-253.342254638672
 21
93.7675523757935
 31
0.0
  0
LINE
  5
   230
  8
0
  6
CONTINUOUS
 62
   210
 10
-247.842262268066
 20
23.5175523757935
 30
0.0
 11
-254.092262268066
 21
23.5175523757935
 31
0.0
  0
LINE
  5
   231
  8
0
  6
CONTINUOUS
 62
   210
 10
-251.092254638672
 20
30.0175523757935
 30
0.0
 11
-254.092254638672
 21
30.0175523757935
 31
0.0
  0
LINE
  5
   232
  8
0
  6
CONTINUOUS
 62
   210
 10
-247.842262268066
 20
80.0175523757935
 30
0.0
 11
-254.092262268066
 21
80.0175523757935
 31
0.0
  0
LINE
  5
   233
  8
0
  6
CONTINUOUS
 62
   210
 10
-247.842254638672
 20
73.5175523757935
 30
0.0
 11
-254.092254638672
 21
73.5175523757935
 31
0.0
  0
LINE
  5
   234
  8
0
  6
CONTINUOUS
 62
   210
 10
-247.842330932617
 20
71.7675523757935
 30
0.0
 11
-253.092254638672
 21
71.7675523757935
 31
0.0
  0
LINE
  5
   235
  8
0
  6
CONTINUOUS
 62
     3
 10
-247.842292785645
 20
69.7675523757935
 30
0.0
 11
-251.092254638672
 21
69.7675523757935
 31
0.0
  0
LINE
  5
   236
  8
0
  6
CONTINUOUS
 62
   210
 10
-251.092254638672
 20
67.7675523757935
 30
0.0
 11
-253.092254638672
 21
67.7675523757935
 31
0.0
  0
LINE
  5
   237
  8
0
  6
CONTINUOUS
 62
     3
 10
-253.842262925323
 20
94.017570321244
 30
0.0
 11
-253.342262942437
 21
94.5175703041297
 31
0.0
  0
LINE
  5
   238
  8
0
  6
CONTINUOUS
 62
     3
 10
-253.34228460199
 20
80.5175834905948
 30
0.0
 11
-253.842284584876
 21
81.0175834734805
 31
0.0
  0
LINE
  5
   239
  8
0
  6
CONTINUOUS
 62
     3
 10
-249.842247009277
 20
94.5175523757935
 30
0.0
 11
-253.342254638672
 21
94.5175523757935
 31
0.0
  0
LINE
  5
   23A
  8
0
  6
CONTINUOUS
 62
     3
 10
-249.842247009277
 20
80.5175523757935
 30
0.0
 11
-253.342254638672
 21
80.5175523757935
 31
0.0
  0
LINE
  5
   23B
  8
0
  6
CONTINUOUS
 62
     3
 10
-236.092231750488
 20
4.26755237579346
 30
0.0
 11
-238.592231750488
 21
4.26755237579346
 31
0.0
  0
LINE
  5
   23C
  8
0
  6
CONTINUOUS
 62
     3
 10
-236.092231750488
 20
-5.73244285583496
 30
0.0
 11
-238.592231750488
 21
-5.73244285583496
 31
0.0
  0
LINE
  5
   23D
  8
0
  6
CONTINUOUS
 62
     3
 10
-236.092231750488
 20
-5.73243999481201
 30
0.0
 11
-236.092231750488
 21
9.26755237579346
 31
0.0
  0
LINE
  5
   23E
  8
0
  6
CONTINUOUS
 62
     3
 10
-238.592231750488
 20
-5.73244285583496
 30
0.0
 11
-238.592231750488
 21
9.26755237579346
 31
0.0
  0
LINE
  5
   23F
  8
0
  6
CONTINUOUS
 62
     3
 10
-236.092231750488
 20
94.2675523757934
 30
0.0
 11
-236.092231750488
 21
109.267544746399
 31
0.0
  0
LINE
  5
   240
  8
0
  6
CONTINUOUS
 62
     3
 10
-238.592231750488
 20
94.2675523757934
 30
0.0
 11
-238.592231750488
 21
109.267547607422
 31
0.0
  0
LINE
  5
   241
  8
0
  6
CONTINUOUS
 62
     3
 10
-236.092231750488
 20
109.267547607422
 30
0.0
 11
-238.592231750488
 21
109.267547607422
 31
0.0
  0
LINE
  5
   242
  8
0
  6
CONTINUOUS
 62
     3
 10
-236.092231750488
 20
99.2675523757934
 30
0.0
 11
-238.592231750488
 21
99.2675523757934
 31
0.0
  0
LINE
  5
   243
  8
0
  6
CONTINUOUS
 62
     3
 10
-249.842247009277
 20
9.01755237579345
 30
0.0
 11
-253.342254638672
 21
9.01755237579345
 31
0.0
  0
LINE
  5
   244
  8
0
  6
CONTINUOUS
 62
     3
 10
-253.342262942437
 20
9.01753444745727
 30
0.0
 11
-253.842262925323
 21
9.51753443034298
 31
0.0
  0
LINE
  5
   245
  8
0
  6
CONTINUOUS
 62
     3
 10
-253.842254638672
 20
9.51755237579345
 30
0.0
 11
-253.842254638672
 21
22.5175523757935
 31
0.0
  0
LINE
  5
   246
  8
0
  6
CONTINUOUS
 62
     3
 10
-253.842284584876
 20
22.5175212781064
 30
0.0
 11
-253.34228460199
 21
23.0175212609921
 31
0.0
  0
LINE
  5
   247
  8
0
  6
CONTINUOUS
 62
     3
 10
-249.842247009277
 20
23.0175523757935
 30
0.0
 11
-253.342254638672
 21
23.0175523757935
 31
0.0
  0
LINE
  5
   248
  8
0
  6
CONTINUOUS
 62
     3
 10
-249.842247009277
 20
22.2675371170044
 30
0.0
 11
-249.842247009277
 21
23.0175523757935
 31
0.0
  0
LINE
  5
   249
  8
0
  6
CONTINUOUS
 62
     3
 10
-249.842247009277
 20
9.01755237579345
 30
0.0
 11
-249.842247009277
 21
9.76755237579345
 31
0.0
  0
LINE
  5
   24A
  8
0
  6
DASHDOT
 62
     7
 10
-254.092262268066
 20
80.0175523757935
 30
0.0
 11
-254.092262268066
 21
105.026590734368
 31
0.0
  0
LINE
  5
   24B
  8
0
  6
DASHDOT
 62
     7
 10
-254.092254638672
 20
30.017550323667
 30
0.0
 11
-254.092254638672
 21
73.5175523757935
 31
0.0
  0
LINE
  5
   24C
  8
0
  6
DASHDOT
 62
     7
 10
-254.092260074939
 20
-2.75723801372406
 30
0.0
 11
-254.092260074939
 21
23.517550323667
 31
0.0
  0
LINE
  5
   24D
  8
0
  6
DASHDOT
 62
     7
 10
-255.592254638672
 20
-2.80535042472643
 30
0.0
 11
-255.592254638672
 21
105.026590734368
 31
0.0
  0
LINE
  5
   24E
  8
0
  6
CONTINUOUS
 62
     7
 10
-251.003178286286
 20
105.026590734368
 30
0.0
 11
-261.142868905038
 21
105.026590734368
 31
0.0
  0
LINE
  5
   24F
  8
0
  6
CONTINUOUS
 62
     7
 10
-258.305082755193
 20
-2.85787669270938
 30
0.0
 11
-251.243740341298
 21
-2.72115370547226
 31
0.0
  0
LINE
  5
   250
  8
0
  6
CONTINUOUS
 62
     7
 10
-247.842254638672
 20
9.76755237579346
 30
0.0
 11
-249.842247009277
 21
9.76755237579346
 31
0.0
  0
LINE
  5
   251
  8
0
  6
CONTINUOUS
 62
     7
 10
-247.842254638672
 20
23.5175523757935
 30
0.0
 11
-247.842254638672
 21
28.2675065994263
 31
0.0
  0
LINE
  5
   252
  8
0
  6
CONTINUOUS
 62
   210
 10
-247.842254638672
 20
22.2675523757935
 30
0.0
 11
-247.842254638672
 21
23.5175523757935
 31
0.0
  0
LINE
  5
   253
  8
0
  6
CONTINUOUS
 62
     3
 10
-251.092254638672
 20
33.2675476077538
 30
0.0
 11
-251.092254638672
 21
36.7675476077793
 31
0.0
  0
LINE
  5
   254
  8
0
  6
CONTINUOUS
 62
   210
 10
-251.092254638672
 20
30.0175523757935
 30
0.0
 11
-251.092254638672
 21
31.7675294876099
 31
0.0
  0
LINE
  5
   255
  8
0
  6
CONTINUOUS
 62
   210
 10
-251.092254638672
 20
36.7675476077793
 30
0.0
 11
-251.092254638672
 21
67.7675447463989
 31
0.0
  0
LINE
  5
   256
  8
0
  6
CONTINUOUS
 62
     7
 10
-247.842254638672
 20
9.76755237579346
 30
0.0
 11
-247.842254638672
 21
22.2675523757935
 31
0.0
  0
LINE
  5
   257
  8
0
  6
CONTINUOUS
 62
   210
 10
-247.842254638672
 20
93.7675523757935
 30
0.0
 11
-247.842254638672
 21
94.2675523757935
 31
0.0
  0
LINE
  5
   258
  8
0
  6
CONTINUOUS
 62
     3
 10
-247.842254638672
 20
81.2675523757935
 30
0.0
 11
-247.842254638672
 21
93.7675523757935
 31
0.0
  0
LINE
  5
   259
  8
0
  6
CONTINUOUS
 62
   210
 10
-247.842254638672
 20
80.0175523757935
 30
0.0
 11
-247.842254638672
 21
81.2675523757935
 31
0.0
  0
LINE
  5
   25A
  8
0
  6
CONTINUOUS
 62
   210
 10
-247.842254638672
 20
93.7675523757935
 30
0.0
 11
-249.842247009277
 21
93.7675523757935
 31
0.0
  0
LINE
  5
   25B
  8
0
  6
CONTINUOUS
 62
     3
 10
-247.842254638672
 20
67.7675523757935
 30
0.0
 11
-247.842254638672
 21
71.7675523757935
 31
0.0
  0
LINE
  5
   25C
  8
0
  6
DASHDOT
 62
     7
 10
-239.412703573992
 20
76.7675523757935
 30
0.0
 11
-268.969273581364
 21
76.7675523757935
 31
0.0
  0
LINE
  5
   25D
  8
0
  6
DASHDOT
 62
     7
 10
-240.680063549266
 20
26.7675523757935
 30
0.0
 11
-269.612227951395
 21
26.7675523757935
 31
0.0
  0
CIRCLE
  5
   25E
  8
0
  6
CONTINUOUS
 62
     7
 10
-238.017023186238
 20
96.8658182872733
 30
0.0
 40
0.1
  0
CIRCLE
  5
   25F
  8
0
  6
CONTINUOUS
 62
     7
 10
-242.587760427177
 20
83.4868939126584
 30
0.0
 40
0.1
  0
LINE
  5
   260
  8
0
  6
DASHDOT
 62
     7
 10
-233.446285945298
 20
104.267547607422
 30
0.0
 11
-242.302089349619
 21
104.267547607422
 31
0.0
  0
LINE
  5
   261
  8
0
  6
DASHDOT
 62
     7
 10
-233.351062252779
 20
-0.732442855834954
 30
0.0
 11
-241.730747194501
 21
-0.732442855834954
 31
0.0
  0
LINE
  5
   262
  8
0
  6
CONTINUOUS
 62
     1
 10
-175.842244148254
 20
23.1393423080444
 30
0.0
 11
-175.842244148254
 21
24.1393423080444
 31
0.0
  0
LINE
  5
   263
  8
0
  6
CONTINUOUS
 62
     1
 10
-174.842244148254
 20
23.1393423080444
 30
0.0
 11
-175.842244148254
 21
23.1393423080444
 31
0.0
  0
LINE
  5
   264
  8
0
  6
CONTINUOUS
 62
     1
 10
-175.842244148254
 20
76.8925523757935
 30
0.0
 11
-175.842244148254
 21
78.1393404006958
 31
0.0
  0
LINE
  5
   265
  8
0
  6
CONTINUOUS
 62
     1
 10
-174.842244148254
 20
78.1393404006958
 30
0.0
 11
-175.842244148254
 21
78.1393404006958
 31
0.0
  0
LINE
  5
   266
  8
0
  6
CONTINUOUS
 62
     1
 10
-175.842244148254
 20
24.1393423080444
 30
0.0
 11
-175.842244148254
 21
77.1393423080444
 31
0.0
  0
LINE
  5
   267
  8
0
  6
CONTINUOUS
 62
     1
 10
-178.092244058847
 20
84.9280138015747
 30
0.0
 11
-178.092244058847
 21
87.3506669998169
 31
0.0
  0
LINE
  5
   268
  8
0
  6
CONTINUOUS
 62
     1
 10
-178.092244058847
 20
13.928017616272
 30
0.0
 11
-178.092244058847
 21
16.3506669998169
 31
0.0
  0
LINE
  5
   269
  8
0
  6
CONTINUOUS
 62
     1
 10
-174.842244148254
 20
9.88934230804443
 30
0.0
 11
-174.842244148254
 21
91.3893423080444
 31
0.0
  0
LINE
  5
   26A
  8
0
  6
CONTINUOUS
 62
     1
 10
-173.092244148254
 20
9.88934230804443
 30
0.0
 11
-174.842244148254
 21
9.88934230804443
 31
0.0
  0
LINE
  5
   26B
  8
0
  6
CONTINUOUS
 62
     1
 10
-173.092244148254
 20
9.8893404006958
 30
0.0
 11
-173.092244148254
 21
91.3893404006958
 31
0.0
  0
LINE
  5
   26C
  8
0
  6
CONTINUOUS
 62
     1
 10
-173.092244148254
 20
91.3893404006958
 30
0.0
 11
-173.592244148254
 21
91.3893404006958
 31
0.0
  0
LINE
  5
   26D
  8
0
  6
CONTINUOUS
 62
     1
 10
-174.092244148254
 20
91.3893404006958
 30
0.0
 11
-174.842244148254
 21
91.3893404006958
 31
0.0
  0
LINE
  5
   26E
  8
0
  6
CONTINUOUS
 62
     1
 10
-174.842244148254
 20
84.6393404006958
 30
0.0
 11
-177.592245657162
 21
84.6393404006958
 31
0.0
  0
LINE
  5
   26F
  8
0
  6
CONTINUOUS
 62
     1
 10
-174.842244148254
 20
87.6393404006958
 30
0.0
 11
-177.592242420584
 21
87.6393404006958
 31
0.0
  0
LINE
  5
   270
  8
0
  6
CONTINUOUS
 62
     1
 10
-177.592244065698
 20
84.6393404006958
 30
0.0
 11
-177.592244065698
 21
84.7535219192505
 31
0.0
  0
LINE
  5
   271
  8
0
  6
CONTINUOUS
 62
     1
 10
-177.592243667836
 20
84.6393392521651
 30
0.0
 11
-178.092243684299
 21
84.9280126566633
 31
0.0
  0
LINE
  5
   272
  8
0
  6
CONTINUOUS
 62
     1
 10
-177.592244065698
 20
84.7535219192505
 30
0.0
 11
-177.592244065698
 21
85.0786790847778
 31
0.0
  0
LINE
  5
   273
  8
0
  6
CONTINUOUS
 62
     1
 10
-177.592244065698
 20
85.0786790847778
 30
0.0
 11
-177.592244065698
 21
85.5653200149536
 31
0.0
  0
LINE
  5
   274
  8
0
  6
CONTINUOUS
 62
     1
 10
-177.592244065698
 20
85.5653200149536
 30
0.0
 11
-177.592244065698
 21
86.1393404006958
 31
0.0
  0
LINE
  5
   275
  8
0
  6
CONTINUOUS
 62
     1
 10
-177.592244065698
 20
86.1393404006958
 30
0.0
 11
-177.592244065698
 21
86.7133684158325
 31
0.0
  0
LINE
  5
   276
  8
0
  6
CONTINUOUS
 62
     1
 10
-177.592244065698
 20
86.7133684158325
 30
0.0
 11
-177.592244065698
 21
87.2000017166138
 31
0.0
  0
LINE
  5
   277
  8
0
  6
CONTINUOUS
 62
     1
 10
-177.592244065698
 20
87.2000017166138
 30
0.0
 11
-177.592244065698
 21
87.5251588821411
 31
0.0
  0
LINE
  5
   278
  8
0
  6
CONTINUOUS
 62
     1
 10
-177.592244065698
 20
87.5251588821411
 30
0.0
 11
-177.592244065698
 21
87.6393404006958
 31
0.0
  0
LINE
  5
   279
  8
0
  6
CONTINUOUS
 62
     1
 10
-178.092244493436
 20
87.3506658089479
 30
0.0
 11
-177.592244476973
 21
87.6393392134461
 31
0.0
  0
LINE
  5
   27A
  8
0
  6
CONTINUOUS
 62
     1
 10
-174.842244148254
 20
16.6393423080444
 30
0.0
 11
-177.592243063142
 21
16.6393423080444
 31
0.0
  0
LINE
  5
   27B
  8
0
  6
CONTINUOUS
 62
     1
 10
-174.842244148254
 20
13.6393423080444
 30
0.0
 11
-177.592244904922
 21
13.6393423080444
 31
0.0
  0
LINE
  5
   27C
  8
0
  6
CONTINUOUS
 62
     1
 10
-178.092244319922
 20
16.350666299691
 30
0.0
 11
-177.592244303458
 21
16.6393415919476
 31
0.0
  0
LINE
  5
   27D
  8
0
  6
CONTINUOUS
 62
     1
 10
-177.59224404904
 20
16.5251607894897
 30
0.0
 11
-177.59224404904
 21
16.6393423080444
 31
0.0
  0
LINE
  5
   27E
  8
0
  6
CONTINUOUS
 62
     1
 10
-177.592244049052
 20
16.2000017166138
 30
0.0
 11
-177.592244049052
 21
16.5251607894897
 31
0.0
  0
LINE
  5
   27F
  8
0
  6
CONTINUOUS
 62
     1
 10
-177.592244049038
 20
15.7133684158325
 30
0.0
 11
-177.592244049038
 21
16.2000017166138
 31
0.0
  0
LINE
  5
   280
  8
0
  6
CONTINUOUS
 62
     1
 10
-177.592244049073
 20
15.1393423080444
 30
0.0
 11
-177.592244049073
 21
15.7133684158325
 31
0.0
  0
LINE
  5
   281
  8
0
  6
CONTINUOUS
 62
     1
 10
-177.592244049011
 20
14.565318107605
 30
0.0
 11
-177.592244049011
 21
15.1393423080444
 31
0.0
  0
LINE
  5
   282
  8
0
  6
CONTINUOUS
 62
     1
 10
-177.592244049038
 20
14.0786828994751
 30
0.0
 11
-177.592244049038
 21
14.565318107605
 31
0.0
  0
LINE
  5
   283
  8
0
  6
CONTINUOUS
 62
     1
 10
-177.592244049051
 20
13.7535238265991
 30
0.0
 11
-177.592244049051
 21
14.0786828994751
 31
0.0
  0
LINE
  5
   284
  8
0
  6
CONTINUOUS
 62
     1
 10
-177.592243841878
 20
13.6393416942949
 30
0.0
 11
-178.092243858342
 21
13.9280169865514
 31
0.0
  0
LINE
  5
   285
  8
0
  6
CONTINUOUS
 62
     1
 10
-177.59224404904
 20
13.6393423080444
 30
0.0
 11
-177.59224404904
 21
13.7535238265991
 31
0.0
  0
LINE
  5
   286
  8
0
  6
CONTINUOUS
 62
     1
 10
-173.592244148254
 20
91.3893404006958
 30
0.0
 11
-174.092244148254
 21
91.3893404006958
 31
0.0
  0
CIRCLE
  5
   287
  8
0
  6
CONTINUOUS
 62
     7
 10
-187.526710449284
 20
86.8142880127963
 30
0.0
 40
0.125
  0
LINE
  5
   288
  8
0
  6
CONTINUOUS
 62
     7
 10
-174.842244148254
 20
91.3893404006958
 30
0.0
 11
-174.842244148254
 21
113.388846772162
 31
0.0
  0
LINE
  5
   289
  8
0
  6
CONTINUOUS
 62
     7
 10
-175.842244148254
 20
78.1393404006958
 30
0.0
 11
-175.842244148254
 21
84.6393404006958
 31
0.0
  0
LINE
  5
   28A
  8
0
  6
CONTINUOUS
 62
     7
 10
-174.842244148254
 20
-17.7542955478792
 30
0.0
 11
-174.842244148254
 21
9.88934230804443
 31
0.0
  0
LINE
  5
   28B
  8
0
  6
CONTINUOUS
 62
     7
 10
-175.842244148254
 20
-17.2885421232216
 30
0.0
 11
-175.842244148254
 21
13.6393423080444
 31
0.0
  0
LINE
  5
   28C
  8
0
  6
CONTINUOUS
 62
     3
 10
-171.146854207312
 20
-19.4754360683181
 30
0.0
 11
-179.874806803399
 21
-15.410362256442
 31
0.0
  0
LINE
  5
   28D
  8
0
  6
CONTINUOUS
 62
     3
 10
-170.309927246043
 20
111.802535856388
 30
0.0
 11
-179.874806803399
 21
115.150243701462
 31
0.0
  0
LINE
  5
   28E
  8
0
  6
CONTINUOUS
 62
     7
 10
-174.842244148254
 20
87.8893404006958
 30
0.0
 11
-175.842244148254
 21
87.8893404006958
 31
0.0
  0
LINE
  5
   28F
  8
0
  6
CONTINUOUS
 62
     7
 10
-174.842244148254
 20
84.3893404006958
 30
0.0
 11
-175.842244148254
 21
84.3893404006958
 31
0.0
  0
LINE
  5
   290
  8
0
  6
CONTINUOUS
 62
     7
 10
-174.842244148254
 20
78.6393404006958
 30
0.0
 11
-175.842244148254
 21
78.6393404006958
 31
0.0
  0
LINE
  5
   291
  8
0
  6
CONTINUOUS
 62
     7
 10
-174.842244148254
 20
22.6393423080444
 30
0.0
 11
-175.842244148254
 21
22.6393423080444
 31
0.0
  0
LINE
  5
   292
  8
0
  6
CONTINUOUS
 62
     7
 10
-174.842244148254
 20
16.8893423080444
 30
0.0
 11
-175.842244148254
 21
16.8893423080444
 31
0.0
  0
LINE
  5
   293
  8
0
  6
CONTINUOUS
 62
     7
 10
-174.842244148254
 20
13.3893423080444
 30
0.0
 11
-175.842244148254
 21
13.3893423080444
 31
0.0
  0
LINE
  5
   294
  8
0
  6
CONTINUOUS
 62
     7
 10
-175.842244148254
 20
16.6393423080444
 30
0.0
 11
-175.842244148254
 21
23.1393423080444
 31
0.0
  0
LINE
  5
   295
  8
0
  6
CONTINUOUS
 62
     7
 10
-175.842244148254
 20
87.6393404006958
 30
0.0
 11
-175.842244148254
 21
113.738846772162
 31
0.0
  0
INSERT
  5
   296
  8
0
  6
CONTINUOUS
 62
     7
  2
*HATCH1288
 10
-177.842269897461
 20
-4.35097026824951
 30
0.0
 41
0.5
 42
0.5
 50
89.9999999480344
 43
0.5
  0
INSERT
  5
   297
  8
0
  6
CONTINUOUS
 62
     7
  2
*HATCH1289
 10
-177.842269897461
 20
-4.35097026824951
 30
0.0
 41
0.5
 42
0.5
 50
89.9999999480344
 43
0.5
  0
INSERT
  5
   298
  8
0
  6
CONTINUOUS
 62
     7
  2
*HATCH1290
 10
-177.842269897461
 20
-4.35097026824951
 30
0.0
 41
0.5
 42
0.5
 50
89.9999999480344
 43
0.5
  0
INSERT
  5
   299
  8
0
  6
CONTINUOUS
 62
     7
  2
*HATCH1291
 10
-177.842269897461
 20
-4.35097026824951
 30
0.0
 41
0.5
 42
0.5
 50
89.9999999480344
 43
0.5
  0
LINE
  5
   29A
  8
0
  6
DASHDOT
 62
     7
 10
-146.882343450933
 20
50.6425523757935
 30
0.0
 11
-273.823735863297
 21
50.6425523757935
 31
0.0
  0
LINE
  5
   29B
  8
0
  6
CONTINUOUS
 62
     5
 10
-179.092232226729
 20
95.5175523757935
 30
0.0
 11
-228.342231750488
 21
95.5175523757935
 31
0.0
  0
LINE
  5
   29C
  8
0
  6
CONTINUOUS
 62
     5
 10
-179.092232226729
 20
8.01755858482011
 30
0.0
 11
-228.342231750488
 21
8.01755858482011
 31
0.0
  0
LINE
  5
   29D
  8
0
  6
CONTINUOUS
 62
     5
 10
-178.592232226729
 20
8.51755858482011
 30
0.0
 11
-178.592232226729
 21
21.1425741059478
 31
0.0
  0
LINE
  5
   29E
  8
0
  6
CONTINUOUS
 62
     5
 10
-178.592232226729
 20
82.6425523757935
 30
0.0
 11
-178.592232226729
 21
95.0175523757935
 31
0.0
  0
ARC
  5
   29F
  8
0
  6
CONTINUOUS
 62
     5
 10
-179.092232226729
 20
95.0175523757935
 30
0.0
 40
0.5
 50
359.999999948034
 51
449.999999948034
  0
ARC
  5
   2A0
  8
0
  6
CONTINUOUS
 62
     5
 10
-179.092232226729
 20
8.51755858482011
 30
0.0
 40
0.5
 50
269.999999948034
 51
359.999999948034
  0
LINE
  5
   2A1
  8
0
  6
CONTINUOUS
 62
     5
 10
-179.092232226729
 20
82.1425523757935
 30
0.0
 11
-179.092232226729
 21
82.6425523757935
 31
0.0
  0
LINE
  5
   2A2
  8
0
  6
CONTINUOUS
 62
     5
 10
-178.592232226729
 20
82.6425523757935
 30
0.0
 11
-179.092232226729
 21
82.6425523757935
 31
0.0
  0
LINE
  5
   2A3
  8
0
  6
CONTINUOUS
 62
     5
 10
-178.592232226729
 20
21.1425741059478
 30
0.0
 11
-179.092232226729
 21
21.1425741059478
 31
0.0
  0
LINE
  5
   2A4
  8
0
  6
CONTINUOUS
 62
     5
 10
-179.092232226729
 20
21.1425741059478
 30
0.0
 11
-179.092232226729
 21
21.6425741059478
 31
0.0
  0
CIRCLE
  5
   2A5
  8
0
  6
CONTINUOUS
 62
     7
 10
-316.226419778695
 20
88.3315481443507
 30
0.0
 40
0.1
  0
CIRCLE
  5
   2A6
  8
0
  6
CONTINUOUS
 62
     7
 10
-256.834754808511
 20
26.6846900191274
 30
0.0
 40
0.1
  0
LINE
  5
   2A7
  8
0
  6
CONTINUOUS
 62
     7
 10
-257.192254638672
 20
74.8175523757935
 30
0.0
 11
-257.192254638672
 21
78.7175523757935
 31
0.0
  0
LINE
  5
   2A8
  8
0
  6
CONTINUOUS
 62
     7
 10
-258.792254638672
 20
75.7675523757935
 30
0.0
 11
-258.792254638672
 21
77.7675523757935
 31
0.0
  0
LINE
  5
   2A9
  8
0
  6
CONTINUOUS
 62
     7
 10
-255.592254638672
 20
78.7175523757935
 30
0.0
 11
-257.192254638672
 21
78.7175523757935
 31
0.0
  0
LINE
  5
   2AA
  8
0
  6
CONTINUOUS
 62
     7
 10
-255.592254638672
 20
74.8175523757935
 30
0.0
 11
-257.192254638672
 21
74.8175523757935
 31
0.0
  0
LINE
  5
   2AB
  8
0
  6
CONTINUOUS
 62
     7
 10
-255.592254638672
 20
77.7675523757935
 30
0.0
 11
-258.792254638672
 21
77.7675523757935
 31
0.0
  0
LINE
  5
   2AC
  8
0
  6
CONTINUOUS
 62
     7
 10
-255.592254638672
 20
75.7675523757935
 30
0.0
 11
-258.792254638672
 21
75.7675523757935
 31
0.0
  0
LINE
  5
   2AD
  8
0
  6
CONTINUOUS
 62
     7
 10
-255.592254638672
 20
28.7175523757935
 30
0.0
 11
-257.192254638672
 21
28.7175523757935
 31
0.0
  0
LINE
  5
   2AE
  8
0
  6
CONTINUOUS
 62
     7
 10
-255.592254638672
 20
27.7675523757935
 30
0.0
 11
-258.792254638672
 21
27.7675523757935
 31
0.0
  0
LINE
  5
   2AF
  8
0
  6
CONTINUOUS
 62
     7
 10
-255.592254638672
 20
25.7675523757935
 30
0.0
 11
-258.792254638672
 21
25.7675523757935
 31
0.0
  0
LINE
  5
   2B0
  8
0
  6
CONTINUOUS
 62
     7
 10
-255.592254638672
 20
24.8175523757935
 30
0.0
 11
-257.192254638672
 21
24.8175523757935
 31
0.0
  0
LINE
  5
   2B1
  8
0
  6
CONTINUOUS
 62
     7
 10
-257.192254638672
 20
24.8175523757935
 30
0.0
 11
-257.192254638672
 21
28.7175523757935
 31
0.0
  0
LINE
  5
   2B2
  8
0
  6
CONTINUOUS
 62
     7
 10
-258.792254638672
 20
25.7675523757935
 30
0.0
 11
-258.792254638672
 21
27.7675523757935
 31
0.0
  0
TEXT
  5
   2B3
  8
0
  6
CONTINUOUS
 62
     1
 10
-203.590893117495
 20
-118.021937398435
 30
0.0
 40
2.00000008940697
  1
M 3076 95-01-16
 50
359.999999948034
 41
0.749999861419206
 72
     1
 11
-192.490894675255
 21
-117.021937363744
 31
0.0
 73
     2
  0
INSERT
  5
   2B4
  8
0
  6
CONTINUOUS
 62
     7
  2
*UDIM2146
 10
0.0
 20
0.0
 30
0.0
  0
INSERT
  5
   2B5
  8
0
  6
CONTINUOUS
 62
     7
  2
*UDIM2147
 10
0.0
 20
0.0
 30
0.0
  0
INSERT
  5
   2B6
  8
0
  6
CONTINUOUS
 62
     7
  2
*UDIM2148
 10
0.0
 20
0.0
 30
0.0
  0
TEXT
  5
   2B7
  8
0
  6
CONTINUOUS
 62
     1
 10
-216.833541827308
 20
-103.584139284273
 30
0.0
 40
2.00000008940697
  1
93-04-05 FERRARI M.
 50
359.999999948034
 41
0.749999861419206
 72
     2
 11
-188.633545785056
 21
-103.584139309707
 31
0.0
  0
INSERT
  5
   2B8
  8
0
  6
CONTINUOUS
 62
     7
  2
*UDIM2149
 10
0.0
 20
0.0
 30
0.0
  0
INSERT
  5
   2B9
  8
0
  6
CONTINUOUS
 62
     7
  2
*UDIM2150
 10
0.0
 20
0.0
 30
0.0
  0
INSERT
  5
   2BA
  8
0
  6
CONTINUOUS
 62
     7
  2
*UDIM2151
 10
0.0
 20
0.0
 30
0.0
  0
INSERT
  5
   2BB
  8
0
  6
CONTINUOUS
 62
     7
  2
*UDIM2152
 10
0.0
 20
0.0
 30
0.0
  0
TEXT
  5
   2BC
  8
0
  6
CONTINUOUS
 62
     7
 10
-138.330286343264
 20
49.2538324646069
 30
0.0
 40
3.00000002980232
  1
X
 50
359.999999948034
 41
0.916666604744064
 72
     2
 11
-136.130286474394
 21
49.2538324626227
 31
0.0
  0
TEXT
  5
   2BD
  8
0
  6
CONTINUOUS
 62
     7
 10
-295.594267208742
 20
48.9781709961011
 30
0.0
 40
3.00000002980232
  1
X
 50
359.999999948034
 41
0.916666604744064
 72
     2
 11
-293.394267339872
 21
48.9781709941168
 31
0.0
  0
INSERT
  5
   2BE
  8
0
  6
CONTINUOUS
 62
     7
  2
*UDIM2153
 10
0.0
 20
0.0
 30
0.0
  0
TEXT
  5
   2BF
  8
0
  6
CONTINUOUS
 62
     1
 10
-108.943115148756
 20
-129.251818015965
 30
0.0
 40
4.00000017881393
  1
601812/181
 50
359.999999948034
 41
0.937499973922969
 72
     2
 11
-72.1931145489844
 21
-129.251818049112
 31
0.0
  0
TEXT
  5
   2C0
  8
0
  6
CONTINUOUS
 62
     1
 10
-97.8574218107858
 20
-120.270235934704
 30
0.0
 40
3.00000002980232
  1
S3
 50
359.999999948034
 41
0.916666604744064
 72
     2
 11
-92.9074221003651
 21
-120.270235939169
 31
0.0
  0
TEXT
  5
   2C1
  8
0
  6
CONTINUOUS
 62
     1
 10
-119.391841665814
 20
-101.959963823537
 30
0.0
 40
2.00000008940697
  1
3POLE LOW VOLTAGE M.C.C.B SERIES ISOMAX
 50
359.999999948034
 41
0.749999861419206
 72
     1
 11
-90.2918457448502
 21
-100.95996380508
 31
0.0
 73
     2
  0
TEXT
  5
   2C2
  8
0
  6
CONTINUOUS
 62
     1
 10
-113.391842375106
 20
-104.959963828948
 30
0.0
 40
2.00000008940697
  1
PLUG-IN VERSION FRONT TERMINALS
 50
359.999999948034
 41
0.749999861419206
 72
     1
 11
-90.2918456137161
 21
-103.95996380508
 31
0.0
 73
     2
  0
TEXT
  5
   2C3
  8
0
  6
CONTINUOUS
 62
     1
 10
-116.189450033168
 20
-110.030230553257
 30
0.0
 40
2.00000008940697
  1
INTERR.AUTOMATICO SERIE ISOMAX
 50
359.999999948034
 41
0.749999861419206
 72
     1
 11
-93.8394531667252
 21
-109.030230528712
 31
0.0
 73
     2
  0
TEXT
  5
   2C4
  8
0
  6
CONTINUOUS
 62
     1
 10
-127.439448326236
 20
-113.030230543111
 30
0.0
 40
2.00000008940697
  1
TRIPOL.ESECUZIONE RIMOVIBILE TERMIN.ANTERIORI
 50
359.999999948034
 41
0.749999861419206
 72
     1
 11
-93.8394530355911
 21
-112.030230528712
 31
0.0
 73
     2
  0
LINE
  5
   2C5
  8
0
  6
DASHDOT
 62
     7
 10
-361.518438641382
 20
8.01755181854159
 30
0.0
 11
-361.518438641382
 21
19.7675519675393
 31
0.0
  0
LINE
  5
   2C6
  8
0
  6
DASHDOT
 62
     7
 10
-326.518410437716
 20
11.267425304683
 30
0.0
 11
-326.518410437716
 21
19.7675574004908
 31
0.0
  0
LINE
  5
   2C7
  8
0
  6
DASHDOT
 62
     7
 10
-326.518436883223
 20
8.01755181854159
 30
0.0
 11
-326.518436883223
 21
13.467550018875
 31
0.0
  0
LINE
  5
   2C8
  8
0
  6
DASHDOT
 62
     7
 10
-361.51844033826
 20
8.01755181854159
 30
0.0
 11
-361.51844033826
 21
13.4675521725087
 31
0.0
  0
LINE
  5
   2C9
  8
0
  6
CONTINUOUS
 62
     3
 10
-318.018439636959
 20
76.8925556332369
 30
0.0
 11
-370.018432007565
 21
76.8925556332369
 31
0.0
  0
LINE
  5
   2CA
  8
0
  6
CONTINUOUS
 62
     3
 10
-318.018439636959
 20
24.3925632626317
 30
0.0
 11
-324.768439607157
 21
24.3925632626317
 31
0.0
  0
LINE
  5
   2CB
  8
0
  6
CONTINUOUS
 62
     3
 10
-330.518439636959
 20
24.3925632626312
 30
0.0
 11
-342.793792585325
 21
24.3925632626312
 31
0.0
  0
LINE
  5
   2CC
  8
0
  6
CONTINUOUS
 62
     3
 10
-363.268432007565
 20
24.3925632626179
 30
0.0
 11
-370.018432007565
 21
24.3925632626179
 31
0.0
  0
LINE
  5
   2CD
  8
0
  6
CONTINUOUS
 62
     3
 10
-357.518432007565
 20
24.3925632626299
 30
0.0
 11
-363.268432007565
 21
24.3925632626299
 31
0.0
  0
LINE
  5
   2CE
  8
0
  6
CONTINUOUS
 62
     3
 10
-324.768439636959
 20
24.3925632626317
 30
0.0
 11
-330.518439636959
 21
24.3925632626317
 31
0.0
  0
LINE
  5
   2CF
  8
0
  6
DASHDOT
 62
     7
 10
-344.018432007565
 20
15.3319648530338
 30
0.0
 11
-344.018432007565
 21
66.9795994378541
 31
0.0
  0
ARC
  5
   2D0
  8
0
  6
CONTINUOUS
 62
     3
 10
-370.018432007565
 20
24.6425632626179
 30
0.0
 40
0.25
 50
179.999999948034
 51
269.999999948034
  0
ARC
  5
   2D1
  8
0
  6
CONTINUOUS
 62
     3
 10
-370.018432007565
 20
76.6425556332369
 30
0.0
 40
0.25
 50
449.999999948034
 51
539.999999948034
  0
ARC
  5
   2D2
  8
0
  6
CONTINUOUS
 62
     3
 10
-318.018439636959
 20
76.6425556332369
 30
0.0
 40
0.25
 50
359.999999948034
 51
449.999999948034
  0
ARC
  5
   2D3
  8
0
  6
CONTINUOUS
 62
     3
 10
-318.018439636959
 20
24.6425632626317
 30
0.0
 40
0.25
 50
269.999999948034
 51
359.999999948034
  0
LINE
  5
   2D4
  8
0
  6
DASHDOT
 62
     7
 10
-344.018432007565
 20
69.8692166687722
 30
0.0
 11
-344.018432007565
 21
84.3243417036518
 31
0.0
  0
LINE
  5
   2D5
  8
0
  6
CONTINUOUS
 62
     3
 10
-345.243157133472
 20
24.3925632626312
 30
0.0
 11
-357.518432007565
 21
24.3925632626312
 31
0.0
  0
LINE
  5
   2D6
  8
0
  6
CONTINUOUS
 62
     7
 10
-357.768439636959
 20
24.3925556332369
 30
0.0
 11
-362.768432007565
 21
24.3925556332369
 31
0.0
  0
LINE
  5
   2D7
  8
0
  6
CONTINUOUS
 62
     7
 10
-325.268447266354
 20
24.3925556332369
 30
0.0
 11
-330.268447266354
 21
24.3925556332369
 31
0.0
  0
LINE
  5
   2D8
  8
0
  6
CONTINUOUS
 62
     7
 10
-317.768432007565
 20
24.6425556332369
 30
0.0
 11
-317.768432007565
 21
33.6425480038423
 31
0.0
  0
LINE
  5
   2D9
  8
0
  6
CONTINUOUS
 62
     7
 10
-370.268432007565
 20
24.6425556332369
 30
0.0
 11
-370.268432007565
 21
33.6425480038423
 31
0.0
  0
LINE
  5
   2DA
  8
0
  6
CONTINUOUS
 62
     7
 10
-318.018432007565
 20
76.8925556332369
 30
0.0
 11
-370.018432007551
 21
76.8925556332369
 31
0.0
  0
LINE
  5
   2DB
  8
0
  6
CONTINUOUS
 62
     7
 10
-362.768432007565
 20
24.3925556332369
 30
0.0
 11
-370.018432007565
 21
24.3925556332369
 31
0.0
  0
LINE
  5
   2DC
  8
0
  6
CONTINUOUS
 62
     7
 10
-330.268447266354
 20
24.3925556332369
 30
0.0
 11
-357.768439636959
 21
24.3925556332369
 31
0.0
  0
LINE
  5
   2DD
  8
0
  6
CONTINUOUS
 62
     7
 10
-318.018432007565
 20
24.3925556332369
 30
0.0
 11
-325.268447266354
 21
24.3925556332369
 31
0.0
  0
LINE
  5
   2DE
  8
0
  6
CONTINUOUS
 62
     7
 10
-338.643432007565
 20
35.5175480038423
 30
0.0
 11
-338.643432007565
 21
55.5175403744478
 31
0.0
  0
LINE
  5
   2DF
  8
0
  6
CONTINUOUS
 62
     7
 10
-349.393432007565
 20
35.5175480038423
 30
0.0
 11
-349.393432007565
 21
55.5175403744478
 31
0.0
  0
LINE
  5
   2E0
  8
0
  6
CONTINUOUS
 62
     7
 10
-317.768432007565
 20
70.8925403744478
 30
0.0
 11
-370.268432007565
 21
70.8925403744478
 31
0.0
  0
LINE
  5
   2E1
  8
0
  6
CONTINUOUS
 62
     7
 10
-317.768432007565
 20
75.8925403744478
 30
0.0
 11
-370.268432007565
 21
75.8925403744478
 31
0.0
  0
LINE
  5
   2E2
  8
0
  6
CONTINUOUS
 62
     7
 10
-338.643432007565
 20
55.3853077084322
 30
0.0
 11
-349.393432007565
 21
55.3853077084322
 31
0.0
  0
LINE
  5
   2E3
  8
0
  6
CONTINUOUS
 62
     7
 10
-338.643432007565
 20
55.5175403744478
 30
0.0
 11
-349.393432007565
 21
55.5175403744478
 31
0.0
  0
LINE
  5
   2E4
  8
0
  6
CONTINUOUS
 62
     7
 10
-338.643432007565
 20
35.5175480038423
 30
0.0
 11
-349.393432007565
 21
35.5175480038423
 31
0.0
  0
LINE
  5
   2E5
  8
0
  6
CONTINUOUS
 62
     7
 10
-338.643432007565
 20
35.649795928647
 30
0.0
 11
-349.393432007565
 21
35.649795928647
 31
0.0
  0
LINE
  5
   2E6
  8
0
  6
DASHDOT
 62
     7
 10
-344.018432007565
 20
-29.2995972106788
 30
0.0
 11
-344.018432007565
 21
65.9937577770818
 31
0.0
  0
LINE
  5
   2E7
  8
0
  6
DASHDOT
 62
     7
 10
-344.018432007565
 20
65.6073914208222
 30
0.0
 11
-344.018432007565
 21
104.744117685645
 31
0.0
  0
LINE
  5
   2E8
  8
0
  6
CONTINUOUS
 62
     7
 10
-317.768439636959
 20
34.1425480038423
 30
0.0
 11
-317.768439636959
 21
40.1425440272231
 31
0.0
  0
LINE
  5
   2E9
  8
0
  6
CONTINUOUS
 62
     7
 10
-317.768439636959
 20
57.3925480038423
 30
0.0
 11
-317.768439636959
 21
76.6425556332368
 31
0.0
  0
LINE
  5
   2EA
  8
0
  6
CONTINUOUS
 62
     7
 10
-317.768439636959
 20
40.6425440272231
 30
0.0
 11
-317.768439636959
 21
50.3925480038423
 31
0.0
  0
LINE
  5
   2EB
  8
0
  6
CONTINUOUS
 62
     7
 10
-317.768439636959
 20
50.8925480038423
 30
0.0
 11
-317.768439636959
 21
56.8925480038423
 31
0.0
  0
LINE
  5
   2EC
  8
0
  6
CONTINUOUS
 62
     7
 10
-370.268432007567
 20
34.1425480038423
 30
0.0
 11
-370.268432007567
 21
40.1425480038434
 31
0.0
  0
LINE
  5
   2ED
  8
0
  6
CONTINUOUS
 62
     7
 10
-370.268432007576
 20
40.6425480038434
 30
0.0
 11
-370.268432007576
 21
50.3925480038423
 31
0.0
  0
LINE
  5
   2EE
  8
0
  6
CONTINUOUS
 62
     7
 10
-370.268432007562
 20
50.8925480038423
 30
0.0
 11
-370.268432007562
 21
56.8925480038423
 31
0.0
  0
LINE
  5
   2EF
  8
0
  6
CONTINUOUS
 62
     7
 10
-370.268432007551
 20
57.3925480038423
 30
0.0
 11
-370.268432007551
 21
76.6425556332368
 31
0.0
  0
LINE
  5
   2F0
  8
0
  6
CONTINUOUS
 62
     7
 10
-349.393435994427
 20
40.1425576215544
 30
0.0
 11
-369.768432037367
 21
40.1425576215544
 31
0.0
  0
LINE
  5
   2F1
  8
0
  6
CONTINUOUS
 62
     7
 10
-317.768439636959
 20
40.1425536449313
 30
0.0
 11
-318.268439636959
 21
40.1425536449313
 31
0.0
  0
LINE
  5
   2F2
  8
0
  6
CONTINUOUS
 62
     7
 10
-349.393445773971
 20
40.6425576215574
 30
0.0
 11
-369.768432037367
 21
40.6425576215574
 31
0.0
  0
LINE
  5
   2F3
  8
0
  6
CONTINUOUS
 62
     7
 10
-317.768439636959
 20
40.6425536449313
 30
0.0
 11
-318.268439636959
 21
40.6425536449313
 31
0.0
  0
LINE
  5
   2F4
  8
0
  6
CONTINUOUS
 62
     7
 10
-369.768432037367
 20
40.1425480038423
 30
0.0
 11
-369.768432037367
 21
40.6425480038423
 31
0.0
  0
LINE
  5
   2F5
  8
0
  6
CONTINUOUS
 62
     7
 10
-318.268439636959
 20
40.1425480038423
 30
0.0
 11
-318.268439636959
 21
40.6425480038423
 31
0.0
  0
LINE
  5
   2F6
  8
0
  6
CONTINUOUS
 62
     7
 10
-317.768432007565
 20
33.6425480038423
 30
0.0
 11
-318.268439636959
 21
33.6425480038423
 31
0.0
  0
LINE
  5
   2F7
  8
0
  6
CONTINUOUS
 62
     7
 10
-317.768439636959
 20
34.1425480038423
 30
0.0
 11
-318.268439636959
 21
34.1425480038423
 31
0.0
  0
LINE
  5
   2F8
  8
0
  6
CONTINUOUS
 62
     7
 10
-369.768432037367
 20
33.6425480038423
 30
0.0
 11
-369.768432037367
 21
34.1425480038423
 31
0.0
  0
LINE
  5
   2F9
  8
0
  6
CONTINUOUS
 62
     7
 10
-318.268439636959
 20
33.6425480038423
 30
0.0
 11
-318.268439636959
 21
34.1425480038423
 31
0.0
  0
LINE
  5
   2FA
  8
0
  6
CONTINUOUS
 62
     7
 10
-317.768439636959
 20
56.8925480038423
 30
0.0
 11
-318.268439636959
 21
56.8925480038423
 31
0.0
  0
LINE
  5
   2FB
  8
0
  6
CONTINUOUS
 62
     7
 10
-317.768439636959
 20
57.3925480038423
 30
0.0
 11
-318.268439636959
 21
57.3925480038423
 31
0.0
  0
LINE
  5
   2FC
  8
0
  6
CONTINUOUS
 62
     7
 10
-369.768432037367
 20
56.8925480038423
 30
0.0
 11
-369.768432037367
 21
57.3925480038423
 31
0.0
  0
LINE
  5
   2FD
  8
0
  6
CONTINUOUS
 62
     7
 10
-318.268439636959
 20
56.8925480038423
 30
0.0
 11
-318.268439636959
 21
57.3925480038423
 31
0.0
  0
LINE
  5
   2FE
  8
0
  6
CONTINUOUS
 62
     7
 10
-349.393435971273
 20
50.3925480038423
 30
0.0
 11
-369.768432037367
 21
50.3925480038423
 31
0.0
  0
LINE
  5
   2FF
  8
0
  6
CONTINUOUS
 62
     7
 10
-317.768439636959
 20
50.3925480038423
 30
0.0
 11
-318.268439636959
 21
50.3925480038423
 31
0.0
  0
LINE
  5
   300
  8
0
  6
CONTINUOUS
 62
     7
 10
-349.393432007565
 20
50.8925480038423
 30
0.0
 11
-369.768432037367
 21
50.8925480038423
 31
0.0
  0
LINE
  5
   301
  8
0
  6
CONTINUOUS
 62
     7
 10
-317.768439636959
 20
50.8925480038423
 30
0.0
 11
-318.268439636959
 21
50.8925480038423
 31
0.0
  0
LINE
  5
   302
  8
0
  6
CONTINUOUS
 62
     7
 10
-369.768432037367
 20
50.3925480038423
 30
0.0
 11
-369.768432037367
 21
50.8925480038423
 31
0.0
  0
LINE
  5
   303
  8
0
  6
CONTINUOUS
 62
     7
 10
-318.268439636959
 20
50.3925480038423
 30
0.0
 11
-318.268439636959
 21
50.8925480038423
 31
0.0
  0
ARC
  5
   304
  8
0
  6
CONTINUOUS
 62
     7
 10
-370.018432007565
 20
24.6425556332369
 30
0.0
 40
0.25
 50
179.999999948034
 51
269.999999948034
  0
ARC
  5
   305
  8
0
  6
CONTINUOUS
 62
     7
 10
-318.018432007565
 20
24.6425556332369
 30
0.0
 40
0.25
 50
269.999999948034
 51
359.999999948034
  0
ARC
  5
   306
  8
0
  6
CONTINUOUS
 62
     7
 10
-318.018432007565
 20
76.6425556332369
 30
0.0
 40
0.25
 50
359.999999948034
 51
449.999999948034
  0
ARC
  5
   307
  8
0
  6
CONTINUOUS
 62
     7
 10
-370.018432007551
 20
76.6425556332368
 30
0.0
 40
0.25
 50
449.999999948034
 51
539.999999948034
  0
LINE
  5
   308
  8
0
  6
CONTINUOUS
 62
     7
 10
-355.268432007565
 20
56.1425480038423
 30
0.0
 11
-356.018432007565
 21
56.1425480038423
 31
0.0
  0
LINE
  5
   309
  8
0
  6
CONTINUOUS
 62
     7
 10
-355.268432007565
 20
51.6425480038423
 30
0.0
 11
-356.018432007565
 21
51.6425480038423
 31
0.0
  0
CIRCLE
  5
   30A
  8
0
  6
CONTINUOUS
 62
     7
 10
-355.643432007565
 20
37.1425480038423
 30
0.0
 40
2.25
  0
CIRCLE
  5
   30B
  8
0
  6
CONTINUOUS
 62
     7
 10
-355.643432007565
 20
37.1425480038423
 30
0.0
 40
1.5
  0
LINE
  5
   30C
  8
0
  6
CONTINUOUS
 62
     7
 10
-356.018432007565
 20
51.6425480038423
 30
0.0
 11
-356.018432007565
 21
56.1425480038423
 31
0.0
  0
LINE
  5
   30D
  8
0
  6
CONTINUOUS
 62
     7
 10
-355.268432007565
 20
51.6425480038423
 30
0.0
 11
-355.268432007565
 21
56.1425480038423
 31
0.0
  0
LINE
  5
   30E
  8
0
  6
CONTINUOUS
 62
     7
 10
-350.768432007565
 20
34.1425480038423
 30
0.0
 11
-350.768432007565
 21
40.1425551484251
 31
0.0
  0
LINE
  5
   30F
  8
0
  6
CONTINUOUS
 62
     7
 10
-337.268432007565
 20
34.1425480038423
 30
0.0
 11
-337.268432007565
 21
40.1425511718019
 31
0.0
  0
LINE
  5
   310
  8
0
  6
CONTINUOUS
 62
     7
 10
-337.268432007565
 20
50.8925480038423
 30
0.0
 11
-337.268432007565
 21
56.8925480038423
 31
0.0
  0
LINE
  5
   311
  8
0
  6
CONTINUOUS
 62
     7
 10
-350.768432007565
 20
50.8925480038423
 30
0.0
 11
-350.768432007565
 21
56.8925480038423
 31
0.0
  0
LINE
  5
   312
  8
0
  6
CONTINUOUS
 62
     7
 10
-331.243436890377
 20
39.0675480038423
 30
0.0
 11
-331.468436890377
 21
39.0675480038423
 31
0.0
  0
LINE
  5
   313
  8
0
  6
CONTINUOUS
 62
     7
 10
-331.718436890377
 20
35.2175480038423
 30
0.0
 11
-332.118436890377
 21
35.2175480038423
 31
0.0
  0
LINE
  5
   314
  8
0
  6
CONTINUOUS
 62
     7
 10
-335.318436890377
 20
36.5175480038424
 30
0.0
 11
-335.318436890377
 21
36.7675480038424
 31
0.0
  0
LINE
  5
   315
  8
0
  6
CONTINUOUS
 62
     7
 10
-332.718436890377
 20
36.5175480038424
 30
0.0
 11
-332.718436890377
 21
36.7675480038424
 31
0.0
  0
ARC
  5
   316
  8
0
  6
CONTINUOUS
 62
     7
 10
-334.018436890377
 20
36.7675480038423
 30
0.0
 40
1.3
 50
359.999999948034
 51
539.999999948034
  0
ARC
  5
   317
  8
0
  6
CONTINUOUS
 62
     7
 10
-334.018436890377
 20
36.5175480038423
 30
0.0
 40
1.3
 50
179.999999948034
 51
359.999999948034
  0
ARC
  5
   318
  8
0
  6
CONTINUOUS
 62
     7
 10
-334.018436890377
 20
36.7675480038423
 30
0.0
 40
0.900000000000001
 50
359.999999948034
 51
539.999999948034
  0
ARC
  5
   319
  8
0
  6
CONTINUOUS
 62
     7
 10
-334.018436890377
 20
36.5175480038423
 30
0.0
 40
0.899999999999999
 50
179.999999948034
 51
359.999999948034
  0
LINE
  5
   31A
  8
0
  6
CONTINUOUS
 62
     7
 10
-334.918436890377
 20
36.5175480038424
 30
0.0
 11
-334.918436890377
 21
36.7675480038424
 31
0.0
  0
LINE
  5
   31B
  8
0
  6
CONTINUOUS
 62
     7
 10
-333.118436890377
 20
36.5175480038424
 30
0.0
 11
-333.118436890377
 21
36.7675480038424
 31
0.0
  0
LINE
  5
   31C
  8
0
  6
CONTINUOUS
 62
     7
 10
-332.593436890377
 20
37.4675480038424
 30
0.0
 11
-332.593436890377
 21
37.8675480038424
 31
0.0
  0
LINE
  5
   31D
  8
0
  6
CONTINUOUS
 62
     7
 10
-332.118436890377
 20
37.4675480038423
 30
0.0
 11
-332.593436890377
 21
37.4675480038423
 31
0.0
  0
LINE
  5
   31E
  8
0
  6
CONTINUOUS
 62
     7
 10
-331.243436890377
 20
37.4675480038424
 30
0.0
 11
-331.243436890377
 21
37.8675480038424
 31
0.0
  0
LINE
  5
   31F
  8
0
  6
CONTINUOUS
 62
     7
 10
-332.118436890377
 20
37.8675480038423
 30
0.0
 11
-332.593436890377
 21
37.8675480038423
 31
0.0
  0
LINE
  5
   320
  8
0
  6
CONTINUOUS
 62
     7
 10
-332.118436890377
 20
35.2175480038424
 30
0.0
 11
-332.118436890377
 21
37.4675480038424
 31
0.0
  0
LINE
  5
   321
  8
0
  6
CONTINUOUS
 62
     7
 10
-331.718436890377
 20
35.2175480038424
 30
0.0
 11
-331.718436890377
 21
37.4675480038424
 31
0.0
  0
LINE
  5
   322
  8
0
  6
CONTINUOUS
 62
     7
 10
-331.243436890377
 20
37.4675480038423
 30
0.0
 11
-331.718436890377
 21
37.4675480038423
 31
0.0
  0
LINE
  5
   323
  8
0
  6
CONTINUOUS
 62
     7
 10
-331.243436890377
 20
37.8675480038423
 30
0.0
 11
-331.718436890377
 21
37.8675480038423
 31
0.0
  0
LINE
  5
   324
  8
0
  6
CONTINUOUS
 62
     7
 10
-332.118436890377
 20
37.8675480038423
 30
0.0
 11
-332.118436890377
 21
38.4175480038424
 31
0.0
  0
LINE
  5
   325
  8
0
  6
CONTINUOUS
 62
     7
 10
-331.718436890377
 20
37.8675480038423
 30
0.0
 11
-331.718436890377
 21
38.4175480038424
 31
0.0
  0
ARC
  5
   326
  8
0
  6
CONTINUOUS
 62
     7
 10
-331.468436890377
 20
38.4175480038423
 30
0.0
 40
0.65
 50
449.999999948034
 51
539.999999948034
  0
ARC
  5
   327
  8
0
  6
CONTINUOUS
 62
     7
 10
-331.468436890377
 20
38.4175480038423
 30
0.0
 40
0.25
 50
449.999999948034
 51
539.999999948034
  0
LINE
  5
   328
  8
0
  6
CONTINUOUS
 62
     7
 10
-331.243436890377
 20
38.6675480038424
 30
0.0
 11
-331.243436890377
 21
39.0675480038424
 31
0.0
  0
LINE
  5
   329
  8
0
  6
CONTINUOUS
 62
     7
 10
-331.243436890377
 20
38.6675480038423
 30
0.0
 11
-331.468436890377
 21
38.6675480038423
 31
0.0
  0
LINE
  5
   32A
  8
0
  6
CONTINUOUS
 62
     7
 10
-329.643436890377
 20
39.0675480038423
 30
0.0
 11
-329.868436890377
 21
39.0675480038423
 31
0.0
  0
LINE
  5
   32B
  8
0
  6
CONTINUOUS
 62
     7
 10
-330.118436890377
 20
35.2175480038423
 30
0.0
 11
-330.518436890377
 21
35.2175480038423
 31
0.0
  0
LINE
  5
   32C
  8
0
  6
CONTINUOUS
 62
     7
 10
-330.993436890377
 20
37.4675480038424
 30
0.0
 11
-330.993436890377
 21
37.8675480038423
 31
0.0
  0
LINE
  5
   32D
  8
0
  6
CONTINUOUS
 62
     7
 10
-330.518436890377
 20
37.4675480038423
 30
0.0
 11
-330.993436890377
 21
37.4675480038423
 31
0.0
  0
LINE
  5
   32E
  8
0
  6
CONTINUOUS
 62
     7
 10
-329.643436890377
 20
37.4675480038424
 30
0.0
 11
-329.643436890377
 21
37.8675480038423
 31
0.0
  0
LINE
  5
   32F
  8
0
  6
CONTINUOUS
 62
     7
 10
-330.518436890377
 20
37.8675480038423
 30
0.0
 11
-330.993436890377
 21
37.8675480038423
 31
0.0
  0
LINE
  5
   330
  8
0
  6
CONTINUOUS
 62
     7
 10
-330.518436890377
 20
35.2175480038424
 30
0.0
 11
-330.518436890377
 21
37.4675480038424
 31
0.0
  0
LINE
  5
   331
  8
0
  6
CONTINUOUS
 62
     7
 10
-330.118436890377
 20
35.2175480038424
 30
0.0
 11
-330.118436890377
 21
37.4675480038424
 31
0.0
  0
LINE
  5
   332
  8
0
  6
CONTINUOUS
 62
     7
 10
-329.643436890377
 20
37.4675480038423
 30
0.0
 11
-330.118436890377
 21
37.4675480038423
 31
0.0
  0
LINE
  5
   333
  8
0
  6
CONTINUOUS
 62
     7
 10
-329.643436890377
 20
37.8675480038423
 30
0.0
 11
-330.118436890377
 21
37.8675480038423
 31
0.0
  0
LINE
  5
   334
  8
0
  6
CONTINUOUS
 62
     7
 10
-330.518436890377
 20
37.8675480038424
 30
0.0
 11
-330.518436890377
 21
38.4175480038424
 31
0.0
  0
LINE
  5
   335
  8
0
  6
CONTINUOUS
 62
     7
 10
-330.118436890377
 20
37.8675480038423
 30
0.0
 11
-330.118436890377
 21
38.4175480038424
 31
0.0
  0
ARC
  5
   336
  8
0
  6
CONTINUOUS
 62
     7
 10
-329.868436890377
 20
38.4175480038423
 30
0.0
 40
0.65
 50
449.999999948034
 51
539.999999948034
  0
ARC
  5
   337
  8
0
  6
CONTINUOUS
 62
     7
 10
-329.868436890377
 20
38.4175480038423
 30
0.0
 40
0.25
 50
449.999999948034
 51
539.999999948034
  0
LINE
  5
   338
  8
0
  6
CONTINUOUS
 62
     7
 10
-329.643436890377
 20
38.6675480038424
 30
0.0
 11
-329.643436890377
 21
39.0675480038423
 31
0.0
  0
LINE
  5
   339
  8
0
  6
CONTINUOUS
 62
     7
 10
-329.643436890377
 20
38.6675480038423
 30
0.0
 11
-329.868436890377
 21
38.6675480038423
 31
0.0
  0
LINE
  5
   33A
  8
0
  6
CONTINUOUS
 62
     7
 10
-331.918436890377
 20
52.4675480038423
 30
0.0
 11
-332.318436890377
 21
52.4675480038423
 31
0.0
  0
ARC
  5
   33B
  8
0
  6
CONTINUOUS
 62
     7
 10
-334.018436890377
 20
54.0175480038423
 30
0.0
 40
1.3
 50
359.999999948034
 51
539.999999948034
  0
ARC
  5
   33C
  8
0
  6
CONTINUOUS
 62
     7
 10
-334.018436890377
 20
54.0175480038423
 30
0.0
 40
0.900000000000001
 50
359.999999948034
 51
539.999999948034
  0
ARC
  5
   33D
  8
0
  6
CONTINUOUS
 62
     7
 10
-334.018436890377
 20
53.7675480038423
 30
0.0
 40
1.3
 50
179.999999948034
 51
359.999999948034
  0
ARC
  5
   33E
  8
0
  6
CONTINUOUS
 62
     7
 10
-334.018436890377
 20
53.7675480038423
 30
0.0
 40
0.899999999999999
 50
179.999999948034
 51
359.999999948034
  0
LINE
  5
   33F
  8
0
  6
CONTINUOUS
 62
     7
 10
-333.118436890377
 20
53.7675480038423
 30
0.0
 11
-333.118436890377
 21
54.0175480038423
 31
0.0
  0
LINE
  5
   340
  8
0
  6
CONTINUOUS
 62
     7
 10
-332.718436890377
 20
53.7675480038423
 30
0.0
 11
-332.718436890377
 21
54.0175480038423
 31
0.0
  0
LINE
  5
   341
  8
0
  6
CONTINUOUS
 62
     7
 10
-334.918436890377
 20
53.7675480038423
 30
0.0
 11
-334.918436890377
 21
54.0175480038423
 31
0.0
  0
LINE
  5
   342
  8
0
  6
CONTINUOUS
 62
     7
 10
-335.318436890377
 20
53.7675480038423
 30
0.0
 11
-335.318436890377
 21
54.0175480038423
 31
0.0
  0
LINE
  5
   343
  8
0
  6
CONTINUOUS
 62
     7
 10
-332.318436890377
 20
52.4675480038423
 30
0.0
 11
-332.318436890377
 21
55.3175480038423
 31
0.0
  0
LINE
  5
   344
  8
0
  6
CONTINUOUS
 62
     7
 10
-331.918436890377
 20
52.4675480038423
 30
0.0
 11
-331.918436890377
 21
54.2175480038423
 31
0.0
  0
LINE
  5
   345
  8
0
  6
CONTINUOUS
 62
     7
 10
-330.518436890377
 20
52.4675480038423
 30
0.0
 11
-330.518436890377
 21
54.2175480038423
 31
0.0
  0
LINE
  5
   346
  8
0
  6
CONTINUOUS
 62
     7
 10
-330.118436890377
 20
52.4675480038423
 30
0.0
 11
-330.118436890377
 21
54.3175480038424
 31
0.0
  0
LINE
  5
   347
  8
0
  6
CONTINUOUS
 62
     7
 10
-331.918436890377
 20
55.3175480038423
 30
0.0
 11
-332.318436890377
 21
55.3175480038423
 31
0.0
  0
ARC
  5
   348
  8
0
  6
CONTINUOUS
 62
     7
 10
-331.218436890377
 20
54.2175480038423
 30
0.0
 40
0.699999999999999
 50
359.999999948034
 51
539.999999948034
  0
LINE
  5
   349
  8
0
  6
CONTINUOUS
 62
     7
 10
-331.918436890377
 20
54.9175480038424
 30
0.0
 11
-331.918436890377
 21
55.3175480038423
 31
0.0
  0
ARC
  5
   34A
  8
0
  6
CONTINUOUS
 62
     7
 10
-331.118436890377
 20
54.3175480038423
 30
0.0
 40
1.0
 50
359.999999948034
 51
503.13010230219
  0
LINE
  5
   34B
  8
0
  6
CONTINUOUS
 62
     7
 10
-330.118436890377
 20
52.4675480038423
 30
0.0
 11
-330.518436890377
 21
52.4675480038423
 31
0.0
  0
LINE
  5
   34C
  8
0
  6
CONTINUOUS
 62
     7
 10
-369.768432037367
 20
57.3925480038423
 30
0.0
 11
-370.268432007551
 21
57.3925480038423
 31
0.0
  0
LINE
  5
   34D
  8
0
  6
CONTINUOUS
 62
     7
 10
-369.768432037367
 20
56.8925480038423
 30
0.0
 11
-370.268432007562
 21
56.8925480038423
 31
0.0
  0
LINE
  5
   34E
  8
0
  6
CONTINUOUS
 62
     7
 10
-369.768432037367
 20
50.8925480038423
 30
0.0
 11
-370.268432007562
 21
50.8925480038423
 31
0.0
  0
LINE
  5
   34F
  8
0
  6
CONTINUOUS
 62
     7
 10
-369.768432037367
 20
50.3925480038423
 30
0.0
 11
-370.268432007576
 21
50.3925480038423
 31
0.0
  0
LINE
  5
   350
  8
0
  6
CONTINUOUS
 62
     7
 10
-369.768432037367
 20
40.6425576215574
 30
0.0
 11
-370.268432007576
 21
40.6425576215574
 31
0.0
  0
LINE
  5
   351
  8
0
  6
CONTINUOUS
 62
     7
 10
-369.768432037367
 20
40.1425576215544
 30
0.0
 11
-370.268432007567
 21
40.1425576215544
 31
0.0
  0
LINE
  5
   352
  8
0
  6
CONTINUOUS
 62
     7
 10
-369.768432037367
 20
34.1425480038423
 30
0.0
 11
-370.268432007567
 21
34.1425480038423
 31
0.0
  0
LINE
  5
   353
  8
0
  6
CONTINUOUS
 62
     7
 10
-369.768432037367
 20
33.6425480038423
 30
0.0
 11
-370.268432007565
 21
33.6425480038423
 31
0.0
  0
LINE
  5
   354
  8
0
  6
CONTINUOUS
 62
     7
 10
-318.268439636959
 20
57.3925480038423
 30
0.0
 11
-369.768432037367
 21
57.3925480038423
 31
0.0
  0
LINE
  5
   355
  8
0
  6
CONTINUOUS
 62
     7
 10
-318.268439636959
 20
56.8925480038423
 30
0.0
 11
-369.768432037367
 21
56.8925480038423
 31
0.0
  0
LINE
  5
   356
  8
0
  6
CONTINUOUS
 62
     7
 10
-318.268439636959
 20
50.8925480038423
 30
0.0
 11
-338.643432007565
 21
50.8925480038423
 31
0.0
  0
LINE
  5
   357
  8
0
  6
CONTINUOUS
 62
     7
 10
-318.268439636959
 20
50.3925480038423
 30
0.0
 11
-338.643432007565
 21
50.3925480038423
 31
0.0
  0
LINE
  5
   358
  8
0
  6
CONTINUOUS
 62
     7
 10
-318.268439636959
 20
40.6425536449313
 30
0.0
 11
-338.643433499944
 21
40.6425536449313
 31
0.0
  0
LINE
  5
   359
  8
0
  6
CONTINUOUS
 62
     7
 10
-318.268439636959
 20
40.1425536449313
 30
0.0
 11
-338.643433683138
 21
40.1425536449313
 31
0.0
  0
LINE
  5
   35A
  8
0
  6
CONTINUOUS
 62
     7
 10
-318.268439636959
 20
34.1425480038423
 30
0.0
 11
-369.768432037367
 21
34.1425480038423
 31
0.0
  0
LINE
  5
   35B
  8
0
  6
CONTINUOUS
 62
     7
 10
-318.268439636959
 20
33.6425480038423
 30
0.0
 11
-369.768432037367
 21
33.6425480038423
 31
0.0
  0
LINE
  5
   35C
  8
0
  6
CONTINUOUS
 62
     7
 10
-338.643432007565
 20
42.580208358552
 30
0.0
 11
-349.393432007565
 21
42.580208358552
 31
0.0
  0
LINE
  5
   35D
  8
0
  6
CONTINUOUS
 62
     7
 10
-338.643432007565
 20
39.5219756057435
 30
0.0
 11
-349.393432007565
 21
39.5219756057435
 31
0.0
  0
LINE
  5
   35E
  8
0
  6
CONTINUOUS
 62
     7
 10
-338.643432007565
 20
36.5480662926377
 30
0.0
 11
-349.393432007565
 21
36.5480662926377
 31
0.0
  0
LINE
  5
   35F
  8
0
  6
CONTINUOUS
 62
     7
 10
-338.643432007565
 20
36.1466927287786
 30
0.0
 11
-349.393432007565
 21
36.1466927287786
 31
0.0
  0
LINE
  5
   360
  8
0
  6
CONTINUOUS
 62
     3
 10
-349.01839848924
 20
4.26754705017001
 30
0.0
 11
-349.01839848924
 21
8.01755181854159
 31
0.0
  0
LINE
  5
   361
  8
0
  6
CONTINUOUS
 62
     3
 10
-348.39339848924
 20
4.26754705017001
 30
0.0
 11
-349.01839848924
 21
4.26754705017001
 31
0.0
  0
LINE
  5
   362
  8
0
  6
CONTINUOUS
 62
     3
 10
-348.39339848924
 20
-5.73244818145841
 30
0.0
 11
-348.39339848924
 21
4.26754418914706
 31
0.0
  0
LINE
  5
   363
  8
0
  6
CONTINUOUS
 62
     3
 10
-339.64339848924
 20
-5.73244818145841
 30
0.0
 11
-348.39339848924
 21
-5.73244818145841
 31
0.0
  0
LINE
  5
   364
  8
0
  6
CONTINUOUS
 62
     3
 10
-339.64339848924
 20
-5.73244818145841
 30
0.0
 11
-339.64339848924
 21
4.26754418914706
 31
0.0
  0
LINE
  5
   365
  8
0
  6
CONTINUOUS
 62
     3
 10
-339.01839848924
 20
4.26754705017001
 30
0.0
 11
-339.64339848924
 21
4.26754705017001
 31
0.0
  0
LINE
  5
   366
  8
0
  6
CONTINUOUS
 62
     3
 10
-339.01839848924
 20
4.26754705017001
 30
0.0
 11
-339.01839848924
 21
8.01755181854159
 31
0.0
  0
CIRCLE
  5
   367
  8
0
  6
CONTINUOUS
 62
     3
 10
-344.018432007565
 20
-0.732437486297346
 30
0.0
 40
2.05002850587885
  0
LINE
  5
   368
  8
0
  6
DASHDOT
 62
     7
 10
-340.968403501686
 20
-0.732437486297346
 30
0.0
 11
-347.068460513443
 21
-0.732437486297346
 31
0.0
  0
LINE
  5
   369
  8
0
  6
CONTINUOUS
 62
     7
 10
-366.51839848924
 20
4.26754705017001
 30
0.0
 11
-366.51839848924
 21
8.01755181854159
 31
0.0
  0
LINE
  5
   36A
  8
0
  6
CONTINUOUS
 62
     7
 10
-356.51839848924
 20
4.26754705017001
 30
0.0
 11
-356.51839848924
 21
8.01755181854159
 31
0.0
  0
CIRCLE
  5
   36B
  8
0
  6
CONTINUOUS
 62
     7
 10
-361.518432007565
 20
-0.732437486297346
 30
0.0
 40
2.05002850587885
  0
LINE
  5
   36C
  8
0
  6
CONTINUOUS
 62
     7
 10
-365.89339848924
 20
-5.73244818145841
 30
0.0
 11
-365.89339848924
 21
4.26754418914706
 31
0.0
  0
LINE
  5
   36D
  8
0
  6
CONTINUOUS
 62
     7
 10
-357.14339848924
 20
-5.73244818145841
 30
0.0
 11
-357.14339848924
 21
4.26754418914706
 31
0.0
  0
LINE
  5
   36E
  8
0
  6
CONTINUOUS
 62
     7
 10
-357.14339848924
 20
-5.73244818145841
 30
0.0
 11
-365.89339848924
 21
-5.73244818145841
 31
0.0
  0
LINE
  5
   36F
  8
0
  6
CONTINUOUS
 62
     7
 10
-365.89339848924
 20
4.26754705017001
 30
0.0
 11
-366.51839848924
 21
4.26754705017001
 31
0.0
  0
LINE
  5
   370
  8
0
  6
CONTINUOUS
 62
     7
 10
-356.51839848924
 20
4.26754705017001
 30
0.0
 11
-357.14339848924
 21
4.26754705017001
 31
0.0
  0
LINE
  5
   371
  8
0
  6
DASHDOT
 62
     7
 10
-358.468403501686
 20
-0.732437486297346
 30
0.0
 11
-364.568460513443
 21
-0.732437486297346
 31
0.0
  0
LINE
  5
   372
  8
0
  6
CONTINUOUS
 62
     7
 10
-331.518465525889
 20
4.26754705017001
 30
0.0
 11
-331.518465525889
 21
8.01755181854159
 31
0.0
  0
LINE
  5
   373
  8
0
  6
CONTINUOUS
 62
     7
 10
-321.518465525889
 20
4.26754705017001
 30
0.0
 11
-321.518465525889
 21
8.01755181854159
 31
0.0
  0
LINE
  5
   374
  8
0
  6
CONTINUOUS
 62
     7
 10
-322.143465525889
 20
-5.73244818145841
 30
0.0
 11
-322.143465525889
 21
4.26754418914706
 31
0.0
  0
LINE
  5
   375
  8
0
  6
CONTINUOUS
 62
     7
 10
-330.893465525889
 20
-5.73244818145841
 30
0.0
 11
-330.893465525889
 21
4.26754418914706
 31
0.0
  0
LINE
  5
   376
  8
0
  6
CONTINUOUS
 62
     7
 10
-322.143465525889
 20
-5.73244818145841
 30
0.0
 11
-330.893465525889
 21
-5.73244818145841
 31
0.0
  0
LINE
  5
   377
  8
0
  6
DASHDOT
 62
     7
 10
-323.468403501686
 20
-0.732437486297346
 30
0.0
 11
-329.568460513443
 21
-0.732437486297346
 31
0.0
  0
CIRCLE
  5
   378
  8
0
  6
CONTINUOUS
 62
     7
 10
-326.518432007565
 20
-0.732437486297346
 30
0.0
 40
2.05002850587885
  0
LINE
  5
   379
  8
0
  6
CONTINUOUS
 62
     7
 10
-330.893465525889
 20
4.26754705017001
 30
0.0
 11
-331.518465525889
 21
4.26754705017001
 31
0.0
  0
LINE
  5
   37A
  8
0
  6
CONTINUOUS
 62
     7
 10
-321.518465525889
 20
4.26754705017001
 30
0.0
 11
-322.143465525889
 21
4.26754705017001
 31
0.0
  0
LINE
  5
   37B
  8
0
  6
CONTINUOUS
 62
     3
 10
-349.01839848924
 20
95.5175518185415
 30
0.0
 11
-349.01839848924
 21
99.267556586913
 31
0.0
  0
LINE
  5
   37C
  8
0
  6
CONTINUOUS
 62
     3
 10
-339.01839848924
 20
95.5175518185415
 30
0.0
 11
-339.01839848924
 21
99.267556586913
 31
0.0
  0
LINE
  5
   37D
  8
0
  6
CONTINUOUS
 62
     3
 10
-339.64339848924
 20
99.267559447936
 30
0.0
 11
-339.64339848924
 21
109.267551818541
 31
0.0
  0
LINE
  5
   37E
  8
0
  6
CONTINUOUS
 62
     3
 10
-348.39339848924
 20
99.267559447936
 30
0.0
 11
-348.39339848924
 21
109.267551818541
 31
0.0
  0
LINE
  5
   37F
  8
0
  6
CONTINUOUS
 62
     3
 10
-339.64339848924
 20
109.267551818541
 30
0.0
 11
-348.39339848924
 21
109.267551818541
 31
0.0
  0
CIRCLE
  5
   380
  8
0
  6
CONTINUOUS
 62
     3
 10
-344.018432007565
 20
104.26754112338
 30
0.0
 40
2.05002850587885
  0
LINE
  5
   381
  8
0
  6
CONTINUOUS
 62
     3
 10
-348.39339848924
 20
99.267556586913
 30
0.0
 11
-349.01839848924
 21
99.267556586913
 31
0.0
  0
LINE
  5
   382
  8
0
  6
CONTINUOUS
 62
     3
 10
-339.01839848924
 20
99.267556586913
 30
0.0
 11
-339.64339848924
 21
99.267556586913
 31
0.0
  0
LINE
  5
   383
  8
0
  6
CONTINUOUS
 62
     3
 10
-331.518465525889
 20
95.5175518185415
 30
0.0
 11
-331.518465525889
 21
99.267556586913
 31
0.0
  0
LINE
  5
   384
  8
0
  6
CONTINUOUS
 62
     3
 10
-321.518465525889
 20
95.5175518185415
 30
0.0
 11
-321.518465525889
 21
99.267556586913
 31
0.0
  0
LINE
  5
   385
  8
0
  6
CONTINUOUS
 62
     3
 10
-322.143465525889
 20
99.267559447936
 30
0.0
 11
-322.143465525889
 21
109.267551818541
 31
0.0
  0
LINE
  5
   386
  8
0
  6
CONTINUOUS
 62
     3
 10
-330.893465525889
 20
99.267559447936
 30
0.0
 11
-330.893465525889
 21
109.267551818541
 31
0.0
  0
CIRCLE
  5
   387
  8
0
  6
CONTINUOUS
 62
     3
 10
-326.518432007565
 20
104.26754112338
 30
0.0
 40
2.05002850587885
  0
LINE
  5
   388
  8
0
  6
CONTINUOUS
 62
     3
 10
-322.143465525889
 20
109.267551818541
 30
0.0
 11
-330.893465525889
 21
109.267551818541
 31
0.0
  0
LINE
  5
   389
  8
0
  6
CONTINUOUS
 62
     3
 10
-330.893465525889
 20
99.267556586913
 30
0.0
 11
-331.518465525889
 21
99.267556586913
 31
0.0
  0
LINE
  5
   38A
  8
0
  6
CONTINUOUS
 62
     3
 10
-321.518465525889
 20
99.267556586913
 30
0.0
 11
-322.143465525889
 21
99.267556586913
 31
0.0
  0
LINE
  5
   38B
  8
0
  6
CONTINUOUS
 62
     3
 10
-356.51839848924
 20
95.5175518185415
 30
0.0
 11
-356.51839848924
 21
99.267556586913
 31
0.0
  0
LINE
  5
   38C
  8
0
  6
CONTINUOUS
 62
     3
 10
-366.51839848924
 20
95.5175518185415
 30
0.0
 11
-366.51839848924
 21
99.267556586913
 31
0.0
  0
LINE
  5
   38D
  8
0
  6
CONTINUOUS
 62
     3
 10
-357.14339848924
 20
109.267551818541
 30
0.0
 11
-365.89339848924
 21
109.267551818541
 31
0.0
  0
CIRCLE
  5
   38E
  8
0
  6
CONTINUOUS
 62
     3
 10
-361.518432007565
 20
104.26754112338
 30
0.0
 40
2.05002850587885
  0
LINE
  5
   38F
  8
0
  6
CONTINUOUS
 62
     3
 10
-365.89339848924
 20
99.267559447936
 30
0.0
 11
-365.89339848924
 21
109.267551818541
 31
0.0
  0
LINE
  5
   390
  8
0
  6
CONTINUOUS
 62
     3
 10
-357.14339848924
 20
99.267559447936
 30
0.0
 11
-357.14339848924
 21
109.267551818541
 31
0.0
  0
LINE
  5
   391
  8
0
  6
CONTINUOUS
 62
     3
 10
-356.51839848924
 20
99.267556586913
 30
0.0
 11
-357.14339848924
 21
99.267556586913
 31
0.0
  0
LINE
  5
   392
  8
0
  6
CONTINUOUS
 62
     3
 10
-365.89339848924
 20
99.267556586913
 30
0.0
 11
-366.51839848924
 21
99.267556586913
 31
0.0
  0
LINE
  5
   393
  8
0
  6
DASHDOT
 62
     7
 10
-361.518432007565
 20
101.217512617502
 30
0.0
 11
-361.518432007565
 21
107.317569629259
 31
0.0
  0
LINE
  5
   394
  8
0
  6
DASHDOT
 62
     7
 10
-358.468403501686
 20
104.26754112338
 30
0.0
 11
-364.568460513443
 21
104.26754112338
 31
0.0
  0
LINE
  5
   395
  8
0
  6
DASHDOT
 62
     7
 10
-344.018432007565
 20
101.217512617502
 30
0.0
 11
-344.018432007565
 21
107.317569629259
 31
0.0
  0
LINE
  5
   396
  8
0
  6
DASHDOT
 62
     7
 10
-340.968403501686
 20
104.26754112338
 30
0.0
 11
-347.068460513443
 21
104.26754112338
 31
0.0
  0
LINE
  5
   397
  8
0
  6
DASHDOT
 62
     7
 10
-326.518432007565
 20
101.217512617502
 30
0.0
 11
-326.518432007565
 21
107.317569629259
 31
0.0
  0
LINE
  5
   398
  8
0
  6
DASHDOT
 62
     7
 10
-323.468403501686
 20
104.26754112338
 30
0.0
 11
-329.568460513443
 21
104.26754112338
 31
0.0
  0
LINE
  5
   399
  8
0
  6
DASHDOT
 62
     7
 10
-324.468403501686
 20
-0.732437486297346
 30
0.0
 11
-324.468403501686
 21
1.30383054454035
 31
0.0
  0
LINE
  5
   39A
  8
0
  6
DASHDOT
 62
     7
 10
-328.568460513443
 20
-0.732437486297332
 30
0.0
 11
-328.568460513443
 21
1.05035854948552
 31
0.0
  0
LINE
  5
   39B
  8
0
  6
CONTINUOUS
 62
     3
 10
-318.393431534541
 20
95.5175518185415
 30
0.0
 11
-369.643423905146
 21
95.5175518185415
 31
0.0
  0
LINE
  5
   39C
  8
0
  6
CONTINUOUS
 62
     3
 10
-317.768431534541
 20
90.8925556332369
 30
0.0
 11
-317.768431534541
 21
94.8925469464842
 31
0.0
  0
LINE
  5
   39D
  8
0
  6
CONTINUOUS
 62
     3
 10
-370.268426759147
 20
90.8925556332369
 30
0.0
 11
-370.268426759147
 21
94.8925625836116
 31
0.0
  0
LINE
  5
   39E
  8
0
  6
CONTINUOUS
 62
     3
 10
-368.44342600323
 20
90.8925556332369
 30
0.0
 11
-368.44342600323
 21
95.5175518185415
 31
0.0
  0
LINE
  5
   39F
  8
0
  6
CONTINUOUS
 62
     3
 10
-366.643425812495
 20
90.8925556332369
 30
0.0
 11
-366.643425812495
 21
95.5175518185415
 31
0.0
  0
LINE
  5
   3A0
  8
0
  6
CONTINUOUS
 62
     3
 10
-364.843426098597
 20
90.8925556332369
 30
0.0
 11
-364.843426098597
 21
95.5175518185415
 31
0.0
  0
LINE
  5
   3A1
  8
0
  6
CONTINUOUS
 62
     3
 10
-363.043425907862
 20
90.8925556332369
 30
0.0
 11
-363.043425907862
 21
95.5175518185415
 31
0.0
  0
LINE
  5
   3A2
  8
0
  6
CONTINUOUS
 62
     3
 10
-361.243430008662
 20
90.8925556332369
 30
0.0
 11
-361.243430008662
 21
95.5175518185415
 31
0.0
  0
LINE
  5
   3A3
  8
0
  6
CONTINUOUS
 62
     3
 10
-359.443426956904
 20
90.8925556332369
 30
0.0
 11
-359.443426956904
 21
95.5175518185415
 31
0.0
  0
LINE
  5
   3A4
  8
0
  6
CONTINUOUS
 62
     3
 10
-357.643431534541
 20
90.8925556332369
 30
0.0
 11
-357.643431534541
 21
95.5175518185415
 31
0.0
  0
LINE
  5
   3A5
  8
0
  6
CONTINUOUS
 62
     3
 10
-355.843428482783
 20
90.8925556332369
 30
0.0
 11
-355.843428482783
 21
95.5175518185415
 31
0.0
  0
LINE
  5
   3A6
  8
0
  6
CONTINUOUS
 62
     3
 10
-354.04343306042
 20
90.8925556332369
 30
0.0
 11
-354.04343306042
 21
95.5175518185415
 31
0.0
  0
LINE
  5
   3A7
  8
0
  6
CONTINUOUS
 62
     3
 10
-352.243430008662
 20
90.8925556332369
 30
0.0
 11
-352.243430008662
 21
95.5175518185415
 31
0.0
  0
LINE
  5
   3A8
  8
0
  6
CONTINUOUS
 62
     3
 10
-350.443426956904
 20
90.8925556332369
 30
0.0
 11
-350.443426956904
 21
95.5175518185415
 31
0.0
  0
LINE
  5
   3A9
  8
0
  6
CONTINUOUS
 62
     3
 10
-348.643431534541
 20
90.8925556332369
 30
0.0
 11
-348.643431534541
 21
95.5175518185415
 31
0.0
  0
LINE
  5
   3AA
  8
0
  6
CONTINUOUS
 62
     3
 10
-346.843428482783
 20
90.8925556332369
 30
0.0
 11
-346.843428482783
 21
95.5175518185415
 31
0.0
  0
LINE
  5
   3AB
  8
0
  6
CONTINUOUS
 62
     3
 10
-345.04343306042
 20
90.8925556332369
 30
0.0
 11
-345.04343306042
 21
95.5175518185415
 31
0.0
  0
LINE
  5
   3AC
  8
0
  6
CONTINUOUS
 62
     3
 10
-343.243430008662
 20
90.8925556332369
 30
0.0
 11
-343.243430008662
 21
95.5175518185415
 31
0.0
  0
LINE
  5
   3AD
  8
0
  6
CONTINUOUS
 62
     3
 10
-341.443426956904
 20
90.8925556332369
 30
0.0
 11
-341.443426956904
 21
95.5175518185415
 31
0.0
  0
LINE
  5
   3AE
  8
0
  6
CONTINUOUS
 62
     3
 10
-339.643431534541
 20
90.8925556332369
 30
0.0
 11
-339.643431534541
 21
95.5175518185415
 31
0.0
  0
LINE
  5
   3AF
  8
0
  6
CONTINUOUS
 62
     3
 10
-337.843428482783
 20
90.8925556332369
 30
0.0
 11
-337.843428482783
 21
95.5175518185415
 31
0.0
  0
LINE
  5
   3B0
  8
0
  6
CONTINUOUS
 62
     3
 10
-336.04343306042
 20
90.8925556332369
 30
0.0
 11
-336.04343306042
 21
95.5175518185415
 31
0.0
  0
LINE
  5
   3B1
  8
0
  6
CONTINUOUS
 62
     3
 10
-334.243430008662
 20
90.8925556332369
 30
0.0
 11
-334.243430008662
 21
95.5175518185415
 31
0.0
  0
LINE
  5
   3B2
  8
0
  6
CONTINUOUS
 62
     3
 10
-332.443426956904
 20
90.8925556332369
 30
0.0
 11
-332.443426956904
 21
95.5175518185415
 31
0.0
  0
LINE
  5
   3B3
  8
0
  6
CONTINUOUS
 62
     3
 10
-330.643431534541
 20
90.8925556332369
 30
0.0
 11
-330.643431534541
 21
95.5175518185415
 31
0.0
  0
LINE
  5
   3B4
  8
0
  6
CONTINUOUS
 62
     3
 10
-328.843428482783
 20
90.8925556332369
 30
0.0
 11
-328.843428482783
 21
95.5175518185415
 31
0.0
  0
LINE
  5
   3B5
  8
0
  6
CONTINUOUS
 62
     3
 10
-327.04343306042
 20
90.8925556332369
 30
0.0
 11
-327.04343306042
 21
95.5175518185415
 31
0.0
  0
LINE
  5
   3B6
  8
0
  6
CONTINUOUS
 62
     3
 10
-325.243430008662
 20
90.8925556332369
 30
0.0
 11
-325.243430008662
 21
95.5175518185415
 31
0.0
  0
LINE
  5
   3B7
  8
0
  6
CONTINUOUS
 62
     3
 10
-323.443426956904
 20
90.8925556332369
 30
0.0
 11
-323.443426956904
 21
95.5175518185415
 31
0.0
  0
LINE
  5
   3B8
  8
0
  6
CONTINUOUS
 62
     3
 10
-321.643431534541
 20
90.8925556332369
 30
0.0
 11
-321.643431534541
 21
95.5175518185415
 31
0.0
  0
LINE
  5
   3B9
  8
0
  6
CONTINUOUS
 62
     3
 10
-319.843428482783
 20
90.8925556332369
 30
0.0
 11
-319.843428482783
 21
95.5175518185415
 31
0.0
  0
ARC
  5
   3BA
  8
0
  6
CONTINUOUS
 62
     3
 10
-318.393439831568
 20
94.8925469464842
 30
0.0
 40
0.624999378846369
 50
360.000027285161
 51
450.00046185832
  0
ARC
  5
   3BB
  8
0
  6
CONTINUOUS
 62
     3
 10
-369.643440745292
 20
94.8925625836116
 30
0.0
 40
0.624983634017216
 50
449.998225807986
 51
540.001187191324
  0
LINE
  5
   3BC
  8
0
  6
CONTINUOUS
 62
     3
 10
-318.393431534541
 20
8.01755181854159
 30
0.0
 11
-369.643423905146
 21
8.01755181854159
 31
0.0
  0
LINE
  5
   3BD
  8
0
  6
CONTINUOUS
 62
     3
 10
-317.768431534541
 20
8.64255669059878
 30
0.0
 11
-317.768431534541
 21
10.3925575405855
 31
0.0
  0
LINE
  5
   3BE
  8
0
  6
CONTINUOUS
 62
     3
 10
-370.268426759147
 20
8.64254105347142
 30
0.0
 11
-370.268426759147
 21
10.3925575405855
 31
0.0
  0
LINE
  5
   3BF
  8
0
  6
CONTINUOUS
 62
     3
 10
-368.44342600323
 20
8.01755181854159
 30
0.0
 11
-368.44342600323
 21
10.3925575405855
 31
0.0
  0
LINE
  5
   3C0
  8
0
  6
CONTINUOUS
 62
     3
 10
-366.643425812495
 20
8.01755181854159
 30
0.0
 11
-366.643425812495
 21
10.3925575405855
 31
0.0
  0
LINE
  5
   3C1
  8
0
  6
CONTINUOUS
 62
     3
 10
-364.843426098597
 20
8.01755181854159
 30
0.0
 11
-364.843426098597
 21
10.3925575405855
 31
0.0
  0
LINE
  5
   3C2
  8
0
  6
CONTINUOUS
 62
     3
 10
-363.043425907862
 20
8.01755181854159
 30
0.0
 11
-363.043425907862
 21
10.3925575405855
 31
0.0
  0
LINE
  5
   3C3
  8
0
  6
CONTINUOUS
 62
     3
 10
-361.243430008662
 20
8.01755181854159
 30
0.0
 11
-361.243430008662
 21
10.3925575405855
 31
0.0
  0
LINE
  5
   3C4
  8
0
  6
CONTINUOUS
 62
     3
 10
-359.443426956904
 20
8.01755181854159
 30
0.0
 11
-359.443426956904
 21
10.3925575405855
 31
0.0
  0
LINE
  5
   3C5
  8
0
  6
CONTINUOUS
 62
     3
 10
-357.643431534541
 20
8.01755181854159
 30
0.0
 11
-357.643431534541
 21
10.3925575405855
 31
0.0
  0
LINE
  5
   3C6
  8
0
  6
CONTINUOUS
 62
     3
 10
-355.843428482783
 20
8.01755181854159
 30
0.0
 11
-355.843428482783
 21
10.3925575405855
 31
0.0
  0
LINE
  5
   3C7
  8
0
  6
CONTINUOUS
 62
     3
 10
-354.04343306042
 20
8.01755181854159
 30
0.0
 11
-354.04343306042
 21
10.3925575405855
 31
0.0
  0
LINE
  5
   3C8
  8
0
  6
CONTINUOUS
 62
     3
 10
-352.243430008662
 20
8.01755181854159
 30
0.0
 11
-352.243430008662
 21
10.3925575405855
 31
0.0
  0
LINE
  5
   3C9
  8
0
  6
CONTINUOUS
 62
     3
 10
-350.443426956904
 20
8.01755181854159
 30
0.0
 11
-350.443426956904
 21
10.3925575405855
 31
0.0
  0
LINE
  5
   3CA
  8
0
  6
CONTINUOUS
 62
     3
 10
-348.643431534541
 20
8.01755181854159
 30
0.0
 11
-348.643431534541
 21
10.3925575405855
 31
0.0
  0
LINE
  5
   3CB
  8
0
  6
CONTINUOUS
 62
     3
 10
-346.843428482783
 20
8.01755181854159
 30
0.0
 11
-346.843428482783
 21
10.3925575405855
 31
0.0
  0
LINE
  5
   3CC
  8
0
  6
CONTINUOUS
 62
     3
 10
-345.04343306042
 20
8.01755181854159
 30
0.0
 11
-345.04343306042
 21
10.3925575405855
 31
0.0
  0
LINE
  5
   3CD
  8
0
  6
CONTINUOUS
 62
     3
 10
-343.243430008662
 20
8.01755181854159
 30
0.0
 11
-343.243430008662
 21
10.3925575405855
 31
0.0
  0
LINE
  5
   3CE
  8
0
  6
CONTINUOUS
 62
     3
 10
-341.443426956904
 20
8.01755181854159
 30
0.0
 11
-341.443426956904
 21
10.3925575405855
 31
0.0
  0
LINE
  5
   3CF
  8
0
  6
CONTINUOUS
 62
     3
 10
-339.643431534541
 20
8.01755181854159
 30
0.0
 11
-339.643431534541
 21
10.3925575405855
 31
0.0
  0
LINE
  5
   3D0
  8
0
  6
CONTINUOUS
 62
     3
 10
-337.843428482783
 20
8.01755181854159
 30
0.0
 11
-337.843428482783
 21
10.3925575405855
 31
0.0
  0
LINE
  5
   3D1
  8
0
  6
CONTINUOUS
 62
     3
 10
-336.04343306042
 20
8.01755181854159
 30
0.0
 11
-336.04343306042
 21
10.3925575405855
 31
0.0
  0
LINE
  5
   3D2
  8
0
  6
CONTINUOUS
 62
     3
 10
-334.243430008662
 20
8.01755181854159
 30
0.0
 11
-334.243430008662
 21
10.3925575405855
 31
0.0
  0
LINE
  5
   3D3
  8
0
  6
CONTINUOUS
 62
     3
 10
-332.443426956904
 20
8.01755181854159
 30
0.0
 11
-332.443426956904
 21
10.3925575405855
 31
0.0
  0
LINE
  5
   3D4
  8
0
  6
CONTINUOUS
 62
     3
 10
-330.643431534541
 20
8.01755181854159
 30
0.0
 11
-330.643431534541
 21
10.3925575405855
 31
0.0
  0
LINE
  5
   3D5
  8
0
  6
CONTINUOUS
 62
     3
 10
-328.843428482783
 20
8.01755181854159
 30
0.0
 11
-328.843428482783
 21
10.3925575405855
 31
0.0
  0
LINE
  5
   3D6
  8
0
  6
CONTINUOUS
 62
     3
 10
-327.04343306042
 20
8.01755181854159
 30
0.0
 11
-327.04343306042
 21
10.3925575405855
 31
0.0
  0
LINE
  5
   3D7
  8
0
  6
CONTINUOUS
 62
     3
 10
-325.243430008662
 20
8.01755181854159
 30
0.0
 11
-325.243430008662
 21
10.3925575405855
 31
0.0
  0
LINE
  5
   3D8
  8
0
  6
CONTINUOUS
 62
     3
 10
-323.443426956904
 20
8.01755181854159
 30
0.0
 11
-323.443426956904
 21
10.3925575405855
 31
0.0
  0
LINE
  5
   3D9
  8
0
  6
CONTINUOUS
 62
     3
 10
-321.643431534541
 20
8.01755181854159
 30
0.0
 11
-321.643431534541
 21
10.3925575405855
 31
0.0
  0
LINE
  5
   3DA
  8
0
  6
CONTINUOUS
 62
     3
 10
-319.843428482783
 20
8.01755181854159
 30
0.0
 11
-319.843428482783
 21
10.3925575405855
 31
0.0
  0
ARC
  5
   3DB
  8
0
  6
CONTINUOUS
 62
     3
 10
-318.393439831568
 20
8.64255669059878
 30
0.0
 40
0.624999378846369
 50
269.999538037749
 51
359.999972610908
  0
ARC
  5
   3DC
  8
0
  6
CONTINUOUS
 62
     3
 10
-369.643440745292
 20
8.64254105347142
 30
0.0
 40
0.624983634017216
 50
179.998812704745
 51
270.001774088083
  0
LINE
  5
   3DD
  8
0
  6
DASHDOT
 62
     7
 10
-306.903581413235
 20
50.6425556332369
 30
0.0
 11
-383.536383377131
 21
50.6425556332369
 31
0.0
  0
INSERT
  5
   3DE
  8
255
  6
CONTINUOUS
 62
     7
  2
MOSTRINA
 10
-401.437560425533
 20
-4.34775503570845
 30
0.0
 41
0.5
 42
0.5
 50
359.999999792138
 43
0.5
  0
TEXT
  5
   3DF
  8
0
  6
CONTINUOUS
 62
     7
 10
-298.438018808542
 20
39.2738860598529
 30
0.0
 40
3.00000002980232
  1
=      =
 50
89.9999999480344
 41
0.916666604744064
 72
     2
 11
-298.438018789114
 21
60.7238848195795
 31
0.0
  0
INSERT
  5
   3E0
  8
0
  6
CONTINUOUS
 62
     7
  2
*UDIM2154
 10
0.0
 20
0.0
 30
0.0
  0
INSERT
  5
   3E1
  8
0
  6
CONTINUOUS
 62
     7
  2
*UDIM2155
 10
0.0
 20
0.0
 30
0.0
  0
TEXT
  5
   3E2
  8
0
  6
CONTINUOUS
 62
     5
 10
-146.055358896433
 20
39.1072066775286
 30
0.0
 40
3.00000002980232
  1
=      =
 50
89.9999999480344
 41
0.916666604744064
 72
     2
 11
-146.055358877005
 21
60.5572054372553
 31
0.0
  0
INSERT
  5
   3E3
  8
0
  6
CONTINUOUS
 62
     5
  2
*UDIM2156
 10
0.0
 20
0.0
 30
0.0
  0
INSERT
  5
   3E4
  8
0
  6
CONTINUOUS
 62
     5
  2
*UDIM2157
 10
0.0
 20
0.0
 30
0.0
  0
INSERT
  5
   3E5
  8
0
  6
CONTINUOUS
 62
     7
  2
*UDIM2158
 10
0.0
 20
0.0
 30
0.0
  0
INSERT
  5
   3E6
  8
0
  6
CONTINUOUS
 62
     7
  2
*UDIM2159
 10
0.0
 20
0.0
 30
0.0
  0
INSERT
  5
   3E7
  8
0
  6
CONTINUOUS
 62
     7
  2
*UDIM2160
 10
0.0
 20
0.0
 30
0.0
  0
INSERT
  5
   3E8
  8
0
  6
CONTINUOUS
 62
     7
  2
*UDIM2161
 10
0.0
 20
0.0
 30
0.0
  0
INSERT
  5
   3E9
  8
0
  6
CONTINUOUS
 62
     7
  2
*UDIM2162
 10
0.0
 20
0.0
 30
0.0
  0
INSERT
  5
   3EA
  8
0
  6
CONTINUOUS
 62
     7
  2
*UDIM2163
 10
0.0
 20
0.0
 30
0.0
  0
TEXT
  5
   3EB
  8
0
  6
CONTINUOUS
 62
     7
 10
-344.396322567629
 20
134.134504919441
 30
0.0
 40
3.00000002980232
  1
Y
 50
359.999999948034
 41
0.916666604744064
 72
     2
 11
-342.196322698759
 21
134.134504917457
 31
0.0
  0
TEXT
  5
   3EC
  8
0
  6
CONTINUOUS
 62
     7
 10
-417.16029294269
 20
50.0808130554273
 30
0.0
 40
3.00000002980232
  1
X
 50
359.999999948034
 41
0.916666604744064
 72
     2
 11
-414.96029307382
 21
50.080813053443
 31
0.0
  0
INSERT
  5
   3ED
  8
0
  6
CONTINUOUS
 62
     7
  2
*UDIM2164
 10
0.0
 20
0.0
 30
0.0
  0
INSERT
  5
   3EE
  8
0
  6
CONTINUOUS
 62
     7
  2
*UDIM2165
 10
0.0
 20
0.0
 30
0.0
  0
INSERT
  5
   3EF
  8
0
  6
CONTINUOUS
 62
     7
  2
*UDIM2166
 10
0.0
 20
0.0
 30
0.0
  0
LINE
  5
   3F0
  8
0
  6
CONTINUOUS
 62
     7
 10
-105.61727142334
 20
68.4106140136719
 30
0.0
 11
-77.6172714233399
 21
68.4106140136719
 31
0.0
  0
LINE
  5
   3F1
  8
0
  6
CONTINUOUS
 62
     7
 10
-105.61727142334
 20
96.4106140136719
 30
0.0
 11
-77.6172714233399
 21
96.4106140136719
 31
0.0
  0
LINE
  5
   3F2
  8
0
  6
CONTINUOUS
 62
     7
 10
-105.61727142334
 20
96.4106140136719
 30
0.0
 11
-105.61727142334
 21
68.4106140136719
 31
0.0
  0
LINE
  5
   3F3
  8
0
  6
CONTINUOUS
 62
     7
 10
-77.6172714233399
 20
96.4106140136719
 30
0.0
 11
-77.6172714233399
 21
68.4106140136719
 31
0.0
  0
LINE
  5
   3F4
  8
0
  6
DASHDOT
 62
     7
 10
-91.6172714233399
 20
114.882081682425
 30
0.0
 11
-91.6172714233399
 21
58.0388609019285
 31
0.0
  0
CIRCLE
  5
   3F5
  8
0
  6
CONTINUOUS
 62
     7
 10
-101.61727142334
 20
100.160614013672
 30
0.0
 40
0.875
  0
CIRCLE
  5
   3F6
  8
0
  6
CONTINUOUS
 62
     7
 10
-81.6172714233399
 20
100.160614013672
 30
0.0
 40
0.875
  0
CIRCLE
  5
   3F7
  8
0
  6
CONTINUOUS
 62
     7
 10
-81.6172714233399
 20
64.6606140136719
 30
0.0
 40
0.875
  0
CIRCLE
  5
   3F8
  8
0
  6
CONTINUOUS
 62
     7
 10
-101.61727142334
 20
64.6606140136719
 30
0.0
 40
0.875
  0
LINE
  5
   3F9
  8
0
  6
CONTINUOUS
 62
     3
 10
-109.581767092754
 20
102.510414310963
 30
0.0
 11
-73.7783978227688
 21
102.510414310963
 31
0.0
  0
LINE
  5
   3FA
  8
0
  6
CONTINUOUS
 62
     3
 10
-109.581767092754
 20
61.3051331862079
 30
0.0
 11
-73.7783978227688
 21
61.3051331862079
 31
0.0
  0
LINE
  5
   3FB
  8
0
  6
CONTINUOUS
 62
     3
 10
-73.7783978227688
 20
102.510414310963
 30
0.0
 11
-73.7783978227688
 21
61.3051331862079
 31
0.0
  0
LINE
  5
   3FC
  8
0
  6
CONTINUOUS
 62
     3
 10
-109.581767092754
 20
102.510414310963
 30
0.0
 11
-109.581767092754
 21
61.3051331862079
 31
0.0
  0
LINE
  5
   3FD
  8
0
  6
DASHDOT
 62
     7
 10
-81.6172714233399
 20
101.785614013672
 30
0.0
 11
-81.6172714233399
 21
98.5356140136719
 31
0.0
  0
LINE
  5
   3FE
  8
0
  6
DASHDOT
 62
     7
 10
-83.2422714233399
 20
100.160614013672
 30
0.0
 11
-79.9922714233398
 21
100.160614013672
 31
0.0
  0
LINE
  5
   3FF
  8
0
  6
DASHDOT
 62
     7
 10
-101.61727142334
 20
101.785614013672
 30
0.0
 11
-101.61727142334
 21
98.5356140136719
 31
0.0
  0
LINE
  5
   400
  8
0
  6
DASHDOT
 62
     7
 10
-103.24227142334
 20
100.160614013672
 30
0.0
 11
-99.9922714233399
 21
100.160614013672
 31
0.0
  0
LINE
  5
   401
  8
0
  6
DASHDOT
 62
     7
 10
-101.61727142334
 20
66.2856140136719
 30
0.0
 11
-101.61727142334
 21
63.0356140136719
 31
0.0
  0
LINE
  5
   402
  8
0
  6
DASHDOT
 62
     7
 10
-103.24227142334
 20
64.6606140136719
 30
0.0
 11
-99.9922714233399
 21
64.6606140136719
 31
0.0
  0
LINE
  5
   403
  8
0
  6
DASHDOT
 62
     7
 10
-81.6172714233399
 20
66.2856140136719
 30
0.0
 11
-81.6172714233399
 21
63.0356140136719
 31
0.0
  0
LINE
  5
   404
  8
0
  6
DASHDOT
 62
     7
 10
-83.2422714233399
 20
64.6606140136719
 30
0.0
 11
-79.9922714233398
 21
64.6606140136719
 31
0.0
  0
CIRCLE
  5
   405
  8
0
  6
CONTINUOUS
 62
     7
 10
-107.948634612807
 20
101.18886325987
 30
0.0
 40
0.0625
  0
LINE
  5
   406
  8
0
  6
DASHDOT
 62
     7
 10
-117.386732184651
 20
82.4106140136719
 30
0.0
 11
-65.8383274482517
 21
82.4106140136719
 31
0.0
  0
INSERT
  5
   407
  8
0
  6
CONTINUOUS
 62
     7
  2
*UDIM2167
 10
0.0
 20
0.0
 30
0.0
  0
INSERT
  5
   408
  8
0
  6
CONTINUOUS
 62
     7
  2
*UDIM2168
 10
0.0
 20
0.0
 30
0.0
  0
INSERT
  5
   409
  8
0
  6
CONTINUOUS
 62
     7
  2
*UDIM2169
 10
0.0
 20
0.0
 30
0.0
  0
INSERT
  5
   40A
  8
0
  6
CONTINUOUS
 62
     7
  2
*UDIM2170
 10
0.0
 20
0.0
 30
0.0
  0
INSERT
  5
   40B
  8
0
  6
CONTINUOUS
 62
     7
  2
*UDIM2171
 10
0.0
 20
0.0
 30
0.0
  0
TEXT
  5
   40C
  8
0
  6
CONTINUOUS
 62
     7
 10
-92.1572502951849
 20
51.1834506297162
 30
0.0
 40
3.00000002980232
  1
Y
 50
359.999999844103
 41
0.916666604744064
 72
     2
 11
-89.9572504263151
 21
51.1834506237413
 31
0.0
  0
TEXT
  5
   40D
  8
0
  6
CONTINUOUS
 62
     7
 10
-92.8597627978552
 20
123.424640586381
 30
0.0
 40
3.00000002980232
  1
Y
 50
359.999999844103
 41
0.916666604744064
 72
     2
 11
-90.6597629289854
 21
123.424640580406
 31
0.0
  0
TEXT
  5
   40E
  8
0
  6
CONTINUOUS
 62
     7
 10
-64.0399378638494
 20
80.8168911242536
 30
0.0
 40
3.00000002980232
  1
X
 50
359.999999844103
 41
0.916666604744064
 72
     2
 11
-61.8399379949797
 21
80.8168911182786
 31
0.0
  0
TEXT
  5
   40F
  8
0
  6
CONTINUOUS
 62
     7
 10
-134.608878980182
 20
80.9547211432508
 30
0.0
 40
3.00000002980232
  1
X
 50
359.999999844103
 41
0.916666604744064
 72
     2
 11
-132.408879111313
 21
80.9547211372758
 31
0.0
  0
ENDSEC
  0
EOF
